  0
SECTION
  2
HEADER
  9
$ACADVER
  1
AC1009
  9
$INSBASE
 10
0.0
 20
0.0
 30
0.0
  9
$EXTMIN
 10
0.0
 20
-1.4802182810368341
 30
0.0
  9
$EXTMAX
 10
230.09999999999999
 20
195.5
 30
0.0
  9
$LIMMIN
 10
0.0
 20
0.0
  9
$LIMMAX
 10
12.0
 20
9.0
  9
$ORTHOMODE
 70
     1
  9
$REGENMODE
 70
     1
  9
$FILLMODE
 70
     1
  9
$QTEXTMODE
 70
     0
  9
$MIRRTEXT
 70
     0
  9
$DRAGMODE
 70
     2
  9
$LTSCALE
 40
5.0
  9
$OSMODE
 70
    37
  9
$ATTMODE
 70
     1
  9
$TEXTSIZE
 40
0.2
  9
$TRACEWID
 40
0.05
  9
$TEXTSTYLE
  7
STANDARD
  9
$CLAYER
  8
0
  9
$CELTYPE
  6
BYLAYER
  9
$CECOLOR
 62
   256
  9
$DIMSCALE
 40
1.0
  9
$DIMASZ
 40
0.18
  9
$DIMEXO
 40
0.0625
  9
$DIMDLI
 40
0.38
  9
$DIMRND
 40
0.0
  9
$DIMDLE
 40
0.0
  9
$DIMEXE
 40
0.18
  9
$DIMTP
 40
0.0
  9
$DIMTM
 40
0.0
  9
$DIMTXT
 40
2.6000000000000001
  9
$DIMCEN
 40
0.09
  9
$DIMTSZ
 40
0.0
  9
$DIMTOL
 70
     0
  9
$DIMLIM
 70
     0
  9
$DIMTIH
 70
     0
  9
$DIMTOH
 70
     0
  9
$DIMSE1
 70
     0
  9
$DIMSE2
 70
     0
  9
$DIMTAD
 70
     1
  9
$DIMZIN
 70
     8
  9
$DIMBLK
  1

  9
$DIMASO
 70
     1
  9
$DIMSHO
 70
     1
  9
$DIMPOST
  1

  9
$DIMAPOST
  1

  9
$DIMALT
 70
     0
  9
$DIMALTD
 70
     2
  9
$DIMALTF
 40
25.399999999999999
  9
$DIMLFAC
 40
1.0
  9
$DIMTOFL
 70
     0
  9
$DIMTVP
 40
0.0
  9
$DIMTIX
 70
     0
  9
$DIMSOXD
 70
     0
  9
$DIMSAH
 70
     0
  9
$DIMBLK1
  1

  9
$DIMBLK2
  1

  9
$DIMSTYLE
  2
STANDARD
  9
$DIMCLRD
 70
     0
  9
$DIMCLRE
 70
     0
  9
$DIMCLRT
 70
     0
  9
$DIMTFAC
 40
1.0
  9
$DIMGAP
 40
0.09
  9
$LUNITS
 70
     2
  9
$LUPREC
 70
     4
  9
$SKETCHINC
 40
0.1
  9
$FILLETRAD
 40
0.0
  9
$AUNITS
 70
     0
  9
$AUPREC
 70
     0
  9
$MENU
  1
.
  9
$ELEVATION
 40
0.0
  9
$PELEVATION
 40
0.0
  9
$THICKNESS
 40
0.0
  9
$LIMCHECK
 70
     0
  9
$BLIPMODE
 70
     0
  9
$CHAMFERA
 40
0.0
  9
$CHAMFERB
 40
0.0
  9
$SKPOLY
 70
     0
  9
$TDCREATE
 40
2453083.4120647679
  9
$TDUPDATE
 40
2458820.7244824418
  9
$TDINDWG
 40
0.7476028819
  9
$TDUSRTIMER
 40
0.7476027662
  9
$USRTIMER
 70
     1
  9
$ANGBASE
 50
0.0
  9
$ANGDIR
 70
     0
  9
$PDMODE
 70
     0
  9
$PDSIZE
 40
0.0
  9
$PLINEWID
 40
0.0
  9
$COORDS
 70
     1
  9
$SPLFRAME
 70
     0
  9
$SPLINETYPE
 70
     6
  9
$SPLINESEGS
 70
     8
  9
$ATTDIA
 70
     0
  9
$ATTREQ
 70
     1
  9
$HANDLING
 70
     1
  9
$HANDSEED
  5
8052
  9
$SURFTAB1
 70
     6
  9
$SURFTAB2
 70
     6
  9
$SURFTYPE
 70
     6
  9
$SURFU
 70
     6
  9
$SURFV
 70
     6
  9
$UCSNAME
  2

  9
$UCSORG
 10
0.0
 20
0.0
 30
0.0
  9
$UCSXDIR
 10
1.0
 20
0.0
 30
0.0
  9
$UCSYDIR
 10
0.0
 20
1.0
 30
0.0
  9
$PUCSNAME
  2

  9
$PUCSORG
 10
0.0
 20
0.0
 30
0.0
  9
$PUCSXDIR
 10
1.0
 20
0.0
 30
0.0
  9
$PUCSYDIR
 10
0.0
 20
1.0
 30
0.0
  9
$USERI1
 70
     0
  9
$USERI2
 70
     1
  9
$USERI3
 70
     0
  9
$USERI4
 70
     0
  9
$USERI5
 70
     0
  9
$USERR1
 40
0.0
  9
$USERR2
 40
0.0
  9
$USERR3
 40
0.0
  9
$USERR4
 40
0.0
  9
$USERR5
 40
0.0
  9
$WORLDVIEW
 70
     1
  9
$SHADEDGE
 70
     3
  9
$SHADEDIF
 70
    70
  9
$TILEMODE
 70
     1
  9
$MAXACTVP
 70
    64
  9
$PLIMCHECK
 70
     0
  9
$PEXTMIN
 10
0.0
 20
0.0
 30
0.0
  9
$PEXTMAX
 10
0.0
 20
0.0
 30
0.0
  9
$PLIMMIN
 10
0.0
 20
0.0
  9
$PLIMMAX
 10
12.0
 20
9.0
  9
$UNITMODE
 70
     0
  9
$VISRETAIN
 70
     1
  9
$PLINEGEN
 70
     0
  9
$PSLTSCALE
 70
     1
  0
ENDSEC
  0
SECTION
  2
TABLES
  0
TABLE
  2
VPORT
 70
     1
  0
VPORT
  2
*ACTIVE
 70
     0
 10
0.0
 20
0.0
 11
1.0
 21
1.0
 12
211.2077889402905
 22
97.006660916410212
 13
0.0
 23
0.0
 14
0.5
 24
0.5
 15
0.5
 25
0.5
 16
0.0
 26
0.0
 36
1.0
 17
0.0
 27
0.0
 37
0.0
 40
198.71523914967881
 41
2.415644171779141
 42
50.0
 43
0.0
 44
0.0
 50
0.0
 51
0.0
 71
     0
 72
  1000
 73
     1
 74
     2
 75
     0
 76
     0
 77
     0
 78
     0
  0
ENDTAB
  0
TABLE
  2
LTYPE
 70
     3
  0
LTYPE
  2
CONTINUOUS
 70
     0
  3
Solid Line
 72
    65
 73
     0
 40
0.0
  0
LTYPE
  2
CENTER
 70
     0
  3
____ _ ____ _ ____ _ ____ _ ____ _ ____ _ ____
 72
    65
 73
     4
 40
2.0
 49
1.25
 49
-0.25
 49
0.25
 49
-0.25
  0
LTYPE
  2
PHANTOM2
 70
     0
  3
___ _ _ ___ _ _ ___ _ _ ___ _ _
 72
    65
 73
     6
 40
1.25
 49
0.625
 49
-0.125
 49
0.125
 49
-0.125
 49
0.125
 49
-0.125
  0
ENDTAB
  0
TABLE
  2
LAYER
 70
     4
  0
LAYER
  2
0
 70
     0
 62
     7
  6
CONTINUOUS
  0
LAYER
  2
1
 70
     0
 62
     1
  6
CENTER
  0
LAYER
  2
DEFPOINTS
 70
     0
 62
     7
  6
CONTINUOUS
  0
LAYER
  2
3
 70
     0
 62
     3
  6
CONTINUOUS
  0
ENDTAB
  0
TABLE
  2
STYLE
 70
     2
  0
STYLE
  2
STANDARD
 70
     0
 40
0.0
 41
1.0
 50
0.0
 71
     0
 42
0.2
  3
simplex.shx
  4
bigfont.shx
  0
STYLE
  2
STANDARD1
 70
     0
 40
0.0
 41
1.0
 50
0.0
 71
     0
 42
3.0
  3
txt
  4

  0
ENDTAB
  0
TABLE
  2
VIEW
 70
     0
  0
ENDTAB
  0
TABLE
  2
UCS
 70
     0
  0
ENDTAB
  0
TABLE
  2
APPID
 70
     5
  0
APPID
  2
ACAD
 70
     0
  0
APPID
  2
ACAD_MLEADERVER
 70
     0
  0
APPID
  2
ACAD_NAV_VCDISPLAY
 70
     0
  0
APPID
  2
ACAD_EXEMPT_FROM_CAD_STANDARDS
 70
     0
  0
APPID
  2
ACAD_DSTYLE_DIMRADIAL_EXTENSION
 70
     0
  0
ENDTAB
  0
TABLE
  2
DIMSTYLE
 70
     1
  0
DIMSTYLE
  2
STANDARD
 70
     0
  3

  4

  5

  6

  7

 40
1.0
 41
0.18
 42
0.0625
 43
0.38
 44
0.18
 45
0.0
 46
0.0
 47
0.0
 48
0.0
140
2.6000000000000001
141
0.09
142
0.0
143
25.399999999999999
144
1.0
145
0.0
146
1.0
147
0.09
 71
     0
 72
     0
 73
     0
 74
     0
 75
     0
 76
     0
 77
     1
 78
     8
170
     0
171
     2
172
     0
173
     0
174
     0
175
     0
176
     0
177
     0
178
     0
  0
ENDTAB
  0
ENDSEC
  0
SECTION
  2
BLOCKS
  0
BLOCK
  8
0
  2
$MODEL_SPACE
 70
     0
 10
0.0
 20
0.0
 30
0.0
  3
$MODEL_SPACE
  1

  0
ENDBLK
  5
21
  8
0
  0
BLOCK
 67
     1
  8
0
  2
$PAPER_SPACE
 70
     0
 10
0.0
 20
0.0
 30
0.0
  3
$PAPER_SPACE
  1

  0
ENDBLK
  5
5B
 67
     1
  8
0
  0
ENDSEC
  0
SECTION
  2
ENTITIES
  0
TEXT
  5
1F01
  8
0
 62
     3
 10
0.0
 20
0.0
 30
0.0
 40
5.0
  1
CP166-16001
  7
STANDARD1
  0
ARC
  5
7CD0
  8
0
 10
97.84999999999998
 20
106.75
 30
0.0
 40
0.75
 50
0.0
 51
180.0
  0
ARC
  5
7CD1
  8
0
 10
97.84999999999998
 20
93.250000000000014
 30
0.0
 40
0.75
 50
180.0
 51
0.0
  0
LINE
  5
7CD2
  8
0
 10
97.099999999999994
 20
106.75
 30
0.0
 11
97.099999999999994
 21
93.250000000000014
 31
0.0
  0
LINE
  5
7CD3
  8
0
 10
108.0462243332
 20
84.500000000000014
 30
0.0
 11
115.9134560338
 21
86.755892388799964
 31
0.0
  0
LINE
  5
7CD4
  8
0
 10
115.9134560338
 20
113.24410761110001
 30
0.0
 11
108.0462243332
 21
115.5
 31
0.0
  0
LINE
  5
7CD5
  8
0
 10
108.0462243332
 20
115.5
 30
0.0
 11
107.2
 21
115.5
 31
0.0
  0
LINE
  5
7CD6
  8
0
 10
107.2
 20
84.500000000000014
 30
0.0
 11
108.0462243332
 21
84.500000000000014
 31
0.0
  0
LINE
  5
7CD7
  8
0
 10
107.2
 20
115.5
 30
0.0
 11
107.0
 21
115.3
 31
0.0
  0
LINE
  5
7CD8
  8
0
 10
107.0
 20
84.699999999999974
 30
0.0
 11
107.2
 21
84.500000000000014
 31
0.0
  0
ARC
  5
7CD9
  8
0
 10
115.5
 20
111.8022150672
 30
0.0
 40
1.5
 50
0.0
 51
74.000000000000966
  0
ARC
  5
7CDA
  8
0
 10
115.5
 20
88.197784932700017
 30
0.0
 40
1.5
 50
285.99999999999898
 51
0.0
  0
LINE
  5
7CDB
  8
0
 10
134.09999999999991
 20
117.0
 30
0.0
 11
133.09999999999991
 21
118.0
 31
0.0
  0
LINE
  5
7CDC
  8
0
 10
133.09999999999991
 20
118.0
 30
0.0
 11
118.0
 21
118.0
 31
0.0
  0
LINE
  5
7CDD
  8
0
 10
118.0
 20
118.0
 30
0.0
 11
117.0
 21
117.0
 31
0.0
  0
LINE
  5
7CDE
  8
0
 10
117.0
 20
88.0
 30
0.0
 11
134.09999999999991
 21
88.0
 31
0.0
  0
LINE
  5
7CDF
  8
0
 10
107.0
 20
107.995
 30
0.0
 11
98.599999999999994
 21
107.995
 31
0.0
  0
LINE
  5
7CE0
  8
0
 10
98.599999999999994
 20
92.004999999999995
 30
0.0
 11
107.0
 21
92.004999999999995
 31
0.0
  0
LINE
  5
7CE1
  8
0
 10
96.999999999999986
 20
107.995
 30
0.0
 11
86.994999999999976
 21
107.995
 31
0.0
  0
LINE
  5
7CE2
  8
0
 10
86.994999999999976
 20
92.004999999999995
 30
0.0
 11
96.999999999999986
 21
92.004999999999995
 31
0.0
  0
LINE
  5
7CE3
  8
0
 10
86.994999999999976
 20
107.995
 30
0.0
 11
85.0
 21
106.0
 31
0.0
  0
LINE
  5
7CE4
  8
0
 10
85.0
 20
94.0
 30
0.0
 11
86.994999999999976
 21
92.004999999999995
 31
0.0
  0
LINE
  5
7CE5
  8
0
 10
97.099999999999994
 20
106.0
 30
0.0
 11
96.999999999999986
 21
106.0
 31
0.0
  0
LINE
  5
7CE6
  8
0
 10
96.999999999999986
 20
94.0
 30
0.0
 11
97.099999999999994
 21
94.0
 31
0.0
  0
LINE
  5
7CE7
  8
0
 10
108.0462243332
 20
115.5
 30
0.0
 11
108.0462243332
 21
84.500000000000014
 31
0.0
  0
LINE
  5
7CE8
  8
0
 10
107.2
 20
115.4999999999999
 30
0.0
 11
107.2
 21
84.500000000000014
 31
0.0
  0
LINE
  5
7CEB
  8
0
 10
107.0
 20
84.699999999999974
 30
0.0
 11
107.0
 21
115.3
 31
0.0
  0
LINE
  5
7CED
  8
0
 10
134.09999999999991
 20
112.0415945788
 30
0.0
 11
133.09999999999991
 21
113.416407865
 31
0.0
  0
LINE
  5
7CEE
  8
0
 10
133.09999999999991
 20
113.416407865
 30
0.0
 11
133.09999999999991
 21
118.0
 31
0.0
  0
POLYLINE
  5
7CEF
  8
0
 10
131.67542648069985
 20
113.41640786499896
 30
0.0
 66
     1
 70
     8
  0
VERTEX
  8
0
  5
7E4A
 10
131.675
 20
113.416
 30
0.000000
  70
    32
  0
VERTEX
  8
0
  5
7E4B
 10
131.650
 20
113.456
 30
0.000000
  70
    32
  0
VERTEX
  8
0
  5
7E4C
 10
131.625
 20
113.495
 30
0.000000
  70
    32
  0
VERTEX
  8
0
  5
7E4D
 10
131.599
 20
113.534
 30
0.000000
  70
    32
  0
VERTEX
  8
0
  5
7E4E
 10
131.573
 20
113.572
 30
0.000000
  70
    32
  0
VERTEX
  8
0
  5
7E4F
 10
131.548
 20
113.611
 30
0.000000
  70
    32
  0
VERTEX
  8
0
  5
7E50
 10
131.522
 20
113.650
 30
0.000000
  70
    32
  0
VERTEX
  8
0
  5
7E51
 10
131.496
 20
113.688
 30
0.000000
  70
    32
  0
VERTEX
  8
0
  5
7E52
 10
131.470
 20
113.726
 30
0.000000
  70
    32
  0
VERTEX
  8
0
  5
7E53
 10
131.444
 20
113.764
 30
0.000000
  70
    32
  0
VERTEX
  8
0
  5
7E54
 10
131.418
 20
113.802
 30
0.000000
  70
    32
  0
VERTEX
  8
0
  5
7E55
 10
131.392
 20
113.840
 30
0.000000
  70
    32
  0
VERTEX
  8
0
  5
7E56
 10
131.366
 20
113.878
 30
0.000000
  70
    32
  0
VERTEX
  8
0
  5
7E57
 10
131.339
 20
113.915
 30
0.000000
  70
    32
  0
VERTEX
  8
0
  5
7E58
 10
131.313
 20
113.952
 30
0.000000
  70
    32
  0
VERTEX
  8
0
  5
7E59
 10
131.287
 20
113.989
 30
0.000000
  70
    32
  0
VERTEX
  8
0
  5
7E5A
 10
131.260
 20
114.027
 30
0.000000
  70
    32
  0
VERTEX
  8
0
  5
7E5B
 10
131.234
 20
114.063
 30
0.000000
  70
    32
  0
VERTEX
  8
0
  5
7E5C
 10
131.207
 20
114.100
 30
0.000000
  70
    32
  0
VERTEX
  8
0
  5
7E5D
 10
131.180
 20
114.137
 30
0.000000
  70
    32
  0
VERTEX
  8
0
  5
7E5E
 10
131.154
 20
114.173
 30
0.000000
  70
    32
  0
VERTEX
  8
0
  5
7E5F
 10
131.127
 20
114.209
 30
0.000000
  70
    32
  0
VERTEX
  8
0
  5
7E60
 10
131.100
 20
114.245
 30
0.000000
  70
    32
  0
VERTEX
  8
0
  5
7E61
 10
131.073
 20
114.281
 30
0.000000
  70
    32
  0
VERTEX
  8
0
  5
7E62
 10
131.046
 20
114.317
 30
0.000000
  70
    32
  0
VERTEX
  8
0
  5
7E63
 10
131.019
 20
114.353
 30
0.000000
  70
    32
  0
VERTEX
  8
0
  5
7E64
 10
130.992
 20
114.388
 30
0.000000
  70
    32
  0
VERTEX
  8
0
  5
7E65
 10
130.964
 20
114.424
 30
0.000000
  70
    32
  0
VERTEX
  8
0
  5
7E66
 10
130.937
 20
114.459
 30
0.000000
  70
    32
  0
VERTEX
  8
0
  5
7E67
 10
130.910
 20
114.494
 30
0.000000
  70
    32
  0
VERTEX
  8
0
  5
7E68
 10
130.882
 20
114.529
 30
0.000000
  70
    32
  0
VERTEX
  8
0
  5
7E69
 10
130.855
 20
114.564
 30
0.000000
  70
    32
  0
VERTEX
  8
0
  5
7E6A
 10
130.827
 20
114.598
 30
0.000000
  70
    32
  0
VERTEX
  8
0
  5
7E6B
 10
130.799
 20
114.633
 30
0.000000
  70
    32
  0
VERTEX
  8
0
  5
7E6C
 10
130.772
 20
114.667
 30
0.000000
  70
    32
  0
VERTEX
  8
0
  5
7E6D
 10
130.744
 20
114.701
 30
0.000000
  70
    32
  0
VERTEX
  8
0
  5
7E6E
 10
130.716
 20
114.735
 30
0.000000
  70
    32
  0
VERTEX
  8
0
  5
7E6F
 10
130.688
 20
114.769
 30
0.000000
  70
    32
  0
VERTEX
  8
0
  5
7E70
 10
130.660
 20
114.802
 30
0.000000
  70
    32
  0
VERTEX
  8
0
  5
7E71
 10
130.632
 20
114.836
 30
0.000000
  70
    32
  0
VERTEX
  8
0
  5
7E72
 10
130.604
 20
114.869
 30
0.000000
  70
    32
  0
VERTEX
  8
0
  5
7E73
 10
130.576
 20
114.902
 30
0.000000
  70
    32
  0
VERTEX
  8
0
  5
7E74
 10
130.548
 20
114.935
 30
0.000000
  70
    32
  0
VERTEX
  8
0
  5
7E75
 10
130.520
 20
114.968
 30
0.000000
  70
    32
  0
VERTEX
  8
0
  5
7E76
 10
130.491
 20
115.001
 30
0.000000
  70
    32
  0
VERTEX
  8
0
  5
7E77
 10
130.463
 20
115.033
 30
0.000000
  70
    32
  0
VERTEX
  8
0
  5
7E78
 10
130.434
 20
115.065
 30
0.000000
  70
    32
  0
VERTEX
  8
0
  5
7E79
 10
130.406
 20
115.098
 30
0.000000
  70
    32
  0
VERTEX
  8
0
  5
7E7A
 10
130.377
 20
115.130
 30
0.000000
  70
    32
  0
VERTEX
  8
0
  5
7E7B
 10
130.349
 20
115.161
 30
0.000000
  70
    32
  0
VERTEX
  8
0
  5
7E7C
 10
130.320
 20
115.193
 30
0.000000
  70
    32
  0
VERTEX
  8
0
  5
7E7D
 10
130.291
 20
115.225
 30
0.000000
  70
    32
  0
VERTEX
  8
0
  5
7E7E
 10
130.262
 20
115.256
 30
0.000000
  70
    32
  0
VERTEX
  8
0
  5
7E7F
 10
130.234
 20
115.287
 30
0.000000
  70
    32
  0
VERTEX
  8
0
  5
7E80
 10
130.205
 20
115.318
 30
0.000000
  70
    32
  0
VERTEX
  8
0
  5
7E81
 10
130.176
 20
115.349
 30
0.000000
  70
    32
  0
VERTEX
  8
0
  5
7E82
 10
130.147
 20
115.380
 30
0.000000
  70
    32
  0
VERTEX
  8
0
  5
7E83
 10
130.117
 20
115.410
 30
0.000000
  70
    32
  0
VERTEX
  8
0
  5
7E84
 10
130.088
 20
115.441
 30
0.000000
  70
    32
  0
VERTEX
  8
0
  5
7E85
 10
130.059
 20
115.471
 30
0.000000
  70
    32
  0
VERTEX
  8
0
  5
7E86
 10
130.030
 20
115.501
 30
0.000000
  70
    32
  0
VERTEX
  8
0
  5
7E87
 10
130.000
 20
115.531
 30
0.000000
  70
    32
  0
VERTEX
  8
0
  5
7E88
 10
129.971
 20
115.561
 30
0.000000
  70
    32
  0
VERTEX
  8
0
  5
7E89
 10
129.942
 20
115.590
 30
0.000000
  70
    32
  0
VERTEX
  8
0
  5
7E8A
 10
129.912
 20
115.620
 30
0.000000
  70
    32
  0
VERTEX
  8
0
  5
7E8B
 10
129.883
 20
115.649
 30
0.000000
  70
    32
  0
VERTEX
  8
0
  5
7E8C
 10
129.853
 20
115.678
 30
0.000000
  70
    32
  0
VERTEX
  8
0
  5
7E8D
 10
129.823
 20
115.707
 30
0.000000
  70
    32
  0
VERTEX
  8
0
  5
7E8E
 10
129.794
 20
115.735
 30
0.000000
  70
    32
  0
VERTEX
  8
0
  5
7E8F
 10
129.764
 20
115.764
 30
0.000000
  70
    32
  0
VERTEX
  8
0
  5
7E90
 10
129.734
 20
115.792
 30
0.000000
  70
    32
  0
VERTEX
  8
0
  5
7E91
 10
129.704
 20
115.821
 30
0.000000
  70
    32
  0
VERTEX
  8
0
  5
7E92
 10
129.674
 20
115.849
 30
0.000000
  70
    32
  0
VERTEX
  8
0
  5
7E93
 10
129.644
 20
115.876
 30
0.000000
  70
    32
  0
VERTEX
  8
0
  5
7E94
 10
129.614
 20
115.904
 30
0.000000
  70
    32
  0
VERTEX
  8
0
  5
7E95
 10
129.584
 20
115.932
 30
0.000000
  70
    32
  0
VERTEX
  8
0
  5
7E96
 10
129.554
 20
115.959
 30
0.000000
  70
    32
  0
VERTEX
  8
0
  5
7E97
 10
129.524
 20
115.986
 30
0.000000
  70
    32
  0
VERTEX
  8
0
  5
7E98
 10
129.493
 20
116.013
 30
0.000000
  70
    32
  0
VERTEX
  8
0
  5
7E99
 10
129.463
 20
116.040
 30
0.000000
  70
    32
  0
VERTEX
  8
0
  5
7E9A
 10
129.433
 20
116.067
 30
0.000000
  70
    32
  0
VERTEX
  8
0
  5
7E9B
 10
129.402
 20
116.093
 30
0.000000
  70
    32
  0
VERTEX
  8
0
  5
7E9C
 10
129.372
 20
116.120
 30
0.000000
  70
    32
  0
VERTEX
  8
0
  5
7E9D
 10
129.341
 20
116.146
 30
0.000000
  70
    32
  0
VERTEX
  8
0
  5
7E9E
 10
129.311
 20
116.172
 30
0.000000
  70
    32
  0
VERTEX
  8
0
  5
7E9F
 10
129.280
 20
116.197
 30
0.000000
  70
    32
  0
VERTEX
  8
0
  5
7EA0
 10
129.249
 20
116.223
 30
0.000000
  70
    32
  0
VERTEX
  8
0
  5
7EA1
 10
129.219
 20
116.249
 30
0.000000
  70
    32
  0
VERTEX
  8
0
  5
7EA2
 10
129.188
 20
116.274
 30
0.000000
  70
    32
  0
VERTEX
  8
0
  5
7EA3
 10
129.157
 20
116.299
 30
0.000000
  70
    32
  0
VERTEX
  8
0
  5
7EA4
 10
129.126
 20
116.324
 30
0.000000
  70
    32
  0
VERTEX
  8
0
  5
7EA5
 10
129.096
 20
116.349
 30
0.000000
  70
    32
  0
VERTEX
  8
0
  5
7EA6
 10
129.065
 20
116.373
 30
0.000000
  70
    32
  0
VERTEX
  8
0
  5
7EA7
 10
129.034
 20
116.398
 30
0.000000
  70
    32
  0
VERTEX
  8
0
  5
7EA8
 10
129.003
 20
116.422
 30
0.000000
  70
    32
  0
VERTEX
  8
0
  5
7EA9
 10
128.971
 20
116.446
 30
0.000000
  70
    32
  0
VERTEX
  8
0
  5
7EAA
 10
128.940
 20
116.470
 30
0.000000
  70
    32
  0
VERTEX
  8
0
  5
7EAB
 10
128.909
 20
116.493
 30
0.000000
  70
    32
  0
VERTEX
  8
0
  5
7EAC
 10
128.878
 20
116.517
 30
0.000000
  70
    32
  0
VERTEX
  8
0
  5
7EAD
 10
128.847
 20
116.540
 30
0.000000
  70
    32
  0
VERTEX
  8
0
  5
7EAE
 10
128.815
 20
116.563
 30
0.000000
  70
    32
  0
VERTEX
  8
0
  5
7EAF
 10
128.784
 20
116.586
 30
0.000000
  70
    32
  0
VERTEX
  8
0
  5
7EB0
 10
128.753
 20
116.609
 30
0.000000
  70
    32
  0
VERTEX
  8
0
  5
7EB1
 10
128.721
 20
116.632
 30
0.000000
  70
    32
  0
VERTEX
  8
0
  5
7EB2
 10
128.690
 20
116.654
 30
0.000000
  70
    32
  0
VERTEX
  8
0
  5
7EB3
 10
128.658
 20
116.677
 30
0.000000
  70
    32
  0
VERTEX
  8
0
  5
7EB4
 10
128.627
 20
116.699
 30
0.000000
  70
    32
  0
VERTEX
  8
0
  5
7EB5
 10
128.595
 20
116.721
 30
0.000000
  70
    32
  0
VERTEX
  8
0
  5
7EB6
 10
128.564
 20
116.742
 30
0.000000
  70
    32
  0
VERTEX
  8
0
  5
7EB7
 10
128.532
 20
116.764
 30
0.000000
  70
    32
  0
VERTEX
  8
0
  5
7EB8
 10
128.500
 20
116.785
 30
0.000000
  70
    32
  0
VERTEX
  8
0
  5
7EB9
 10
128.468
 20
116.807
 30
0.000000
  70
    32
  0
VERTEX
  8
0
  5
7EBA
 10
128.437
 20
116.828
 30
0.000000
  70
    32
  0
VERTEX
  8
0
  5
7EBB
 10
128.405
 20
116.848
 30
0.000000
  70
    32
  0
VERTEX
  8
0
  5
7EBC
 10
128.373
 20
116.869
 30
0.000000
  70
    32
  0
VERTEX
  8
0
  5
7EBD
 10
128.341
 20
116.890
 30
0.000000
  70
    32
  0
VERTEX
  8
0
  5
7EBE
 10
128.309
 20
116.910
 30
0.000000
  70
    32
  0
VERTEX
  8
0
  5
7EBF
 10
128.277
 20
116.930
 30
0.000000
  70
    32
  0
VERTEX
  8
0
  5
7EC0
 10
128.245
 20
116.950
 30
0.000000
  70
    32
  0
VERTEX
  8
0
  5
7EC1
 10
128.213
 20
116.970
 30
0.000000
  70
    32
  0
VERTEX
  8
0
  5
7EC2
 10
128.181
 20
116.989
 30
0.000000
  70
    32
  0
VERTEX
  8
0
  5
7EC3
 10
128.149
 20
117.009
 30
0.000000
  70
    32
  0
VERTEX
  8
0
  5
7EC4
 10
128.116
 20
117.028
 30
0.000000
  70
    32
  0
VERTEX
  8
0
  5
7EC5
 10
128.084
 20
117.047
 30
0.000000
  70
    32
  0
VERTEX
  8
0
  5
7EC6
 10
128.052
 20
117.066
 30
0.000000
  70
    32
  0
VERTEX
  8
0
  5
7EC7
 10
128.020
 20
117.084
 30
0.000000
  70
    32
  0
VERTEX
  8
0
  5
7EC8
 10
127.987
 20
117.103
 30
0.000000
  70
    32
  0
VERTEX
  8
0
  5
7EC9
 10
127.955
 20
117.121
 30
0.000000
  70
    32
  0
VERTEX
  8
0
  5
7ECA
 10
127.923
 20
117.139
 30
0.000000
  70
    32
  0
SEQEND
  8
0
  5
7ECB
  0
ARC
  5
7CF0
  8
0
 10
127.18066421499999
 20
115.46053409229989
 30
0.0
 40
1.8352788759054339
 50
66.153336327298845
 51
93.875369561999733
  0
LINE
  5
7CF1
  8
0
 10
127.0566243271
 20
117.2916164658
 30
0.0
 11
124.29422863409999
 21
117.2916164658
 31
0.0
  0
ARC
  5
7CF2
  8
0
 10
124.1945879498
 20
115.3219563441999
 30
0.0
 40
1.9721788104318769
 50
87.104003842699726
 51
112.86729026799981
  0
POLYLINE
  5
7CF3
  8
0
 10
123.42820323029999
 20
117.13913650100261
 30
0.0
 66
     1
 70
     8
  0
VERTEX
  8
0
  5
7ECC
 10
123.428
 20
117.139
 30
0.000000
  70
    32
  0
VERTEX
  8
0
  5
7ECD
 10
123.396
 20
117.121
 30
0.000000
  70
    32
  0
VERTEX
  8
0
  5
7ECE
 10
123.363
 20
117.103
 30
0.000000
  70
    32
  0
VERTEX
  8
0
  5
7ECF
 10
123.331
 20
117.084
 30
0.000000
  70
    32
  0
VERTEX
  8
0
  5
7ED0
 10
123.299
 20
117.066
 30
0.000000
  70
    32
  0
VERTEX
  8
0
  5
7ED1
 10
123.267
 20
117.047
 30
0.000000
  70
    32
  0
VERTEX
  8
0
  5
7ED2
 10
123.234
 20
117.028
 30
0.000000
  70
    32
  0
VERTEX
  8
0
  5
7ED3
 10
123.202
 20
117.009
 30
0.000000
  70
    32
  0
VERTEX
  8
0
  5
7ED4
 10
123.170
 20
116.989
 30
0.000000
  70
    32
  0
VERTEX
  8
0
  5
7ED5
 10
123.138
 20
116.970
 30
0.000000
  70
    32
  0
VERTEX
  8
0
  5
7ED6
 10
123.106
 20
116.950
 30
0.000000
  70
    32
  0
VERTEX
  8
0
  5
7ED7
 10
123.074
 20
116.930
 30
0.000000
  70
    32
  0
VERTEX
  8
0
  5
7ED8
 10
123.042
 20
116.910
 30
0.000000
  70
    32
  0
VERTEX
  8
0
  5
7ED9
 10
123.010
 20
116.890
 30
0.000000
  70
    32
  0
VERTEX
  8
0
  5
7EDA
 10
122.978
 20
116.869
 30
0.000000
  70
    32
  0
VERTEX
  8
0
  5
7EDB
 10
122.946
 20
116.848
 30
0.000000
  70
    32
  0
VERTEX
  8
0
  5
7EDC
 10
122.914
 20
116.828
 30
0.000000
  70
    32
  0
VERTEX
  8
0
  5
7EDD
 10
122.882
 20
116.807
 30
0.000000
  70
    32
  0
VERTEX
  8
0
  5
7EDE
 10
122.851
 20
116.785
 30
0.000000
  70
    32
  0
VERTEX
  8
0
  5
7EDF
 10
122.819
 20
116.764
 30
0.000000
  70
    32
  0
VERTEX
  8
0
  5
7EE0
 10
122.787
 20
116.742
 30
0.000000
  70
    32
  0
VERTEX
  8
0
  5
7EE1
 10
122.756
 20
116.721
 30
0.000000
  70
    32
  0
VERTEX
  8
0
  5
7EE2
 10
122.724
 20
116.699
 30
0.000000
  70
    32
  0
VERTEX
  8
0
  5
7EE3
 10
122.693
 20
116.677
 30
0.000000
  70
    32
  0
VERTEX
  8
0
  5
7EE4
 10
122.661
 20
116.654
 30
0.000000
  70
    32
  0
VERTEX
  8
0
  5
7EE5
 10
122.630
 20
116.632
 30
0.000000
  70
    32
  0
VERTEX
  8
0
  5
7EE6
 10
122.598
 20
116.609
 30
0.000000
  70
    32
  0
VERTEX
  8
0
  5
7EE7
 10
122.567
 20
116.586
 30
0.000000
  70
    32
  0
VERTEX
  8
0
  5
7EE8
 10
122.535
 20
116.563
 30
0.000000
  70
    32
  0
VERTEX
  8
0
  5
7EE9
 10
122.504
 20
116.540
 30
0.000000
  70
    32
  0
VERTEX
  8
0
  5
7EEA
 10
122.473
 20
116.517
 30
0.000000
  70
    32
  0
VERTEX
  8
0
  5
7EEB
 10
122.442
 20
116.493
 30
0.000000
  70
    32
  0
VERTEX
  8
0
  5
7EEC
 10
122.410
 20
116.470
 30
0.000000
  70
    32
  0
VERTEX
  8
0
  5
7EED
 10
122.379
 20
116.446
 30
0.000000
  70
    32
  0
VERTEX
  8
0
  5
7EEE
 10
122.348
 20
116.422
 30
0.000000
  70
    32
  0
VERTEX
  8
0
  5
7EEF
 10
122.317
 20
116.398
 30
0.000000
  70
    32
  0
VERTEX
  8
0
  5
7EF0
 10
122.286
 20
116.373
 30
0.000000
  70
    32
  0
VERTEX
  8
0
  5
7EF1
 10
122.255
 20
116.349
 30
0.000000
  70
    32
  0
VERTEX
  8
0
  5
7EF2
 10
122.224
 20
116.324
 30
0.000000
  70
    32
  0
VERTEX
  8
0
  5
7EF3
 10
122.194
 20
116.299
 30
0.000000
  70
    32
  0
VERTEX
  8
0
  5
7EF4
 10
122.163
 20
116.274
 30
0.000000
  70
    32
  0
VERTEX
  8
0
  5
7EF5
 10
122.132
 20
116.249
 30
0.000000
  70
    32
  0
VERTEX
  8
0
  5
7EF6
 10
122.101
 20
116.223
 30
0.000000
  70
    32
  0
VERTEX
  8
0
  5
7EF7
 10
122.071
 20
116.197
 30
0.000000
  70
    32
  0
VERTEX
  8
0
  5
7EF8
 10
122.040
 20
116.172
 30
0.000000
  70
    32
  0
VERTEX
  8
0
  5
7EF9
 10
122.010
 20
116.146
 30
0.000000
  70
    32
  0
VERTEX
  8
0
  5
7EFA
 10
121.979
 20
116.120
 30
0.000000
  70
    32
  0
VERTEX
  8
0
  5
7EFB
 10
121.949
 20
116.093
 30
0.000000
  70
    32
  0
VERTEX
  8
0
  5
7EFC
 10
121.918
 20
116.067
 30
0.000000
  70
    32
  0
VERTEX
  8
0
  5
7EFD
 10
121.888
 20
116.040
 30
0.000000
  70
    32
  0
VERTEX
  8
0
  5
7EFE
 10
121.858
 20
116.013
 30
0.000000
  70
    32
  0
VERTEX
  8
0
  5
7EFF
 10
121.827
 20
115.986
 30
0.000000
  70
    32
  0
VERTEX
  8
0
  5
7F00
 10
121.797
 20
115.959
 30
0.000000
  70
    32
  0
VERTEX
  8
0
  5
7F01
 10
121.767
 20
115.932
 30
0.000000
  70
    32
  0
VERTEX
  8
0
  5
7F02
 10
121.737
 20
115.904
 30
0.000000
  70
    32
  0
VERTEX
  8
0
  5
7F03
 10
121.707
 20
115.876
 30
0.000000
  70
    32
  0
VERTEX
  8
0
  5
7F04
 10
121.677
 20
115.849
 30
0.000000
  70
    32
  0
VERTEX
  8
0
  5
7F05
 10
121.647
 20
115.821
 30
0.000000
  70
    32
  0
VERTEX
  8
0
  5
7F06
 10
121.617
 20
115.792
 30
0.000000
  70
    32
  0
VERTEX
  8
0
  5
7F07
 10
121.587
 20
115.764
 30
0.000000
  70
    32
  0
VERTEX
  8
0
  5
7F08
 10
121.557
 20
115.735
 30
0.000000
  70
    32
  0
VERTEX
  8
0
  5
7F09
 10
121.528
 20
115.707
 30
0.000000
  70
    32
  0
VERTEX
  8
0
  5
7F0A
 10
121.498
 20
115.678
 30
0.000000
  70
    32
  0
VERTEX
  8
0
  5
7F0B
 10
121.468
 20
115.649
 30
0.000000
  70
    32
  0
VERTEX
  8
0
  5
7F0C
 10
121.439
 20
115.620
 30
0.000000
  70
    32
  0
VERTEX
  8
0
  5
7F0D
 10
121.409
 20
115.590
 30
0.000000
  70
    32
  0
VERTEX
  8
0
  5
7F0E
 10
121.380
 20
115.561
 30
0.000000
  70
    32
  0
VERTEX
  8
0
  5
7F0F
 10
121.350
 20
115.531
 30
0.000000
  70
    32
  0
VERTEX
  8
0
  5
7F10
 10
121.321
 20
115.501
 30
0.000000
  70
    32
  0
VERTEX
  8
0
  5
7F11
 10
121.292
 20
115.471
 30
0.000000
  70
    32
  0
VERTEX
  8
0
  5
7F12
 10
121.263
 20
115.441
 30
0.000000
  70
    32
  0
VERTEX
  8
0
  5
7F13
 10
121.233
 20
115.410
 30
0.000000
  70
    32
  0
VERTEX
  8
0
  5
7F14
 10
121.204
 20
115.380
 30
0.000000
  70
    32
  0
VERTEX
  8
0
  5
7F15
 10
121.175
 20
115.349
 30
0.000000
  70
    32
  0
VERTEX
  8
0
  5
7F16
 10
121.146
 20
115.318
 30
0.000000
  70
    32
  0
VERTEX
  8
0
  5
7F17
 10
121.117
 20
115.287
 30
0.000000
  70
    32
  0
VERTEX
  8
0
  5
7F18
 10
121.088
 20
115.256
 30
0.000000
  70
    32
  0
VERTEX
  8
0
  5
7F19
 10
121.060
 20
115.225
 30
0.000000
  70
    32
  0
VERTEX
  8
0
  5
7F1A
 10
121.031
 20
115.193
 30
0.000000
  70
    32
  0
VERTEX
  8
0
  5
7F1B
 10
121.002
 20
115.161
 30
0.000000
  70
    32
  0
VERTEX
  8
0
  5
7F1C
 10
120.974
 20
115.130
 30
0.000000
  70
    32
  0
VERTEX
  8
0
  5
7F1D
 10
120.945
 20
115.098
 30
0.000000
  70
    32
  0
VERTEX
  8
0
  5
7F1E
 10
120.916
 20
115.065
 30
0.000000
  70
    32
  0
VERTEX
  8
0
  5
7F1F
 10
120.888
 20
115.033
 30
0.000000
  70
    32
  0
VERTEX
  8
0
  5
7F20
 10
120.860
 20
115.001
 30
0.000000
  70
    32
  0
VERTEX
  8
0
  5
7F21
 10
120.831
 20
114.968
 30
0.000000
  70
    32
  0
VERTEX
  8
0
  5
7F22
 10
120.803
 20
114.935
 30
0.000000
  70
    32
  0
VERTEX
  8
0
  5
7F23
 10
120.775
 20
114.902
 30
0.000000
  70
    32
  0
VERTEX
  8
0
  5
7F24
 10
120.747
 20
114.869
 30
0.000000
  70
    32
  0
VERTEX
  8
0
  5
7F25
 10
120.719
 20
114.836
 30
0.000000
  70
    32
  0
VERTEX
  8
0
  5
7F26
 10
120.691
 20
114.802
 30
0.000000
  70
    32
  0
VERTEX
  8
0
  5
7F27
 10
120.663
 20
114.769
 30
0.000000
  70
    32
  0
VERTEX
  8
0
  5
7F28
 10
120.635
 20
114.735
 30
0.000000
  70
    32
  0
VERTEX
  8
0
  5
7F29
 10
120.607
 20
114.701
 30
0.000000
  70
    32
  0
VERTEX
  8
0
  5
7F2A
 10
120.579
 20
114.667
 30
0.000000
  70
    32
  0
VERTEX
  8
0
  5
7F2B
 10
120.551
 20
114.633
 30
0.000000
  70
    32
  0
VERTEX
  8
0
  5
7F2C
 10
120.524
 20
114.598
 30
0.000000
  70
    32
  0
VERTEX
  8
0
  5
7F2D
 10
120.496
 20
114.564
 30
0.000000
  70
    32
  0
VERTEX
  8
0
  5
7F2E
 10
120.469
 20
114.529
 30
0.000000
  70
    32
  0
VERTEX
  8
0
  5
7F2F
 10
120.441
 20
114.494
 30
0.000000
  70
    32
  0
VERTEX
  8
0
  5
7F30
 10
120.414
 20
114.459
 30
0.000000
  70
    32
  0
VERTEX
  8
0
  5
7F31
 10
120.387
 20
114.424
 30
0.000000
  70
    32
  0
VERTEX
  8
0
  5
7F32
 10
120.359
 20
114.388
 30
0.000000
  70
    32
  0
VERTEX
  8
0
  5
7F33
 10
120.332
 20
114.353
 30
0.000000
  70
    32
  0
VERTEX
  8
0
  5
7F34
 10
120.305
 20
114.317
 30
0.000000
  70
    32
  0
VERTEX
  8
0
  5
7F35
 10
120.278
 20
114.281
 30
0.000000
  70
    32
  0
VERTEX
  8
0
  5
7F36
 10
120.251
 20
114.245
 30
0.000000
  70
    32
  0
VERTEX
  8
0
  5
7F37
 10
120.224
 20
114.209
 30
0.000000
  70
    32
  0
VERTEX
  8
0
  5
7F38
 10
120.197
 20
114.173
 30
0.000000
  70
    32
  0
VERTEX
  8
0
  5
7F39
 10
120.171
 20
114.137
 30
0.000000
  70
    32
  0
VERTEX
  8
0
  5
7F3A
 10
120.144
 20
114.100
 30
0.000000
  70
    32
  0
VERTEX
  8
0
  5
7F3B
 10
120.117
 20
114.063
 30
0.000000
  70
    32
  0
VERTEX
  8
0
  5
7F3C
 10
120.091
 20
114.027
 30
0.000000
  70
    32
  0
VERTEX
  8
0
  5
7F3D
 10
120.064
 20
113.989
 30
0.000000
  70
    32
  0
VERTEX
  8
0
  5
7F3E
 10
120.038
 20
113.952
 30
0.000000
  70
    32
  0
VERTEX
  8
0
  5
7F3F
 10
120.011
 20
113.915
 30
0.000000
  70
    32
  0
VERTEX
  8
0
  5
7F40
 10
119.985
 20
113.878
 30
0.000000
  70
    32
  0
VERTEX
  8
0
  5
7F41
 10
119.959
 20
113.840
 30
0.000000
  70
    32
  0
VERTEX
  8
0
  5
7F42
 10
119.933
 20
113.802
 30
0.000000
  70
    32
  0
VERTEX
  8
0
  5
7F43
 10
119.907
 20
113.764
 30
0.000000
  70
    32
  0
VERTEX
  8
0
  5
7F44
 10
119.881
 20
113.726
 30
0.000000
  70
    32
  0
VERTEX
  8
0
  5
7F45
 10
119.855
 20
113.688
 30
0.000000
  70
    32
  0
VERTEX
  8
0
  5
7F46
 10
119.829
 20
113.650
 30
0.000000
  70
    32
  0
VERTEX
  8
0
  5
7F47
 10
119.803
 20
113.611
 30
0.000000
  70
    32
  0
VERTEX
  8
0
  5
7F48
 10
119.777
 20
113.572
 30
0.000000
  70
    32
  0
VERTEX
  8
0
  5
7F49
 10
119.752
 20
113.534
 30
0.000000
  70
    32
  0
VERTEX
  8
0
  5
7F4A
 10
119.726
 20
113.495
 30
0.000000
  70
    32
  0
VERTEX
  8
0
  5
7F4B
 10
119.701
 20
113.456
 30
0.000000
  70
    32
  0
VERTEX
  8
0
  5
7F4C
 10
119.675
 20
113.416
 30
0.000000
  70
    32
  0
SEQEND
  8
0
  5
7F4D
  0
LINE
  5
7CF4
  8
0
 10
119.6754264806
 20
113.416407865
 30
0.0
 11
118.0
 21
113.416407865
 31
0.0
  0
LINE
  5
7CF5
  8
0
 10
118.0
 20
118.0
 30
0.0
 11
118.0
 21
113.416407865
 31
0.0
  0
LINE
  5
7CF6
  8
0
 10
133.09999999999991
 20
113.416407865
 30
0.0
 11
131.6754264805999
 21
113.416407865
 31
0.0
  0
LINE
  5
7CF7
  8
0
 10
131.6754264805999
 20
113.416407865
 30
0.0
 11
131.6754264805999
 21
100.0
 31
0.0
  0
POLYLINE
  5
7CF8
  8
0
 10
127.92264973090013
 20
89.334635496149332
 30
0.0
 66
     1
 70
     8
  0
VERTEX
  8
0
  5
7F4E
 10
127.923
 20
89.3346
 30
0.000000
  70
    32
  0
VERTEX
  8
0
  5
7F4F
 10
127.975
 20
89.3821
 30
0.000000
  70
    32
  0
VERTEX
  8
0
  5
7F50
 10
128.028
 20
89.4303
 30
0.000000
  70
    32
  0
VERTEX
  8
0
  5
7F51
 10
128.080
 20
89.4792
 30
0.000000
  70
    32
  0
VERTEX
  8
0
  5
7F52
 10
128.131
 20
89.5290
 30
0.000000
  70
    32
  0
VERTEX
  8
0
  5
7F53
 10
128.183
 20
89.5795
 30
0.000000
  70
    32
  0
VERTEX
  8
0
  5
7F54
 10
128.234
 20
89.6308
 30
0.000000
  70
    32
  0
VERTEX
  8
0
  5
7F55
 10
128.285
 20
89.6828
 30
0.000000
  70
    32
  0
VERTEX
  8
0
  5
7F56
 10
128.336
 20
89.7356
 30
0.000000
  70
    32
  0
VERTEX
  8
0
  5
7F57
 10
128.387
 20
89.7891
 30
0.000000
  70
    32
  0
VERTEX
  8
0
  5
7F58
 10
128.437
 20
89.8434
 30
0.000000
  70
    32
  0
VERTEX
  8
0
  5
7F59
 10
128.487
 20
89.8984
 30
0.000000
  70
    32
  0
VERTEX
  8
0
  5
7F5A
 10
128.537
 20
89.9542
 30
0.000000
  70
    32
  0
VERTEX
  8
0
  5
7F5B
 10
128.586
 20
90.0107
 30
0.000000
  70
    32
  0
VERTEX
  8
0
  5
7F5C
 10
128.635
 20
90.0679
 30
0.000000
  70
    32
  0
VERTEX
  8
0
  5
7F5D
 10
128.684
 20
90.1259
 30
0.000000
  70
    32
  0
VERTEX
  8
0
  5
7F5E
 10
128.733
 20
90.1846
 30
0.000000
  70
    32
  0
VERTEX
  8
0
  5
7F5F
 10
128.781
 20
90.2440
 30
0.000000
  70
    32
  0
VERTEX
  8
0
  5
7F60
 10
128.829
 20
90.3041
 30
0.000000
  70
    32
  0
VERTEX
  8
0
  5
7F61
 10
128.877
 20
90.3649
 30
0.000000
  70
    32
  0
VERTEX
  8
0
  5
7F62
 10
128.924
 20
90.4264
 30
0.000000
  70
    32
  0
VERTEX
  8
0
  5
7F63
 10
128.972
 20
90.4887
 30
0.000000
  70
    32
  0
VERTEX
  8
0
  5
7F64
 10
129.018
 20
90.5516
 30
0.000000
  70
    32
  0
VERTEX
  8
0
  5
7F65
 10
129.065
 20
90.6152
 30
0.000000
  70
    32
  0
VERTEX
  8
0
  5
7F66
 10
129.111
 20
90.6795
 30
0.000000
  70
    32
  0
VERTEX
  8
0
  5
7F67
 10
129.157
 20
90.7445
 30
0.000000
  70
    32
  0
VERTEX
  8
0
  5
7F68
 10
129.202
 20
90.8101
 30
0.000000
  70
    32
  0
VERTEX
  8
0
  5
7F69
 10
129.248
 20
90.8764
 30
0.000000
  70
    32
  0
VERTEX
  8
0
  5
7F6A
 10
129.293
 20
90.9434
 30
0.000000
  70
    32
  0
VERTEX
  8
0
  5
7F6B
 10
129.337
 20
91.0111
 30
0.000000
  70
    32
  0
VERTEX
  8
0
  5
7F6C
 10
129.381
 20
91.0794
 30
0.000000
  70
    32
  0
VERTEX
  8
0
  5
7F6D
 10
129.425
 20
91.1484
 30
0.000000
  70
    32
  0
VERTEX
  8
0
  5
7F6E
 10
129.469
 20
91.2180
 30
0.000000
  70
    32
  0
VERTEX
  8
0
  5
7F6F
 10
129.512
 20
91.2883
 30
0.000000
  70
    32
  0
VERTEX
  8
0
  5
7F70
 10
129.555
 20
91.3592
 30
0.000000
  70
    32
  0
VERTEX
  8
0
  5
7F71
 10
129.597
 20
91.4307
 30
0.000000
  70
    32
  0
VERTEX
  8
0
  5
7F72
 10
129.639
 20
91.5028
 30
0.000000
  70
    32
  0
VERTEX
  8
0
  5
7F73
 10
129.681
 20
91.5756
 30
0.000000
  70
    32
  0
VERTEX
  8
0
  5
7F74
 10
129.723
 20
91.6490
 30
0.000000
  70
    32
  0
VERTEX
  8
0
  5
7F75
 10
129.764
 20
91.7230
 30
0.000000
  70
    32
  0
VERTEX
  8
0
  5
7F76
 10
129.804
 20
91.7976
 30
0.000000
  70
    32
  0
VERTEX
  8
0
  5
7F77
 10
129.845
 20
91.8728
 30
0.000000
  70
    32
  0
VERTEX
  8
0
  5
7F78
 10
129.885
 20
91.9486
 30
0.000000
  70
    32
  0
VERTEX
  8
0
  5
7F79
 10
129.924
 20
92.0250
 30
0.000000
  70
    32
  0
VERTEX
  8
0
  5
7F7A
 10
129.963
 20
92.1020
 30
0.000000
  70
    32
  0
VERTEX
  8
0
  5
7F7B
 10
130.002
 20
92.1795
 30
0.000000
  70
    32
  0
VERTEX
  8
0
  5
7F7C
 10
130.040
 20
92.2577
 30
0.000000
  70
    32
  0
VERTEX
  8
0
  5
7F7D
 10
130.079
 20
92.3364
 30
0.000000
  70
    32
  0
VERTEX
  8
0
  5
7F7E
 10
130.116
 20
92.4156
 30
0.000000
  70
    32
  0
VERTEX
  8
0
  5
7F7F
 10
130.153
 20
92.4954
 30
0.000000
  70
    32
  0
VERTEX
  8
0
  5
7F80
 10
130.190
 20
92.5758
 30
0.000000
  70
    32
  0
VERTEX
  8
0
  5
7F81
 10
130.227
 20
92.6567
 30
0.000000
  70
    32
  0
VERTEX
  8
0
  5
7F82
 10
130.263
 20
92.7381
 30
0.000000
  70
    32
  0
VERTEX
  8
0
  5
7F83
 10
130.298
 20
92.8201
 30
0.000000
  70
    32
  0
VERTEX
  8
0
  5
7F84
 10
130.334
 20
92.9026
 30
0.000000
  70
    32
  0
VERTEX
  8
0
  5
7F85
 10
130.369
 20
92.9856
 30
0.000000
  70
    32
  0
VERTEX
  8
0
  5
7F86
 10
130.403
 20
93.0691
 30
0.000000
  70
    32
  0
VERTEX
  8
0
  5
7F87
 10
130.437
 20
93.1531
 30
0.000000
  70
    32
  0
VERTEX
  8
0
  5
7F88
 10
130.471
 20
93.2377
 30
0.000000
  70
    32
  0
VERTEX
  8
0
  5
7F89
 10
130.504
 20
93.3227
 30
0.000000
  70
    32
  0
VERTEX
  8
0
  5
7F8A
 10
130.537
 20
93.4082
 30
0.000000
  70
    32
  0
VERTEX
  8
0
  5
7F8B
 10
130.569
 20
93.4942
 30
0.000000
  70
    32
  0
VERTEX
  8
0
  5
7F8C
 10
130.601
 20
93.5807
 30
0.000000
  70
    32
  0
VERTEX
  8
0
  5
7F8D
 10
130.632
 20
93.6676
 30
0.000000
  70
    32
  0
VERTEX
  8
0
  5
7F8E
 10
130.663
 20
93.7550
 30
0.000000
  70
    32
  0
VERTEX
  8
0
  5
7F8F
 10
130.694
 20
93.8429
 30
0.000000
  70
    32
  0
VERTEX
  8
0
  5
7F90
 10
130.724
 20
93.9312
 30
0.000000
  70
    32
  0
VERTEX
  8
0
  5
7F91
 10
130.754
 20
94.0199
 30
0.000000
  70
    32
  0
VERTEX
  8
0
  5
7F92
 10
130.783
 20
94.1091
 30
0.000000
  70
    32
  0
VERTEX
  8
0
  5
7F93
 10
130.812
 20
94.1987
 30
0.000000
  70
    32
  0
VERTEX
  8
0
  5
7F94
 10
130.840
 20
94.2888
 30
0.000000
  70
    32
  0
VERTEX
  8
0
  5
7F95
 10
130.868
 20
94.3793
 30
0.000000
  70
    32
  0
VERTEX
  8
0
  5
7F96
 10
130.896
 20
94.4701
 30
0.000000
  70
    32
  0
VERTEX
  8
0
  5
7F97
 10
130.923
 20
94.5614
 30
0.000000
  70
    32
  0
VERTEX
  8
0
  5
7F98
 10
130.950
 20
94.6531
 30
0.000000
  70
    32
  0
VERTEX
  8
0
  5
7F99
 10
130.976
 20
94.7452
 30
0.000000
  70
    32
  0
VERTEX
  8
0
  5
7F9A
 10
131.002
 20
94.8376
 30
0.000000
  70
    32
  0
VERTEX
  8
0
  5
7F9B
 10
131.027
 20
94.9304
 30
0.000000
  70
    32
  0
VERTEX
  8
0
  5
7F9C
 10
131.052
 20
95.0237
 30
0.000000
  70
    32
  0
VERTEX
  8
0
  5
7F9D
 10
131.076
 20
95.1172
 30
0.000000
  70
    32
  0
VERTEX
  8
0
  5
7F9E
 10
131.100
 20
95.2111
 30
0.000000
  70
    32
  0
VERTEX
  8
0
  5
7F9F
 10
131.123
 20
95.3054
 30
0.000000
  70
    32
  0
VERTEX
  8
0
  5
7FA0
 10
131.146
 20
95.4000
 30
0.000000
  70
    32
  0
VERTEX
  8
0
  5
7FA1
 10
131.169
 20
95.4950
 30
0.000000
  70
    32
  0
VERTEX
  8
0
  5
7FA2
 10
131.191
 20
95.5903
 30
0.000000
  70
    32
  0
VERTEX
  8
0
  5
7FA3
 10
131.212
 20
95.6859
 30
0.000000
  70
    32
  0
VERTEX
  8
0
  5
7FA4
 10
131.233
 20
95.7818
 30
0.000000
  70
    32
  0
VERTEX
  8
0
  5
7FA5
 10
131.254
 20
95.8780
 30
0.000000
  70
    32
  0
VERTEX
  8
0
  5
7FA6
 10
131.274
 20
95.9746
 30
0.000000
  70
    32
  0
VERTEX
  8
0
  5
7FA7
 10
131.294
 20
96.0714
 30
0.000000
  70
    32
  0
VERTEX
  8
0
  5
7FA8
 10
131.313
 20
96.1685
 30
0.000000
  70
    32
  0
VERTEX
  8
0
  5
7FA9
 10
131.331
 20
96.2659
 30
0.000000
  70
    32
  0
VERTEX
  8
0
  5
7FAA
 10
131.350
 20
96.3636
 30
0.000000
  70
    32
  0
VERTEX
  8
0
  5
7FAB
 10
131.367
 20
96.4615
 30
0.000000
  70
    32
  0
VERTEX
  8
0
  5
7FAC
 10
131.385
 20
96.5597
 30
0.000000
  70
    32
  0
VERTEX
  8
0
  5
7FAD
 10
131.401
 20
96.6581
 30
0.000000
  70
    32
  0
VERTEX
  8
0
  5
7FAE
 10
131.418
 20
96.7568
 30
0.000000
  70
    32
  0
VERTEX
  8
0
  5
7FAF
 10
131.433
 20
96.8557
 30
0.000000
  70
    32
  0
VERTEX
  8
0
  5
7FB0
 10
131.449
 20
96.9549
 30
0.000000
  70
    32
  0
VERTEX
  8
0
  5
7FB1
 10
131.463
 20
97.0543
 30
0.000000
  70
    32
  0
VERTEX
  8
0
  5
7FB2
 10
131.478
 20
97.1539
 30
0.000000
  70
    32
  0
VERTEX
  8
0
  5
7FB3
 10
131.492
 20
97.2537
 30
0.000000
  70
    32
  0
VERTEX
  8
0
  5
7FB4
 10
131.505
 20
97.3537
 30
0.000000
  70
    32
  0
VERTEX
  8
0
  5
7FB5
 10
131.518
 20
97.4539
 30
0.000000
  70
    32
  0
VERTEX
  8
0
  5
7FB6
 10
131.530
 20
97.5542
 30
0.000000
  70
    32
  0
VERTEX
  8
0
  5
7FB7
 10
131.542
 20
97.6548
 30
0.000000
  70
    32
  0
VERTEX
  8
0
  5
7FB8
 10
131.553
 20
97.7555
 30
0.000000
  70
    32
  0
VERTEX
  8
0
  5
7FB9
 10
131.564
 20
97.8564
 30
0.000000
  70
    32
  0
VERTEX
  8
0
  5
7FBA
 10
131.574
 20
97.9575
 30
0.000000
  70
    32
  0
VERTEX
  8
0
  5
7FBB
 10
131.584
 20
98.0587
 30
0.000000
  70
    32
  0
VERTEX
  8
0
  5
7FBC
 10
131.593
 20
98.1600
 30
0.000000
  70
    32
  0
VERTEX
  8
0
  5
7FBD
 10
131.602
 20
98.2615
 30
0.000000
  70
    32
  0
VERTEX
  8
0
  5
7FBE
 10
131.611
 20
98.3631
 30
0.000000
  70
    32
  0
VERTEX
  8
0
  5
7FBF
 10
131.618
 20
98.4648
 30
0.000000
  70
    32
  0
VERTEX
  8
0
  5
7FC0
 10
131.626
 20
98.5667
 30
0.000000
  70
    32
  0
VERTEX
  8
0
  5
7FC1
 10
131.633
 20
98.6686
 30
0.000000
  70
    32
  0
VERTEX
  8
0
  5
7FC2
 10
131.639
 20
98.7706
 30
0.000000
  70
    32
  0
VERTEX
  8
0
  5
7FC3
 10
131.645
 20
98.8728
 30
0.000000
  70
    32
  0
VERTEX
  8
0
  5
7FC4
 10
131.650
 20
98.9750
 30
0.000000
  70
    32
  0
VERTEX
  8
0
  5
7FC5
 10
131.655
 20
99.0773
 30
0.000000
  70
    32
  0
VERTEX
  8
0
  5
7FC6
 10
131.659
 20
99.1796
 30
0.000000
  70
    32
  0
VERTEX
  8
0
  5
7FC7
 10
131.663
 20
99.2820
 30
0.000000
  70
    32
  0
VERTEX
  8
0
  5
7FC8
 10
131.666
 20
99.3845
 30
0.000000
  70
    32
  0
VERTEX
  8
0
  5
7FC9
 10
131.669
 20
99.4870
 30
0.000000
  70
    32
  0
VERTEX
  8
0
  5
7FCA
 10
131.671
 20
99.5896
 30
0.000000
  70
    32
  0
VERTEX
  8
0
  5
7FCB
 10
131.673
 20
99.6922
 30
0.000000
  70
    32
  0
VERTEX
  8
0
  5
7FCC
 10
131.674
 20
99.7948
 30
0.000000
  70
    32
  0
VERTEX
  8
0
  5
7FCD
 10
131.675
 20
99.8974
 30
0.000000
  70
    32
  0
VERTEX
  8
0
  5
7FCE
 10
131.675
 20
100.000
 30
0.000000
  70
    32
  0
SEQEND
  8
0
  5
7FCF
  0
LINE
  5
7CF9
  8
0
 10
127.9226497308
 20
117.139136501
 30
0.0
 11
127.9226497308
 21
89.334635496100006
 31
0.0
  0
LINE
  5
7CFC
  8
0
 10
119.6754264806
 20
100.0
 30
0.0
 11
119.6754264806
 21
113.416407865
 31
0.0
  0
LINE
  5
7CFD
  8
0
 10
123.4282032303
 20
89.334635496100006
 30
0.0
 11
123.4282032303
 21
117.139136501
 31
0.0
  0
POLYLINE
  5
7CFE
  8
0
 10
119.67542648049999
 20
100.0
 30
0.0
 66
     1
 70
     8
  0
VERTEX
  8
0
  5
7FD0
 10
119.675
 20
100.000
 30
0.000000
  70
    32
  0
VERTEX
  8
0
  5
7FD1
 10
119.676
 20
99.8974
 30
0.000000
  70
    32
  0
VERTEX
  8
0
  5
7FD2
 10
119.676
 20
99.7948
 30
0.000000
  70
    32
  0
VERTEX
  8
0
  5
7FD3
 10
119.678
 20
99.6922
 30
0.000000
  70
    32
  0
VERTEX
  8
0
  5
7FD4
 10
119.679
 20
99.5896
 30
0.000000
  70
    32
  0
VERTEX
  8
0
  5
7FD5
 10
119.682
 20
99.4870
 30
0.000000
  70
    32
  0
VERTEX
  8
0
  5
7FD6
 10
119.685
 20
99.3845
 30
0.000000
  70
    32
  0
VERTEX
  8
0
  5
7FD7
 10
119.688
 20
99.2820
 30
0.000000
  70
    32
  0
VERTEX
  8
0
  5
7FD8
 10
119.692
 20
99.1796
 30
0.000000
  70
    32
  0
VERTEX
  8
0
  5
7FD9
 10
119.696
 20
99.0773
 30
0.000000
  70
    32
  0
VERTEX
  8
0
  5
7FDA
 10
119.701
 20
98.9750
 30
0.000000
  70
    32
  0
VERTEX
  8
0
  5
7FDB
 10
119.706
 20
98.8728
 30
0.000000
  70
    32
  0
VERTEX
  8
0
  5
7FDC
 10
119.712
 20
98.7706
 30
0.000000
  70
    32
  0
VERTEX
  8
0
  5
7FDD
 10
119.718
 20
98.6686
 30
0.000000
  70
    32
  0
VERTEX
  8
0
  5
7FDE
 10
119.725
 20
98.5667
 30
0.000000
  70
    32
  0
VERTEX
  8
0
  5
7FDF
 10
119.732
 20
98.4648
 30
0.000000
  70
    32
  0
VERTEX
  8
0
  5
7FE0
 10
119.740
 20
98.3631
 30
0.000000
  70
    32
  0
VERTEX
  8
0
  5
7FE1
 10
119.749
 20
98.2615
 30
0.000000
  70
    32
  0
VERTEX
  8
0
  5
7FE2
 10
119.757
 20
98.1600
 30
0.000000
  70
    32
  0
VERTEX
  8
0
  5
7FE3
 10
119.767
 20
98.0587
 30
0.000000
  70
    32
  0
VERTEX
  8
0
  5
7FE4
 10
119.777
 20
97.9575
 30
0.000000
  70
    32
  0
VERTEX
  8
0
  5
7FE5
 10
119.787
 20
97.8564
 30
0.000000
  70
    32
  0
VERTEX
  8
0
  5
7FE6
 10
119.798
 20
97.7555
 30
0.000000
  70
    32
  0
VERTEX
  8
0
  5
7FE7
 10
119.809
 20
97.6548
 30
0.000000
  70
    32
  0
VERTEX
  8
0
  5
7FE8
 10
119.821
 20
97.5542
 30
0.000000
  70
    32
  0
VERTEX
  8
0
  5
7FE9
 10
119.833
 20
97.4539
 30
0.000000
  70
    32
  0
VERTEX
  8
0
  5
7FEA
 10
119.846
 20
97.3537
 30
0.000000
  70
    32
  0
VERTEX
  8
0
  5
7FEB
 10
119.859
 20
97.2537
 30
0.000000
  70
    32
  0
VERTEX
  8
0
  5
7FEC
 10
119.873
 20
97.1539
 30
0.000000
  70
    32
  0
VERTEX
  8
0
  5
7FED
 10
119.887
 20
97.0543
 30
0.000000
  70
    32
  0
VERTEX
  8
0
  5
7FEE
 10
119.902
 20
96.9549
 30
0.000000
  70
    32
  0
VERTEX
  8
0
  5
7FEF
 10
119.917
 20
96.8557
 30
0.000000
  70
    32
  0
VERTEX
  8
0
  5
7FF0
 10
119.933
 20
96.7568
 30
0.000000
  70
    32
  0
VERTEX
  8
0
  5
7FF1
 10
119.950
 20
96.6581
 30
0.000000
  70
    32
  0
VERTEX
  8
0
  5
7FF2
 10
119.966
 20
96.5597
 30
0.000000
  70
    32
  0
VERTEX
  8
0
  5
7FF3
 10
119.983
 20
96.4615
 30
0.000000
  70
    32
  0
VERTEX
  8
0
  5
7FF4
 10
120.001
 20
96.3636
 30
0.000000
  70
    32
  0
VERTEX
  8
0
  5
7FF5
 10
120.019
 20
96.2659
 30
0.000000
  70
    32
  0
VERTEX
  8
0
  5
7FF6
 10
120.038
 20
96.1685
 30
0.000000
  70
    32
  0
VERTEX
  8
0
  5
7FF7
 10
120.057
 20
96.0714
 30
0.000000
  70
    32
  0
VERTEX
  8
0
  5
7FF8
 10
120.077
 20
95.9746
 30
0.000000
  70
    32
  0
VERTEX
  8
0
  5
7FF9
 10
120.097
 20
95.8780
 30
0.000000
  70
    32
  0
VERTEX
  8
0
  5
7FFA
 10
120.118
 20
95.7818
 30
0.000000
  70
    32
  0
VERTEX
  8
0
  5
7FFB
 10
120.139
 20
95.6859
 30
0.000000
  70
    32
  0
VERTEX
  8
0
  5
7FFC
 10
120.160
 20
95.5903
 30
0.000000
  70
    32
  0
VERTEX
  8
0
  5
7FFD
 10
120.182
 20
95.4950
 30
0.000000
  70
    32
  0
VERTEX
  8
0
  5
7FFE
 10
120.205
 20
95.4000
 30
0.000000
  70
    32
  0
VERTEX
  8
0
  5
7FFF
 10
120.228
 20
95.3054
 30
0.000000
  70
    32
  0
VERTEX
  8
0
  5
8000
 10
120.251
 20
95.2111
 30
0.000000
  70
    32
  0
VERTEX
  8
0
  5
8001
 10
120.275
 20
95.1172
 30
0.000000
  70
    32
  0
VERTEX
  8
0
  5
8002
 10
120.299
 20
95.0237
 30
0.000000
  70
    32
  0
VERTEX
  8
0
  5
8003
 10
120.324
 20
94.9304
 30
0.000000
  70
    32
  0
VERTEX
  8
0
  5
8004
 10
120.349
 20
94.8376
 30
0.000000
  70
    32
  0
VERTEX
  8
0
  5
8005
 10
120.375
 20
94.7452
 30
0.000000
  70
    32
  0
VERTEX
  8
0
  5
8006
 10
120.401
 20
94.6531
 30
0.000000
  70
    32
  0
VERTEX
  8
0
  5
8007
 10
120.428
 20
94.5614
 30
0.000000
  70
    32
  0
VERTEX
  8
0
  5
8008
 10
120.455
 20
94.4701
 30
0.000000
  70
    32
  0
VERTEX
  8
0
  5
8009
 10
120.482
 20
94.3793
 30
0.000000
  70
    32
  0
VERTEX
  8
0
  5
800A
 10
120.510
 20
94.2888
 30
0.000000
  70
    32
  0
VERTEX
  8
0
  5
800B
 10
120.539
 20
94.1987
 30
0.000000
  70
    32
  0
VERTEX
  8
0
  5
800C
 10
120.568
 20
94.1091
 30
0.000000
  70
    32
  0
VERTEX
  8
0
  5
800D
 10
120.597
 20
94.0199
 30
0.000000
  70
    32
  0
VERTEX
  8
0
  5
800E
 10
120.627
 20
93.9312
 30
0.000000
  70
    32
  0
VERTEX
  8
0
  5
800F
 10
120.657
 20
93.8429
 30
0.000000
  70
    32
  0
VERTEX
  8
0
  5
8010
 10
120.688
 20
93.7550
 30
0.000000
  70
    32
  0
VERTEX
  8
0
  5
8011
 10
120.719
 20
93.6676
 30
0.000000
  70
    32
  0
VERTEX
  8
0
  5
8012
 10
120.750
 20
93.5807
 30
0.000000
  70
    32
  0
VERTEX
  8
0
  5
8013
 10
120.782
 20
93.4942
 30
0.000000
  70
    32
  0
VERTEX
  8
0
  5
8014
 10
120.814
 20
93.4082
 30
0.000000
  70
    32
  0
VERTEX
  8
0
  5
8015
 10
120.847
 20
93.3227
 30
0.000000
  70
    32
  0
VERTEX
  8
0
  5
8016
 10
120.880
 20
93.2377
 30
0.000000
  70
    32
  0
VERTEX
  8
0
  5
8017
 10
120.914
 20
93.1531
 30
0.000000
  70
    32
  0
VERTEX
  8
0
  5
8018
 10
120.948
 20
93.0691
 30
0.000000
  70
    32
  0
VERTEX
  8
0
  5
8019
 10
120.982
 20
92.9856
 30
0.000000
  70
    32
  0
VERTEX
  8
0
  5
801A
 10
121.017
 20
92.9026
 30
0.000000
  70
    32
  0
VERTEX
  8
0
  5
801B
 10
121.052
 20
92.8201
 30
0.000000
  70
    32
  0
VERTEX
  8
0
  5
801C
 10
121.088
 20
92.7381
 30
0.000000
  70
    32
  0
VERTEX
  8
0
  5
801D
 10
121.124
 20
92.6567
 30
0.000000
  70
    32
  0
VERTEX
  8
0
  5
801E
 10
121.161
 20
92.5758
 30
0.000000
  70
    32
  0
VERTEX
  8
0
  5
801F
 10
121.197
 20
92.4954
 30
0.000000
  70
    32
  0
VERTEX
  8
0
  5
8020
 10
121.235
 20
92.4156
 30
0.000000
  70
    32
  0
VERTEX
  8
0
  5
8021
 10
121.272
 20
92.3364
 30
0.000000
  70
    32
  0
VERTEX
  8
0
  5
8022
 10
121.310
 20
92.2577
 30
0.000000
  70
    32
  0
VERTEX
  8
0
  5
8023
 10
121.349
 20
92.1795
 30
0.000000
  70
    32
  0
VERTEX
  8
0
  5
8024
 10
121.388
 20
92.1020
 30
0.000000
  70
    32
  0
VERTEX
  8
0
  5
8025
 10
121.427
 20
92.0250
 30
0.000000
  70
    32
  0
VERTEX
  8
0
  5
8026
 10
121.466
 20
91.9486
 30
0.000000
  70
    32
  0
VERTEX
  8
0
  5
8027
 10
121.506
 20
91.8728
 30
0.000000
  70
    32
  0
VERTEX
  8
0
  5
8028
 10
121.547
 20
91.7976
 30
0.000000
  70
    32
  0
VERTEX
  8
0
  5
8029
 10
121.587
 20
91.7230
 30
0.000000
  70
    32
  0
VERTEX
  8
0
  5
802A
 10
121.628
 20
91.6490
 30
0.000000
  70
    32
  0
VERTEX
  8
0
  5
802B
 10
121.670
 20
91.5756
 30
0.000000
  70
    32
  0
VERTEX
  8
0
  5
802C
 10
121.712
 20
91.5028
 30
0.000000
  70
    32
  0
VERTEX
  8
0
  5
802D
 10
121.754
 20
91.4307
 30
0.000000
  70
    32
  0
VERTEX
  8
0
  5
802E
 10
121.796
 20
91.3592
 30
0.000000
  70
    32
  0
VERTEX
  8
0
  5
802F
 10
121.839
 20
91.2883
 30
0.000000
  70
    32
  0
VERTEX
  8
0
  5
8030
 10
121.882
 20
91.2180
 30
0.000000
  70
    32
  0
VERTEX
  8
0
  5
8031
 10
121.926
 20
91.1484
 30
0.000000
  70
    32
  0
VERTEX
  8
0
  5
8032
 10
121.970
 20
91.0794
 30
0.000000
  70
    32
  0
VERTEX
  8
0
  5
8033
 10
122.014
 20
91.0111
 30
0.000000
  70
    32
  0
VERTEX
  8
0
  5
8034
 10
122.058
 20
90.9434
 30
0.000000
  70
    32
  0
VERTEX
  8
0
  5
8035
 10
122.103
 20
90.8764
 30
0.000000
  70
    32
  0
VERTEX
  8
0
  5
8036
 10
122.148
 20
90.8101
 30
0.000000
  70
    32
  0
VERTEX
  8
0
  5
8037
 10
122.194
 20
90.7445
 30
0.000000
  70
    32
  0
VERTEX
  8
0
  5
8038
 10
122.240
 20
90.6795
 30
0.000000
  70
    32
  0
VERTEX
  8
0
  5
8039
 10
122.286
 20
90.6152
 30
0.000000
  70
    32
  0
VERTEX
  8
0
  5
803A
 10
122.333
 20
90.5516
 30
0.000000
  70
    32
  0
VERTEX
  8
0
  5
803B
 10
122.379
 20
90.4887
 30
0.000000
  70
    32
  0
VERTEX
  8
0
  5
803C
 10
122.426
 20
90.4264
 30
0.000000
  70
    32
  0
VERTEX
  8
0
  5
803D
 10
122.474
 20
90.3649
 30
0.000000
  70
    32
  0
VERTEX
  8
0
  5
803E
 10
122.522
 20
90.3041
 30
0.000000
  70
    32
  0
VERTEX
  8
0
  5
803F
 10
122.570
 20
90.2440
 30
0.000000
  70
    32
  0
VERTEX
  8
0
  5
8040
 10
122.618
 20
90.1846
 30
0.000000
  70
    32
  0
VERTEX
  8
0
  5
8041
 10
122.667
 20
90.1259
 30
0.000000
  70
    32
  0
VERTEX
  8
0
  5
8042
 10
122.715
 20
90.0679
 30
0.000000
  70
    32
  0
VERTEX
  8
0
  5
8043
 10
122.765
 20
90.0107
 30
0.000000
  70
    32
  0
VERTEX
  8
0
  5
8044
 10
122.814
 20
89.9542
 30
0.000000
  70
    32
  0
VERTEX
  8
0
  5
8045
 10
122.864
 20
89.8984
 30
0.000000
  70
    32
  0
VERTEX
  8
0
  5
8046
 10
122.914
 20
89.8434
 30
0.000000
  70
    32
  0
VERTEX
  8
0
  5
8047
 10
122.964
 20
89.7891
 30
0.000000
  70
    32
  0
VERTEX
  8
0
  5
8048
 10
123.015
 20
89.7356
 30
0.000000
  70
    32
  0
VERTEX
  8
0
  5
8049
 10
123.065
 20
89.6828
 30
0.000000
  70
    32
  0
VERTEX
  8
0
  5
804A
 10
123.117
 20
89.6308
 30
0.000000
  70
    32
  0
VERTEX
  8
0
  5
804B
 10
123.168
 20
89.5795
 30
0.000000
  70
    32
  0
VERTEX
  8
0
  5
804C
 10
123.219
 20
89.5290
 30
0.000000
  70
    32
  0
VERTEX
  8
0
  5
804D
 10
123.271
 20
89.4792
 30
0.000000
  70
    32
  0
VERTEX
  8
0
  5
804E
 10
123.323
 20
89.4303
 30
0.000000
  70
    32
  0
VERTEX
  8
0
  5
804F
 10
123.376
 20
89.3821
 30
0.000000
  70
    32
  0
VERTEX
  8
0
  5
8050
 10
123.428
 20
89.3346
 30
0.000000
  70
    32
  0
SEQEND
  8
0
  5
8051
  0
LINE
  5
7CFF
  8
0
 10
118.0
 20
113.416407865
 30
0.0
 11
117.0
 21
112.0415945788
 31
0.0
  0
LINE
  5
7D01
  8
0
 10
117.0
 20
116.9999999999999
 30
0.0
 11
117.0
 21
88.0
 31
0.0
  0
ARC
  5
7D03
  8
0
 10
124.1915202488
 20
90.388448592999964
 30
0.0
 40
1.301220547712677
 50
234.0827525030985
 51
274.52719936779971
  0
LINE
  5
7D04
  8
0
 10
127.0566243271
 20
89.091287885300005
 30
0.0
 11
124.29422863409999
 21
89.091287885300005
 31
0.0
  0
ARC
  5
7D05
  8
0
 10
127.11674711969999
 20
90.540002187200002
 30
0.0
 40
1.4499613369452691
 50
267.62354341400032
 51
303.76650471509981
  0
LINE
  5
7D06
  8
0
 10
134.09999999999991
 20
88.0
 30
0.0
 11
134.09999999999991
 21
117.0000000000001
 31
0.0
  0
LINE
  5
7D08
  8
0
 10
98.599999999999994
 20
107.995
 30
0.0
 11
98.599999999999994
 21
92.004999999999995
 31
0.0
  0
LINE
  5
7D0A
  8
0
 10
86.994999999999976
 20
107.99499999999991
 30
0.0
 11
86.994999999999976
 21
92.004999999999995
 31
0.0
  0
LINE
  5
7D0C
  8
0
 10
96.999999999999972
 20
107.995
 30
0.0
 11
96.999999999999986
 21
92.004999999999995
 31
0.0
  0
LINE
  5
7D0E
  8
0
 10
85.0
 20
94.0
 30
0.0
 11
85.0
 21
106.0
 31
0.0
  0
LINE
  5
7D0F
  8
0
 10
124.29422863409999
 20
117.2916164658
 30
0.0
 11
124.29422863409999
 21
89.091287885300005
 31
0.0
  0
LINE
  5
7D10
  8
0
 10
127.0566243271
 20
89.091287885300005
 30
0.0
 11
127.0566243271
 21
117.2916164658
 31
0.0
  0
LINE
  5
7D11
  8
0
 10
115.9134560338
 20
86.755892388799964
 30
0.0
 11
115.9134560338
 21
113.24410761110001
 31
0.0
  0
LINE
  5
7D12
  8
3
 10
86.000000283199995
 20
92.999999783900023
 30
0.0
 11
97.000000223600011
 21
92.999999783900023
 31
0.0
  0
LINE
  5
7D13
  8
3
 10
97.000000223600011
 20
107.000000216
 30
0.0
 11
86.000000283199995
 21
107.000000216
 31
0.0
  0
LINE
  5
7D14
  8
3
 10
98.60000029950001
 20
92.999999783900023
 30
0.0
 11
107.0
 21
92.999999783900023
 31
0.0
  0
LINE
  5
7D15
  8
3
 10
107.0
 20
107.000000216
 30
0.0
 11
98.60000029950001
 21
107.000000216
 31
0.0
  0
ARC
  5
7D17
  8
0
 10
209.59999999999999
 20
100.0
 30
0.0
 40
15.50000000000003
 50
140.7319739981983
 51
39.268026001752453
  0
LINE
  5
7D18
  8
0
 10
206.59999999999999
 20
100.0
 30
0.0
 11
202.59999999999999
 21
100.0
 31
0.0
  0
LINE
  5
7D19
  8
0
 10
202.59999999999999
 20
100.0
 30
0.0
 11
209.59999999999999
 21
93.0
 31
0.0
  0
LINE
  5
7D1A
  8
0
 10
209.59999999999999
 20
93.0
 30
0.0
 11
216.59999999999999
 21
100.0
 31
0.0
  0
LINE
  5
7D1B
  8
0
 10
216.59999999999999
 20
100.0
 30
0.0
 11
212.59999999999999
 21
100.0
 31
0.0
  0
LINE
  5
7D1C
  8
0
 10
212.59999999999999
 20
100.0
 30
0.0
 11
212.59999999999999
 21
110.0
 31
0.0
  0
LINE
  5
7D1D
  8
0
 10
212.59999999999999
 20
110.0
 30
0.0
 11
206.59999999999999
 21
110.0
 31
0.0
  0
LINE
  5
7D1E
  8
0
 10
206.59999999999999
 20
110.0
 30
0.0
 11
206.59999999999999
 21
100.0
 31
0.0
  0
LINE
  5
7D1F
  8
0
 10
197.59999999999991
 20
100.0
 30
0.0
 11
197.59999999999991
 21
113.4164078649988
 31
0.0
  0
ARC
  5
7D20
  8
0
 10
209.59999999999999
 20
100.0
 30
0.0
 40
17.00000000000006
 50
45.099127844000151
 51
134.90087215599991
  0
LINE
  5
7D21
  8
0
 10
221.59999999999999
 20
113.4164078649988
 30
0.0
 11
221.59999999999999
 21
100.0
 31
0.0
  0
ARC
  5
7D22
  8
0
 10
209.59999999999999
 20
100.0
 30
0.0
 40
12.00000000000006
 50
180.0
 51
0.0
  0
ARC
  5
7D24
  8
0
 10
209.59999999999999
 20
100.0
 30
0.0
 40
18.00000000000005
 50
48.189685104201232
 51
131.81031489579871
  0
ARC
  5
7D26
  8
0
 10
209.59999999999999
 20
100.0
 30
0.0
 40
13.244107611165299
 50
154.96687615999809
 51
25.033123839984061
  0
ARC
  5
7D28
  8
0
 10
97.84999999999998
 20
186.75
 30
0.0
 40
0.75
 50
0.0
 51
180.0
  0
ARC
  5
7D29
  8
0
 10
97.84999999999998
 20
173.25
 30
0.0
 40
0.75
 50
180.0
 51
0.0
  0
LINE
  5
7D2A
  8
0
 10
97.099999999999994
 20
186.75
 30
0.0
 11
97.099999999999994
 21
173.25
 31
0.0
  0
LINE
  5
7D2B
  8
0
 10
108.0462243332
 20
164.49999999999989
 30
0.0
 11
115.9134560338
 21
166.75589238889989
 31
0.0
  0
LINE
  5
7D2C
  8
0
 10
115.9134560338
 20
193.24410761120001
 30
0.0
 11
108.0462243332
 21
195.5
 31
0.0
  0
LINE
  5
7D2D
  8
0
 10
108.0462243332
 20
195.5
 30
0.0
 11
107.2
 21
195.5
 31
0.0
  0
LINE
  5
7D2E
  8
0
 10
107.2
 20
164.49999999999989
 30
0.0
 11
108.0462243332
 21
164.49999999999989
 31
0.0
  0
LINE
  5
7D2F
  8
0
 10
107.2
 20
195.5
 30
0.0
 11
107.0
 21
195.2999999999999
 31
0.0
  0
LINE
  5
7D30
  8
0
 10
107.0
 20
164.6999999999999
 30
0.0
 11
107.2
 21
164.49999999999989
 31
0.0
  0
ARC
  5
7D31
  8
0
 10
115.5
 20
191.8022150672999
 30
0.0
 40
1.5
 50
0.0
 51
74.000000000000952
  0
ARC
  5
7D32
  8
0
 10
115.5
 20
168.1977849328
 30
0.0
 40
1.5
 50
285.99999999999898
 51
0.0
  0
LINE
  5
7D33
  8
0
 10
107.0
 20
187.99499999999989
 30
0.0
 11
98.599999999999994
 21
187.99499999999989
 31
0.0
  0
LINE
  5
7D34
  8
0
 10
98.599999999999994
 20
172.005
 30
0.0
 11
107.0
 21
172.005
 31
0.0
  0
LINE
  5
7D35
  8
0
 10
96.999999999999986
 20
187.99499999999989
 30
0.0
 11
86.994999999999976
 21
187.99499999999989
 31
0.0
  0
LINE
  5
7D36
  8
0
 10
86.994999999999976
 20
172.005
 30
0.0
 11
96.999999999999986
 21
172.005
 31
0.0
  0
LINE
  5
7D37
  8
0
 10
86.994999999999976
 20
187.99499999999989
 30
0.0
 11
85.0
 21
186.0
 31
0.0
  0
LINE
  5
7D38
  8
0
 10
85.0
 20
174.0
 30
0.0
 11
86.994999999999976
 21
172.005
 31
0.0
  0
LINE
  5
7D39
  8
0
 10
97.099999999999994
 20
186.0
 30
0.0
 11
96.999999999999986
 21
186.0
 31
0.0
  0
LINE
  5
7D3A
  8
0
 10
96.999999999999986
 20
174.0
 30
0.0
 11
97.099999999999994
 21
174.0
 31
0.0
  0
LINE
  5
7D3B
  8
0
 10
108.0462243332
 20
195.5
 30
0.0
 11
108.0462243332
 21
164.49999999999989
 31
0.0
  0
LINE
  5
7D3C
  8
0
 10
107.2
 20
195.5
 30
0.0
 11
107.2
 21
164.49999999999989
 31
0.0
  0
LINE
  5
7D3D
  8
0
 10
107.0
 20
164.6999999999999
 30
0.0
 11
107.0
 21
195.2999999999999
 31
0.0
  0
LINE
  5
7D3E
  8
0
 10
134.09999999999991
 20
192.0
 30
0.0
 11
134.09999999999991
 21
168.0
 31
0.0
  0
LINE
  5
7D40
  8
0
 10
133.09999999999991
 20
168.0
 30
0.0
 11
133.09999999999991
 21
192.0
 31
0.0
  0
LINE
  5
7D42
  8
0
 10
131.6754264805999
 20
168.0
 30
0.0
 11
127.9226497308
 21
174.5
 31
0.0
  0
ARC
  5
7D43
  8
0
 10
127.0566243271
 20
174.0
 30
0.0
 40
1.0000000000002269
 50
30.00000000000021
 51
90.0
  0
LINE
  5
7D44
  8
0
 10
127.0566243271
 20
175.0
 30
0.0
 11
124.29422863409999
 21
175.0
 31
0.0
  0
ARC
  5
7D45
  8
0
 10
124.29422863409999
 20
174.0
 30
0.0
 40
1.0000000000001701
 50
90.0
 51
150.0
  0
LINE
  5
7D46
  8
0
 10
123.4282032303
 20
174.5
 30
0.0
 11
119.6754264806
 21
168.0
 31
0.0
  0
LINE
  5
7D47
  8
0
 10
119.6754264806
 20
168.0
 30
0.0
 11
117.0
 21
168.0
 31
0.0
  0
LINE
  5
7D48
  8
0
 10
118.0
 20
192.0
 30
0.0
 11
118.0
 21
168.0
 31
0.0
  0
LINE
  5
7D49
  8
0
 10
117.0
 20
192.0
 30
0.0
 11
119.6754264806
 21
192.0
 31
0.0
  0
LINE
  5
7D4A
  8
0
 10
123.4282032303
 20
185.5
 30
0.0
 11
119.6754264806
 21
192.0
 31
0.0
  0
ARC
  5
7D4B
  8
0
 10
124.29422863409999
 20
186.0
 30
0.0
 40
1.0
 50
210.0
 51
270.0
  0
LINE
  5
7D4C
  8
0
 10
127.0566243271
 20
185.0
 30
0.0
 11
124.29422863409999
 21
185.0
 31
0.0
  0
ARC
  5
7D4D
  8
0
 10
127.0566243271
 20
186.0
 30
0.0
 40
1.0000000000000879
 50
270.0
 51
329.99999999999977
  0
LINE
  5
7D4E
  8
0
 10
131.6754264805999
 20
192.0
 30
0.0
 11
127.9226497308
 21
185.5
 31
0.0
  0
LINE
  5
7D4F
  8
0
 10
131.6754264805999
 20
192.0
 30
0.0
 11
134.09999999999991
 21
192.0
 31
0.0
  0
LINE
  5
7D50
  8
0
 10
134.09999999999991
 20
168.0
 30
0.0
 11
131.6754264805999
 21
168.0
 31
0.0
  0
LINE
  5
7D52
  8
0
 10
117.0
 20
168.0
 30
0.0
 11
117.0
 21
192.0
 31
0.0
  0
LINE
  5
7D54
  8
0
 10
98.599999999999994
 20
187.99499999999989
 30
0.0
 11
98.599999999999994
 21
172.005
 31
0.0
  0
LINE
  5
7D55
  8
0
 10
86.994999999999976
 20
187.99499999999989
 30
0.0
 11
86.994999999999976
 21
172.005
 31
0.0
  0
LINE
  5
7D56
  8
0
 10
96.999999999999986
 20
187.99499999999989
 30
0.0
 11
96.999999999999986
 21
172.005
 31
0.0
  0
LINE
  5
7D57
  8
0
 10
85.0
 20
174.0
 30
0.0
 11
85.0
 21
186.0
 31
0.0
  0
LINE
  5
7D58
  8
0
 10
115.9134560338
 20
166.75589238889989
 30
0.0
 11
115.9134560338
 21
193.24410761120001
 31
0.0
  0
LINE
  5
7D59
  8
3
 10
86.000000283199995
 20
172.99999978389999
 30
0.0
 11
97.000000223600011
 21
172.99999978389999
 31
0.0
  0
LINE
  5
7D5A
  8
3
 10
97.000000223600011
 20
187.00000021599999
 30
0.0
 11
86.000000283199995
 21
187.00000021599999
 31
0.0
  0
LINE
  5
7D5B
  8
3
 10
98.60000029950001
 20
172.99999978389999
 30
0.0
 11
107.0
 21
172.99999978389999
 31
0.0
  0
LINE
  5
7D5C
  8
3
 10
107.0
 20
187.00000021599999
 30
0.0
 11
98.60000029950001
 21
187.00000021599999
 31
0.0
  0
LINE
  5
7D5F
  8
1
 10
80.0
 20
180.0
 30
0.0
 11
139.09999999999999
 21
180.0
 31
0.0
  0
LINE
  5
7D60
  8
1
 10
80.0
 20
100.0
 30
0.0
 11
139.09999999999999
 21
100.0
 31
0.0
  0
LINE
  5
7D69
  8
1
 10
189.09999999999999
 20
100.0
 30
0.0
 11
230.09999999999999
 21
100.0
 31
0.0
  0
LINE
  5
7D6A
  8
1
 10
209.59999999999351
 20
79.499999999999943
 30
0.0
 11
209.59999999999351
 21
123.0
 31
0.0
  0
ENDSEC
  0
EOF
