  0
SECTION
  2
HEADER
  9
$ACADVER
  1
AC1009
  9
$INSBASE
 10
0.0
 20
0.0
 30
0.0
  9
$EXTMIN
 10
0.0
 20
-1.4802182810368341
 30
0.0
  9
$EXTMAX
 10
281.5
 20
131.5
 30
0.0
  9
$LIMMIN
 10
0.0
 20
0.0
  9
$LIMMAX
 10
12.0
 20
9.0
  9
$ORTHOMODE
 70
     0
  9
$REGENMODE
 70
     1
  9
$FILLMODE
 70
     1
  9
$QTEXTMODE
 70
     0
  9
$MIRRTEXT
 70
     0
  9
$DRAGMODE
 70
     2
  9
$LTSCALE
 40
5.0
  9
$OSMODE
 70
    37
  9
$ATTMODE
 70
     1
  9
$TEXTSIZE
 40
0.2
  9
$TRACEWID
 40
0.05
  9
$TEXTSTYLE
  7
STANDARD
  9
$CLAYER
  8
0
  9
$CELTYPE
  6
BYLAYER
  9
$CECOLOR
 62
   256
  9
$DIMSCALE
 40
1.0
  9
$DIMASZ
 40
0.18
  9
$DIMEXO
 40
0.0625
  9
$DIMDLI
 40
0.38
  9
$DIMRND
 40
0.0
  9
$DIMDLE
 40
0.0
  9
$DIMEXE
 40
0.18
  9
$DIMTP
 40
0.0
  9
$DIMTM
 40
0.0
  9
$DIMTXT
 40
2.6000000000000001
  9
$DIMCEN
 40
0.09
  9
$DIMTSZ
 40
0.0
  9
$DIMTOL
 70
     0
  9
$DIMLIM
 70
     0
  9
$DIMTIH
 70
     0
  9
$DIMTOH
 70
     0
  9
$DIMSE1
 70
     0
  9
$DIMSE2
 70
     0
  9
$DIMTAD
 70
     1
  9
$DIMZIN
 70
     8
  9
$DIMBLK
  1

  9
$DIMASO
 70
     1
  9
$DIMSHO
 70
     1
  9
$DIMPOST
  1

  9
$DIMAPOST
  1

  9
$DIMALT
 70
     0
  9
$DIMALTD
 70
     2
  9
$DIMALTF
 40
25.3999999999999986
  9
$DIMLFAC
 40
1.0
  9
$DIMTOFL
 70
     0
  9
$DIMTVP
 40
0.0
  9
$DIMTIX
 70
     0
  9
$DIMSOXD
 70
     0
  9
$DIMSAH
 70
     0
  9
$DIMBLK1
  1

  9
$DIMBLK2
  1

  9
$DIMSTYLE
  2
STANDARD
  9
$DIMCLRD
 70
     0
  9
$DIMCLRE
 70
     0
  9
$DIMCLRT
 70
     0
  9
$DIMTFAC
 40
1.0
  9
$DIMGAP
 40
0.09
  9
$LUNITS
 70
     2
  9
$LUPREC
 70
     4
  9
$SKETCHINC
 40
0.1
  9
$FILLETRAD
 40
0.0
  9
$AUNITS
 70
     0
  9
$AUPREC
 70
     0
  9
$MENU
  1
.
  9
$ELEVATION
 40
0.0
  9
$PELEVATION
 40
0.0
  9
$THICKNESS
 40
0.0
  9
$LIMCHECK
 70
     0
  9
$BLIPMODE
 70
     0
  9
$CHAMFERA
 40
0.0
  9
$CHAMFERB
 40
0.0
  9
$SKPOLY
 70
     0
  9
$TDCREATE
 40
2453083.4120601848699152
  9
$TDUPDATE
 40
2460139.5733912037685513
  9
$TDINDWG
 40
0.7425956366000001
  9
$TDUSRTIMER
 40
0.7425955208
  9
$USRTIMER
 70
     1
  9
$ANGBASE
 50
0.0
  9
$ANGDIR
 70
     0
  9
$PDMODE
 70
     0
  9
$PDSIZE
 40
0.0
  9
$PLINEWID
 40
0.0
  9
$COORDS
 70
     1
  9
$SPLFRAME
 70
     0
  9
$SPLINETYPE
 70
     6
  9
$SPLINESEGS
 70
     8
  9
$ATTDIA
 70
     1
  9
$ATTREQ
 70
     1
  9
$HANDLING
 70
     1
  9
$HANDSEED
  5
7E1F
  9
$SURFTAB1
 70
     6
  9
$SURFTAB2
 70
     6
  9
$SURFTYPE
 70
     6
  9
$SURFU
 70
     6
  9
$SURFV
 70
     6
  9
$UCSNAME
  2

  9
$UCSORG
 10
0.0
 20
0.0
 30
0.0
  9
$UCSXDIR
 10
1.0
 20
0.0
 30
0.0
  9
$UCSYDIR
 10
0.0
 20
1.0
 30
0.0
  9
$PUCSNAME
  2

  9
$PUCSORG
 10
0.0
 20
0.0
 30
0.0
  9
$PUCSXDIR
 10
1.0
 20
0.0
 30
0.0
  9
$PUCSYDIR
 10
0.0
 20
1.0
 30
0.0
  9
$USERI1
 70
     0
  9
$USERI2
 70
     1
  9
$USERI3
 70
     0
  9
$USERI4
 70
     0
  9
$USERI5
 70
     0
  9
$USERR1
 40
0.0
  9
$USERR2
 40
0.0
  9
$USERR3
 40
0.0
  9
$USERR4
 40
0.0
  9
$USERR5
 40
0.0
  9
$WORLDVIEW
 70
     1
  9
$SHADEDGE
 70
     3
  9
$SHADEDIF
 70
    70
  9
$TILEMODE
 70
     1
  9
$MAXACTVP
 70
    64
  9
$PLIMCHECK
 70
     0
  9
$PEXTMIN
 10
0.0
 20
0.0
 30
0.0
  9
$PEXTMAX
 10
0.0
 20
0.0
 30
0.0
  9
$PLIMMIN
 10
0.0
 20
0.0
  9
$PLIMMAX
 10
12.0
 20
9.0
  9
$UNITMODE
 70
     0
  9
$VISRETAIN
 70
     1
  9
$PLINEGEN
 70
     0
  9
$PSLTSCALE
 70
     1
  0
ENDSEC
  0
SECTION
  2
TABLES
  0
TABLE
  2
VPORT
 70
     1
  0
VPORT
  2
*ACTIVE
 70
     0
 10
0.0
 20
0.0
 11
1.0
 21
1.0
 12
282.4801095797616881
 22
65.0085235719239591
 13
0.0
 23
0.0
 14
0.5
 24
0.5
 15
0.5
 25
0.5
 16
0.0
 26
0.0
 36
1.0
 17
0.0
 27
0.0
 37
0.0
 40
241.3444550652442899
 41
2.3485221674876842
 42
50.0
 43
0.0
 44
0.0
 50
0.0
 51
0.0
 71
     0
 72
  1000
 73
     1
 74
     2
 75
     0
 76
     0
 77
     0
 78
     0
  0
ENDTAB
  0
TABLE
  2
LTYPE
 70
     3
  0
LTYPE
  2
CONTINUOUS
 70
     0
  3
Solid Line
 72
    65
 73
     0
 40
0.0
  0
LTYPE
  2
CENTER
 70
     0
  3
____ _ ____ _ ____ _ ____ _ ____ _ ____ _ ____
 72
    65
 73
     4
 40
2.0
 49
1.25
 49
-0.25
 49
0.25
 49
-0.25
  0
LTYPE
  2
PHANTOM2
 70
     0
  3
___ _ _ ___ _ _ ___ _ _ ___ _ _
 72
    65
 73
     6
 40
1.25
 49
0.625
 49
-0.125
 49
0.125
 49
-0.125
 49
0.125
 49
-0.125
  0
ENDTAB
  0
TABLE
  2
LAYER
 70
     4
  0
LAYER
  2
0
 70
     0
 62
     7
  6
CONTINUOUS
  0
LAYER
  2
1
 70
     0
 62
     1
  6
CENTER
  0
LAYER
  2
DEFPOINTS
 70
     0
 62
     7
  6
CONTINUOUS
  0
LAYER
  2
3
 70
     0
 62
     3
  6
CONTINUOUS
  0
ENDTAB
  0
TABLE
  2
STYLE
 70
     2
  0
STYLE
  2
STANDARD
 70
     0
 40
0.0
 41
1.0
 50
0.0
 71
     0
 42
0.2
  3
simplex.shx
  4
bigfont.shx
  0
STYLE
  2
STANDARD1
 70
     0
 40
0.0
 41
1.0
 50
0.0
 71
     0
 42
3.0
  3
txt
  4

  0
ENDTAB
  0
TABLE
  2
VIEW
 70
     0
  0
ENDTAB
  0
TABLE
  2
UCS
 70
     0
  0
ENDTAB
  0
TABLE
  2
APPID
 70
     5
  0
APPID
  2
ACAD
 70
     0
  0
APPID
  2
ACAD_MLEADERVER
 70
     0
  0
APPID
  2
ACAD_NAV_VCDISPLAY
 70
     0
  0
APPID
  2
ACAD_EXEMPT_FROM_CAD_STANDARDS
 70
     0
  0
APPID
  2
ACAD_DSTYLE_DIMRADIAL_EXTENSION
 70
     0
  0
ENDTAB
  0
TABLE
  2
DIMSTYLE
 70
     1
  0
DIMSTYLE
  2
STANDARD
 70
     0
  3

  4

  5

  6

  7

 40
1.0
 41
0.18
 42
0.0625
 43
0.38
 44
0.18
 45
0.0
 46
0.0
 47
0.0
 48
0.0
140
2.6000000000000001
141
0.09
142
0.0
143
25.3999999999999986
144
1.0
145
0.0
146
1.0
147
0.09
 71
     0
 72
     0
 73
     0
 74
     0
 75
     0
 76
     0
 77
     1
 78
     8
170
     0
171
     2
172
     0
173
     0
174
     0
175
     0
176
     0
177
     0
178
     0
  0
ENDTAB
  0
ENDSEC
  0
SECTION
  2
BLOCKS
  0
BLOCK
  8
0
  2
$MODEL_SPACE
 70
     0
 10
0.0
 20
0.0
 30
0.0
  3
$MODEL_SPACE
  1

  0
ENDBLK
  5
21
  8
0
  0
BLOCK
 67
     1
  8
0
  2
$PAPER_SPACE
 70
     0
 10
0.0
 20
0.0
 30
0.0
  3
$PAPER_SPACE
  1

  0
ENDBLK
  5
5B
 67
     1
  8
0
  0
ENDSEC
  0
SECTION
  2
ENTITIES
  0
TEXT
  5
1F01
  8
0
 62
     3
 10
0.0
 20
0.0
 30
0.0
 40
5.0
  1
CP155-20001DS
  7
STANDARD1
  0
LINE
  5
7CF5
  8
0
 10
106.0
 20
58.5
 30
0.0
 11
107.0
 21
59.5
 31
0.0
  0
LINE
  5
7CF6
  8
0
 10
107.0
 20
120.5
 30
0.0
 11
106.0
 21
121.5
 31
0.0
  0
LINE
  5
7CF7
  8
0
 10
106.0
 20
121.5
 30
0.0
 11
78.0
 21
121.5
 31
0.0
  0
LINE
  5
7CF8
  8
0
 10
78.0
 20
58.5
 30
0.0
 11
106.0
 21
58.5
 31
0.0
  0
LINE
  5
7CF9
  8
0
 10
78.0
 20
121.5
 30
0.0
 11
77.0
 21
120.5
 31
0.0
  0
LINE
  5
7CFA
  8
0
 10
77.0
 20
59.5
 30
0.0
 11
78.0
 21
58.5
 31
0.0
  0
LINE
  5
7CFB
  8
0
 10
108.0321702497000018
 20
112.0999999999999943
 30
0.0
 11
107.2000000000000028
 21
112.0999999999999943
 31
0.0
  0
LINE
  5
7CFC
  8
0
 10
107.2000000000000028
 20
67.8999999999999773
 30
0.0
 11
108.0321702497000018
 21
67.8999999999999773
 31
0.0
  0
LINE
  5
7CFD
  8
0
 10
107.2000000000000028
 20
112.0999999999999943
 30
0.0
 11
107.0
 21
111.8999999999999062
 31
0.0
  0
LINE
  5
7CFE
  8
0
 10
107.0
 20
68.1000000000000227
 30
0.0
 11
107.2000000000000028
 21
67.8999999999999773
 31
0.0
  0
LINE
  5
7CFF
  8
0
 10
118.5377074506999975
 20
109.0875856826998955
 30
0.0
 11
108.0321702497000018
 21
112.0999999999999943
 31
0.0
  0
LINE
  5
7D00
  8
0
 10
108.0321702497000018
 20
67.8999999999999773
 30
0.0
 11
118.5377074506999975
 21
70.9124143172999766
 31
0.0
  0
ARC
  5
7D01
  8
0
 10
117.0
 20
106.5116478348999038
 30
0.0
 40
3.0000000000000169
 50
0.0
 51
59.1648884180003094
  0
ARC
  5
7D02
  8
0
 10
117.0
 20
73.4883521651999558
 30
0.0
 40
3.0000000000000169
 50
300.8351115819996835
 51
0.0
  0
LINE
  5
7D03
  8
0
 10
77.0
 20
105.0
 30
0.0
 11
71.0
 21
105.0
 31
0.0
  0
LINE
  5
7D04
  8
0
 10
71.0
 20
75.0
 30
0.0
 11
77.0
 21
75.0
 31
0.0
  0
LINE
  5
7D05
  8
0
 10
71.0
 20
105.0
 30
0.0
 11
69.5
 21
104.133974596300007
 31
0.0
  0
LINE
  5
7D06
  8
0
 10
69.5
 20
75.8660254037999948
 30
0.0
 11
71.0
 21
75.0
 31
0.0
  0
ARC
  5
7D07
  8
0
 10
123.4226497308000035
 20
105.5
 30
0.0
 40
1.0000000000000071
 50
30.0000000000011902
 51
90.0
  0
ARC
  5
7D08
  8
0
 10
123.4226497308000035
 20
74.5
 30
0.0
 40
1.0000000000000071
 50
270.0
 51
329.9999999999988063
  0
LINE
  5
7D09
  8
0
 10
123.4226497308000035
 20
106.5
 30
0.0
 11
120.5
 21
106.5
 31
0.0
  0
LINE
  5
7D0A
  8
0
 10
120.5
 20
73.5
 30
0.0
 11
123.4226497308000035
 21
73.5
 31
0.0
  0
LINE
  5
7D0B
  8
0
 10
120.5
 20
106.5
 30
0.0
 11
120.0
 21
106.0
 31
0.0
  0
LINE
  5
7D0C
  8
0
 10
120.0
 20
74.0
 30
0.0
 11
120.5
 21
73.5
 31
0.0
  0
LINE
  5
7D0D
  8
0
 10
124.2886751345999983
 20
74.0
 30
0.0
 11
127.7527767497000042
 21
80.0
 31
0.0
  0
LINE
  5
7D0E
  8
0
 10
127.7527767497000042
 20
100.0
 30
0.0
 11
124.2886751345999983
 21
106.0
 31
0.0
  0
ARC
  5
7D0F
  8
0
 10
145.5
 20
101.75
 30
0.0
 40
3.0
 50
0.0
 51
90.0
  0
ARC
  5
7D10
  8
0
 10
145.5
 20
78.25
 30
0.0
 40
3.0
 50
270.0
 51
0.0
  0
LINE
  5
7D11
  8
0
 10
141.3971143169999891
 20
75.25
 30
0.0
 11
145.5
 21
75.25
 31
0.0
  0
LINE
  5
7D12
  8
0
 10
145.5
 20
104.75
 30
0.0
 11
141.3971143169999891
 21
104.75
 31
0.0
  0
ARC
  5
7D13
  8
0
 10
141.3971143169999891
 20
103.75
 30
0.0
 40
1.0000000000000071
 50
90.0
 51
149.9999999999988063
  0
ARC
  5
7D14
  8
0
 10
141.3971143169999891
 20
76.25
 30
0.0
 40
1.0000000000000071
 50
210.0000000000011937
 51
270.0
  0
LINE
  5
7D15
  8
0
 10
140.5310889133000103
 20
104.25
 30
0.0
 11
137.7886751345999983
 21
99.5000000000000142
 31
0.0
  0
LINE
  5
7D16
  8
0
 10
137.7886751345999983
 20
80.5
 30
0.0
 11
140.5310889133000103
 21
75.75
 31
0.0
  0
ARC
  5
7D17
  8
0
 10
129.484827557300008
 20
79.0
 30
0.0
 40
2.0000000000000151
 50
90.0
 51
149.9999999999988063
  0
ARC
  5
7D18
  8
0
 10
129.484827557300008
 20
101.0
 30
0.0
 40
2.0000000000000151
 50
210.0000000000011937
 51
270.0
  0
LINE
  5
7D19
  8
0
 10
69.5
 20
100.0
 30
0.0
 11
42.5
 21
100.0
 31
0.0
  0
LINE
  5
7D1A
  8
0
 10
42.5
 20
80.0
 30
0.0
 11
69.5
 21
80.0
 31
0.0
  0
LINE
  5
7D1B
  8
0
 10
42.5
 20
100.0
 30
0.0
 11
40.0
 21
97.5
 31
0.0
  0
LINE
  5
7D1C
  8
0
 10
40.0
 20
82.5
 30
0.0
 11
42.5
 21
80.0
 31
0.0
  0
ARC
  5
7D1D
  8
0
 10
136.9226497308000035
 20
80.0
 30
0.0
 40
1.0
 50
30.0000000000011902
 51
90.0
  0
ARC
  5
7D1E
  8
0
 10
136.9226497308000035
 20
100.0
 30
0.0
 40
1.0
 50
270.0
 51
329.9999999999988063
  0
LINE
  5
7D1F
  8
0
 10
129.484827557300008
 20
81.0
 30
0.0
 11
136.9226497308000035
 21
81.0
 31
0.0
  0
LINE
  5
7D20
  8
0
 10
136.9226497308000035
 20
99.0
 30
0.0
 11
129.484827557300008
 21
99.0
 31
0.0
  0
LINE
  5
7D21
  8
0
 10
107.0
 20
120.5
 30
0.0
 11
107.0
 21
59.5
 31
0.0
  0
LINE
  5
7D24
  8
0
 10
106.0
 20
58.5
 30
0.0
 11
106.0
 21
121.5
 31
0.0
  0
LINE
  5
7D25
  8
0
 10
78.0
 20
121.5
 30
0.0
 11
78.0
 21
58.5
 31
0.0
  0
LINE
  5
7D26
  8
0
 10
77.0
 20
59.5
 30
0.0
 11
77.0
 21
120.5
 31
0.0
  0
ARC
  5
7D27
  8
0
 10
109.2420454844999966
 20
99.3782033398999829
 30
0.0
 40
1.2104825569048561
 50
181.8150394731989934
 51
225.5900990950985943
  0
LINE
  5
7D28
  8
0
 10
108.3949657775000048
 20
98.5134929891999747
 30
0.0
 11
108.3949657775000048
 21
81.4865070108999561
 31
0.0
  0
ARC
  5
7D29
  8
0
 10
109.3693476212000064
 20
80.5659081204000245
 30
0.0
 40
1.3404933026744421
 50
136.6257205937008052
 51
175.9691408378996016
  0
LINE
  5
7D2A
  8
0
 10
108.0321702497000018
 20
80.6601364155999931
 30
0.0
 11
108.0321702497000018
 21
67.8999999999999773
 31
0.0
  0
LINE
  5
7D2B
  8
0
 10
108.0321702497000018
 20
99.3398635844999944
 30
0.0
 11
108.0321702497000018
 21
112.0999999999999943
 31
0.0
  0
LINE
  5
7D2C
  8
0
 10
107.2000000000000028
 20
112.0999999999999943
 30
0.0
 11
107.2000000000000028
 21
67.8999999999999773
 31
0.0
  0
POLYLINE
  5
7D2D
  8
0
 66
     1
 10
0.0
 20
0.0
 30
0.0
 70
   128
  0
VERTEX
  5
7E13
  8
0
 10
108.3949657775000048
 20
81.4865070108999561
 30
0.0
  0
VERTEX
  5
7E14
  8
0
 10
115.0250965407000052
 20
82.2838537232999983
 30
0.0
  0
VERTEX
  5
7E15
  8
0
 10
117.8269120675000039
 20
82.6204930998999885
 30
0.0
  0
SEQEND
  5
7E16
  8
0
  0
LINE
  5
7D2E
  8
0
 10
117.8269120675000039
 20
97.3795069001999423
 30
0.0
 11
108.3949657775000048
 21
98.5134929891999747
 31
0.0
  0
LINE
  5
7D2F
  8
0
 10
117.8269120675000039
 20
82.6204930998999885
 30
0.0
 11
117.8269120675000039
 21
97.3795069001999423
 31
0.0
  0
LINE
  5
7D30
  8
0
 10
108.0321702497000018
 20
99.3398635844999944
 30
0.0
 11
118.5377074506999975
 21
98.0667622821000151
 31
0.0
  0
ARC
  5
7D31
  8
0
 10
117.8941462729000023
 20
98.0211683076000213
 30
0.0
 40
0.6451742401203178
 50
264.0182934151002883
 51
4.0524271581007554
  0
ARC
  5
7D32
  8
0
 10
117.9028300591999994
 20
81.9878129173999923
 30
0.0
 40
0.637218765182889
 50
355.0868300992004833
 51
96.8424493275999652
  0
LINE
  5
7D33
  8
0
 10
108.0321702497000018
 20
80.6601364155999931
 30
0.0
 11
118.5377074506999975
 21
81.933237717999944
 31
0.0
  0
LINE
  5
7D34
  8
0
 10
118.5377074506999975
 20
109.0875856826998955
 30
0.0
 11
118.5377074506999975
 21
98.0667622821000151
 31
0.0
  0
LINE
  5
7D35
  8
0
 10
118.5377074506999975
 20
70.9124143172999766
 30
0.0
 11
118.5377074506999975
 21
81.933237717999944
 31
0.0
  0
LINE
  5
7D36
  8
0
 10
120.0
 20
106.5116478348999038
 30
0.0
 11
120.0
 21
73.4883521651999558
 31
0.0
  0
LINE
  5
7D38
  8
0
 10
71.0
 20
105.0
 30
0.0
 11
71.0
 21
75.0
 31
0.0
  0
LINE
  5
7D39
  8
0
 10
69.5
 20
75.8660254037999948
 30
0.0
 11
69.5
 21
104.133974596300007
 31
0.0
  0
LINE
  5
7D3A
  8
0
 10
120.5
 20
106.5
 30
0.0
 11
120.5
 21
73.5
 31
0.0
  0
LINE
  5
7D3C
  8
0
 10
148.5
 20
101.75
 30
0.0
 11
148.5
 21
78.25
 31
0.0
  0
LINE
  5
7D3D
  8
0
 10
42.5
 20
100.0
 30
0.0
 11
42.5
 21
80.0
 31
0.0
  0
LINE
  5
7D40
  8
0
 10
40.0
 20
82.5
 30
0.0
 11
40.0
 21
97.5000000000000284
 31
0.0
  0
LINE
  5
7D41
  8
0
 10
123.4226497308000035
 20
73.5
 30
0.0
 11
123.4226497308000035
 21
106.5
 31
0.0
  0
LINE
  5
7D45
  8
0
 10
145.5
 20
75.25
 30
0.0
 11
145.5
 21
104.75
 31
0.0
  0
LINE
  5
7D46
  8
0
 10
141.3971143169999891
 20
104.75
 30
0.0
 11
141.3971143169999891
 21
75.25
 31
0.0
  0
LINE
  5
7D4A
  8
0
 10
129.484827557300008
 20
98.9999999999999858
 30
0.0
 11
129.484827557300008
 21
81.0
 31
0.0
  0
LINE
  5
7D4D
  8
0
 10
136.9226497308000035
 20
81.0
 30
0.0
 11
136.9226497308000035
 21
99.0
 31
0.0
  0
CIRCLE
  5
7D4E
  8
0
 10
240.0
 20
90.0
 30
0.0
 40
30.5000000000000604
  0
CIRCLE
  5
7D4F
  8
0
 10
240.0
 20
90.0
 30
0.0
 40
31.5
  0
ARC
  5
7D51
  8
0
 10
240.0
 20
90.0
 30
0.0
 40
19.0875856826896211
 50
204.9999999999992895
 51
335.0000000000005116
  0
ARC
  5
7D52
  8
0
 10
221.6881213073000083
 20
81.6332083616999853
 30
0.0
 40
1.056162852893004
 50
16.5035588250007805
 51
69.1933685652993518
  0
ARC
  5
7D53
  8
0
 10
240.0
 20
90.0
 30
0.0
 40
19.3954329226422004
 50
157.6367972288987005
 51
202.3632027711012995
  0
ARC
  5
7D55
  8
0
 10
240.0
 20
90.0
 30
0.0
 40
19.0875856826896211
 50
24.9999999999992788
 51
155.0000000000007105
  0
ARC
  5
7D56
  8
0
 10
258.3118786926999064
 20
98.3667916383999454
 30
0.0
 40
1.056162852893153
 50
196.5035588250007947
 51
249.1933685652992949
  0
ARC
  5
7D57
  8
0
 10
240.0
 20
90.0
 30
0.0
 40
19.3954329226422004
 50
337.6367972288986721
 51
22.3632027711013102
  0
LINE
  5
7D59
  8
0
 10
257.9367136390000042
 20
82.6204930998999885
 30
0.0
 11
260.3943726828001104
 21
81.4865070108999561
 31
0.0
  0
LINE
  5
7D5B
  8
0
 10
260.0294020934999253
 20
80.6601364155999931
 30
0.0
 11
257.2992275399000164
 21
81.933237717999944
 31
0.0
  0
LINE
  5
7D5D
  8
0
 10
219.9705979064999042
 20
99.3398635844999944
 30
0.0
 11
222.700772459999996
 21
98.0667622821000151
 31
0.0
  0
LINE
  5
7D5E
  8
0
 10
222.0632863609999958
 20
97.3795069001999423
 30
0.0
 11
219.6056273172000033
 21
98.5134929891999747
 31
0.0
  0
POLYLINE
  5
7D5F
  8
0
 66
     1
 10
0.0
 20
0.0
 30
0.0
 70
   128
  0
VERTEX
  5
7E17
  8
0
 10
260.3943726828001104
 20
98.5134929891999747
 30
0.0
  0
VERTEX
  5
7E18
  8
0
 10
258.666929262300016
 20
97.7161462767999751
 30
0.0
  0
VERTEX
  5
7E19
  8
0
 10
257.9367136390000042
 20
97.3795069001999423
 30
0.0
  0
SEQEND
  5
7E1A
  8
0
  0
LINE
  5
7D60
  8
0
 10
260.0294020934999253
 20
99.3398635844999944
 30
0.0
 11
257.2992275399000164
 21
98.0667622821000151
 31
0.0
  0
POLYLINE
  5
7D63
  8
0
 66
     1
 10
0.0
 20
0.0
 30
0.0
 70
   128
  0
VERTEX
  5
7E1B
  8
0
 10
219.6056273172000033
 20
81.4865070108999561
 30
0.0
  0
VERTEX
  5
7E1C
  8
0
 10
221.3330707375999964
 20
82.2838537232999983
 30
0.0
  0
VERTEX
  5
7E1D
  8
0
 10
222.0632863609999958
 20
82.6204930998999885
 30
0.0
  0
SEQEND
  5
7E1E
  8
0
  0
LINE
  5
7D64
  8
0
 10
219.9705979064999042
 20
80.6601364155999931
 30
0.0
 11
222.700772459999996
 21
81.933237717999944
 31
0.0
  0
LINE
  5
7D69
  8
0
 10
236.0
 20
92.3094010767999862
 30
0.0
 11
240.0
 21
94.618802153600015
 31
0.0
  0
LINE
  5
7D6A
  8
0
 10
236.0
 20
87.6905989233000014
 30
0.0
 11
236.0
 21
92.3094010767999862
 31
0.0
  0
LINE
  5
7D6B
  8
0
 10
240.0
 20
85.3811978465000152
 30
0.0
 11
236.0
 21
87.6905989233000014
 31
0.0
  0
LINE
  5
7D6C
  8
0
 10
244.0
 20
87.6905989233000014
 30
0.0
 11
240.0
 21
85.3811978465000152
 31
0.0
  0
LINE
  5
7D6D
  8
0
 10
244.0
 20
92.3094010767999862
 30
0.0
 11
244.0
 21
87.6905989233000014
 31
0.0
  0
LINE
  5
7D6E
  8
0
 10
240.0
 20
94.618802153600015
 30
0.0
 11
244.0
 21
92.3094010767999862
 31
0.0
  0
CIRCLE
  5
7D6F
  8
0
 10
240.0
 20
90.0
 30
0.0
 40
5.0
  0
CIRCLE
  5
7D70
  8
0
 10
240.0
 20
90.0
 30
0.0
 40
14.7500000000000604
  0
CIRCLE
  5
7D71
  8
0
 10
240.0
 20
90.0
 30
0.0
 40
11.7500000000000604
  0
CIRCLE
  5
7D79
  8
0
 10
240.0
 20
90.0
 30
0.0
 40
16.5
  0
CIRCLE
  5
7D82
  8
0
 10
240.0
 20
90.0
 30
0.0
 40
22.1000000000000014
  0
LINE
  5
7D85
  8
1
 10
30.0
 20
90.0
 30
0.0
 11
158.5
 21
90.0
 31
0.0
  0
LINE
  5
7D87
  8
1
 10
198.5
 20
90.0
 30
0.0
 11
281.5
 21
90.0
 31
0.0
  0
LINE
  5
7D88
  8
1
 10
240.0
 20
131.5
 30
0.0
 11
240.0
 21
48.5
 31
0.0
  0
LINE
  5
7D92
  8
3
 10
69.5
 20
98.6469999999999629
 30
0.0
 11
41.1469999999998208
 21
98.646999999999835
 31
0.0
  0
LINE
  5
7D93
  8
3
 10
69.5
 20
81.3530000000000371
 30
0.0
 11
41.1469999999998706
 21
81.3530000000000371
 31
0.0
  0
ARC
  5
7DAE
  8
0
 10
221.6881213073000936
 20
98.3667916383999454
 30
0.0
 40
1.056162852893153
 50
290.8066314347005914
 51
343.49644117499912
  0
ARC
  5
7DAF
  8
0
 10
258.3118786927000201
 20
81.6332083616999853
 30
0.0
 40
1.056162852893004
 50
110.8066314347006056
 51
163.4964411749990063
  0
ENDSEC
  0
EOF
