  0
SECTION
  2
HEADER
  9
$ACADVER
  1
AC1009
  9
$INSBASE
 10
0.0
 20
0.0
 30
0.0
  9
$EXTMIN
 10
0.0
 20
-1.4802182810368341
 30
0.0
  9
$EXTMAX
 10
218.00000056630009
 20
97.499999999950035
 30
0.0
  9
$LIMMIN
 10
0.0
 20
0.0
  9
$LIMMAX
 10
12.0
 20
9.0
  9
$ORTHOMODE
 70
     1
  9
$REGENMODE
 70
     1
  9
$FILLMODE
 70
     1
  9
$QTEXTMODE
 70
     0
  9
$MIRRTEXT
 70
     0
  9
$DRAGMODE
 70
     2
  9
$LTSCALE
 40
5.0
  9
$OSMODE
 70
    37
  9
$ATTMODE
 70
     1
  9
$TEXTSIZE
 40
0.2
  9
$TRACEWID
 40
0.05
  9
$TEXTSTYLE
  7
STANDARD
  9
$CLAYER
  8
0
  9
$CELTYPE
  6
BYLAYER
  9
$CECOLOR
 62
   256
  9
$DIMSCALE
 40
1.0
  9
$DIMASZ
 40
0.18
  9
$DIMEXO
 40
0.0625
  9
$DIMDLI
 40
0.38
  9
$DIMRND
 40
0.0
  9
$DIMDLE
 40
0.0
  9
$DIMEXE
 40
0.18
  9
$DIMTP
 40
0.0
  9
$DIMTM
 40
0.0
  9
$DIMTXT
 40
2.6000000000000001
  9
$DIMCEN
 40
0.09
  9
$DIMTSZ
 40
0.0
  9
$DIMTOL
 70
     0
  9
$DIMLIM
 70
     0
  9
$DIMTIH
 70
     0
  9
$DIMTOH
 70
     0
  9
$DIMSE1
 70
     0
  9
$DIMSE2
 70
     0
  9
$DIMTAD
 70
     1
  9
$DIMZIN
 70
     8
  9
$DIMBLK
  1

  9
$DIMASO
 70
     1
  9
$DIMSHO
 70
     1
  9
$DIMPOST
  1

  9
$DIMAPOST
  1

  9
$DIMALT
 70
     0
  9
$DIMALTD
 70
     2
  9
$DIMALTF
 40
25.399999999999999
  9
$DIMLFAC
 40
1.0
  9
$DIMTOFL
 70
     0
  9
$DIMTVP
 40
0.0
  9
$DIMTIX
 70
     0
  9
$DIMSOXD
 70
     0
  9
$DIMSAH
 70
     0
  9
$DIMBLK1
  1

  9
$DIMBLK2
  1

  9
$DIMSTYLE
  2
STANDARD
  9
$DIMCLRD
 70
     0
  9
$DIMCLRE
 70
     0
  9
$DIMCLRT
 70
     0
  9
$DIMTFAC
 40
1.0
  9
$DIMGAP
 40
0.09
  9
$LUNITS
 70
     2
  9
$LUPREC
 70
     4
  9
$SKETCHINC
 40
0.1
  9
$FILLETRAD
 40
0.0
  9
$AUNITS
 70
     0
  9
$AUPREC
 70
     0
  9
$MENU
  1
.
  9
$ELEVATION
 40
0.0
  9
$PELEVATION
 40
0.0
  9
$THICKNESS
 40
0.0
  9
$LIMCHECK
 70
     0
  9
$BLIPMODE
 70
     0
  9
$CHAMFERA
 40
0.0
  9
$CHAMFERB
 40
0.0
  9
$SKPOLY
 70
     0
  9
$TDCREATE
 40
2453083.4120647679
  9
$TDUPDATE
 40
2459604.6595834722
  9
$TDINDWG
 40
0.7244366435
  9
$TDUSRTIMER
 40
0.7244365278
  9
$USRTIMER
 70
     1
  9
$ANGBASE
 50
0.0
  9
$ANGDIR
 70
     0
  9
$PDMODE
 70
     0
  9
$PDSIZE
 40
0.0
  9
$PLINEWID
 40
0.0
  9
$COORDS
 70
     1
  9
$SPLFRAME
 70
     0
  9
$SPLINETYPE
 70
     6
  9
$SPLINESEGS
 70
     8
  9
$ATTDIA
 70
     0
  9
$ATTREQ
 70
     1
  9
$HANDLING
 70
     1
  9
$HANDSEED
  5
7C77
  9
$SURFTAB1
 70
     6
  9
$SURFTAB2
 70
     6
  9
$SURFTYPE
 70
     6
  9
$SURFU
 70
     6
  9
$SURFV
 70
     6
  9
$UCSNAME
  2

  9
$UCSORG
 10
0.0
 20
0.0
 30
0.0
  9
$UCSXDIR
 10
1.0
 20
0.0
 30
0.0
  9
$UCSYDIR
 10
0.0
 20
1.0
 30
0.0
  9
$PUCSNAME
  2

  9
$PUCSORG
 10
0.0
 20
0.0
 30
0.0
  9
$PUCSXDIR
 10
1.0
 20
0.0
 30
0.0
  9
$PUCSYDIR
 10
0.0
 20
1.0
 30
0.0
  9
$USERI1
 70
     0
  9
$USERI2
 70
     1
  9
$USERI3
 70
     0
  9
$USERI4
 70
     0
  9
$USERI5
 70
     0
  9
$USERR1
 40
0.0
  9
$USERR2
 40
0.0
  9
$USERR3
 40
0.0
  9
$USERR4
 40
0.0
  9
$USERR5
 40
0.0
  9
$WORLDVIEW
 70
     1
  9
$SHADEDGE
 70
     3
  9
$SHADEDIF
 70
    70
  9
$TILEMODE
 70
     1
  9
$MAXACTVP
 70
    64
  9
$PLIMCHECK
 70
     0
  9
$PEXTMIN
 10
0.0
 20
0.0
 30
0.0
  9
$PEXTMAX
 10
0.0
 20
0.0
 30
0.0
  9
$PLIMMIN
 10
0.0
 20
0.0
  9
$PLIMMAX
 10
12.0
 20
9.0
  9
$UNITMODE
 70
     0
  9
$VISRETAIN
 70
     1
  9
$PLINEGEN
 70
     0
  9
$PSLTSCALE
 70
     1
  0
ENDSEC
  0
SECTION
  2
TABLES
  0
TABLE
  2
VPORT
 70
     1
  0
VPORT
  2
*ACTIVE
 70
     0
 10
0.0
 20
0.0
 11
1.0
 21
1.0
 12
188.11051966472431
 22
48.009626112405599
 13
0.0
 23
0.0
 14
0.5
 24
0.5
 15
0.5
 25
0.5
 16
0.0
 26
0.0
 36
1.0
 17
0.0
 27
0.0
 37
0.0
 40
158.6326901652248
 41
2.3805970149253728
 42
50.0
 43
0.0
 44
0.0
 50
0.0
 51
0.0
 71
     0
 72
  1000
 73
     1
 74
     2
 75
     0
 76
     0
 77
     0
 78
     0
  0
ENDTAB
  0
TABLE
  2
LTYPE
 70
     3
  0
LTYPE
  2
CONTINUOUS
 70
     0
  3
Solid Line
 72
    65
 73
     0
 40
0.0
  0
LTYPE
  2
CENTER
 70
     0
  3
____ _ ____ _ ____ _ ____ _ ____ _ ____ _ ____
 72
    65
 73
     4
 40
2.0
 49
1.25
 49
-0.25
 49
0.25
 49
-0.25
  0
LTYPE
  2
PHANTOM2
 70
     0
  3
___ _ _ ___ _ _ ___ _ _ ___ _ _
 72
    65
 73
     6
 40
1.25
 49
0.625
 49
-0.125
 49
0.125
 49
-0.125
 49
0.125
 49
-0.125
  0
ENDTAB
  0
TABLE
  2
LAYER
 70
     4
  0
LAYER
  2
0
 70
     0
 62
     7
  6
CONTINUOUS
  0
LAYER
  2
1
 70
     0
 62
     1
  6
CENTER
  0
LAYER
  2
DEFPOINTS
 70
     0
 62
     7
  6
CONTINUOUS
  0
LAYER
  2
3
 70
     0
 62
     3
  6
CONTINUOUS
  0
ENDTAB
  0
TABLE
  2
STYLE
 70
     2
  0
STYLE
  2
STANDARD
 70
     0
 40
0.0
 41
1.0
 50
0.0
 71
     0
 42
0.2
  3
simplex.shx
  4
bigfont.shx
  0
STYLE
  2
STANDARD1
 70
     0
 40
0.0
 41
1.0
 50
0.0
 71
     0
 42
3.0
  3
txt
  4

  0
ENDTAB
  0
TABLE
  2
VIEW
 70
     0
  0
ENDTAB
  0
TABLE
  2
UCS
 70
     0
  0
ENDTAB
  0
TABLE
  2
APPID
 70
     5
  0
APPID
  2
ACAD
 70
     0
  0
APPID
  2
ACAD_MLEADERVER
 70
     0
  0
APPID
  2
ACAD_NAV_VCDISPLAY
 70
     0
  0
APPID
  2
ACAD_EXEMPT_FROM_CAD_STANDARDS
 70
     0
  0
APPID
  2
ACAD_DSTYLE_DIMRADIAL_EXTENSION
 70
     0
  0
ENDTAB
  0
TABLE
  2
DIMSTYLE
 70
     1
  0
DIMSTYLE
  2
STANDARD
 70
     0
  3

  4

  5

  6

  7

 40
1.0
 41
0.18
 42
0.0625
 43
0.38
 44
0.18
 45
0.0
 46
0.0
 47
0.0
 48
0.0
140
2.6000000000000001
141
0.09
142
0.0
143
25.399999999999999
144
1.0
145
0.0
146
1.0
147
0.09
 71
     0
 72
     0
 73
     0
 74
     0
 75
     0
 76
     0
 77
     1
 78
     8
170
     0
171
     2
172
     0
173
     0
174
     0
175
     0
176
     0
177
     0
178
     0
  0
ENDTAB
  0
ENDSEC
  0
SECTION
  2
BLOCKS
  0
BLOCK
  8
0
  2
$MODEL_SPACE
 70
     0
 10
0.0
 20
0.0
 30
0.0
  3
$MODEL_SPACE
  1

  0
ENDBLK
  5
21
  8
0
  0
BLOCK
 67
     1
  8
0
  2
$PAPER_SPACE
 70
     0
 10
0.0
 20
0.0
 30
0.0
  3
$PAPER_SPACE
  1

  0
ENDBLK
  5
5B
 67
     1
  8
0
  0
ENDSEC
  0
SECTION
  2
ENTITIES
  0
TEXT
  5
1F01
  8
0
 62
     3
 10
0.0
 20
0.0
 30
0.0
 40
5.0
  1
CP155-16001DS
  7
STANDARD1
  0
LINE
  5
79DA
  8
3
 10
57.500000894100012
 20
77.000000216049955
 30
0.0
 11
36.000002026600022
 21
77.000000216049955
 31
0.0
  0
LINE
  5
79DB
  8
3
 10
36.000002026600022
 20
62.999999783949988
 30
0.0
 11
57.500000894100012
 21
62.999999783949988
 31
0.0
  0
LINE
  5
7A37
  8
1
 10
190.50000056630009
 20
97.499999999950035
 30
0.0
 11
190.50000056630009
 21
42.499999999949921
 31
0.0
  0
LINE
  5
7A3A
  8
1
 10
123.0000005663
 20
70.0
 30
0.0
 11
30.0
 21
70.0
 31
0.0
  0
LINE
  5
7A3F
  8
1
 10
163.0000005663
 20
69.999999999949964
 30
0.0
 11
218.00000056630009
 21
69.999999999949964
 31
0.0
  0
LINE
  5
7B10
  8
0
 10
84.0
 20
47.5
 30
0.0
 11
85.0
 21
48.5
 31
0.0
  0
LINE
  5
7B11
  8
0
 10
85.0
 20
91.499999999999957
 30
0.0
 11
84.0
 21
92.499999999999986
 31
0.0
  0
LINE
  5
7B12
  8
0
 10
84.0
 20
92.499999999999986
 30
0.0
 11
66.0
 21
92.499999999999986
 31
0.0
  0
LINE
  5
7B13
  8
0
 10
66.0
 20
47.5
 30
0.0
 11
84.0
 21
47.5
 31
0.0
  0
LINE
  5
7B14
  8
0
 10
66.0
 20
92.499999999999986
 30
0.0
 11
65.0
 21
91.499999999999957
 31
0.0
  0
LINE
  5
7B15
  8
0
 10
65.0
 20
48.5
 30
0.0
 11
66.0
 21
47.5
 31
0.0
  0
LINE
  5
7B16
  8
0
 10
85.509058083100001
 20
85.749999999999972
 30
0.0
 11
85.199999999999989
 21
85.749999999999972
 31
0.0
  0
LINE
  5
7B17
  8
0
 10
85.199999999999989
 20
54.249999999999972
 30
0.0
 11
85.509058083100001
 21
54.249999999999972
 31
0.0
  0
LINE
  5
7B18
  8
0
 10
85.199999999999989
 20
85.749999999999972
 30
0.0
 11
85.0
 21
85.549999999999955
 31
0.0
  0
LINE
  5
7B19
  8
0
 10
85.0
 20
54.449999999999989
 30
0.0
 11
85.199999999999989
 21
54.249999999999972
 31
0.0
  0
LINE
  5
7B1A
  8
0
 10
93.537707450700012
 20
83.447821839999961
 30
0.0
 11
85.509058083100001
 21
85.749999999999972
 31
0.0
  0
LINE
  5
7B1B
  8
0
 10
85.509058083100001
 20
54.249999999999972
 30
0.0
 11
93.537707450700012
 21
56.55217816009997
 31
0.0
  0
ARC
  5
7B1C
  8
0
 10
92.0
 20
80.871883992099967
 30
0.0
 40
3.00000000000002
 50
0.0
 51
59.164888418000523
  0
ARC
  5
7B1D
  8
0
 10
92.0
 20
59.12811600789999
 30
0.0
 40
3.00000000000002
 50
300.83511158199951
 51
0.0
  0
LINE
  5
7B1E
  8
0
 10
65.0
 20
80.999999999999972
 30
0.0
 11
59.0
 21
80.999999999999972
 31
0.0
  0
LINE
  5
7B1F
  8
0
 10
59.0
 20
58.999999999999972
 30
0.0
 11
65.0
 21
58.999999999999972
 31
0.0
  0
LINE
  5
7B20
  8
0
 10
59.0
 20
80.999999999999972
 30
0.0
 11
57.5
 21
80.133974596199977
 31
0.0
  0
LINE
  5
7B21
  8
0
 10
57.5
 20
59.866025403799988
 30
0.0
 11
59.0
 21
58.999999999999972
 31
0.0
  0
ARC
  5
7B22
  8
0
 10
98.422649730799975
 20
80.999999999999972
 30
0.0
 40
1.0000000000000071
 50
29.999999999999929
 51
90.0
  0
ARC
  5
7B23
  8
0
 10
98.422649730799975
 20
58.999999999999972
 30
0.0
 40
1.0000000000000071
 50
270.0
 51
330.00000000000011
  0
LINE
  5
7B24
  8
0
 10
98.422649730799975
 20
81.999999999999972
 30
0.0
 11
95.5
 21
81.999999999999972
 31
0.0
  0
LINE
  5
7B25
  8
0
 10
95.5
 20
57.999999999999972
 30
0.0
 11
98.422649730799975
 21
57.999999999999972
 31
0.0
  0
LINE
  5
7B26
  8
0
 10
95.5
 20
81.999999999999972
 30
0.0
 11
95.0
 21
81.499999999999957
 31
0.0
  0
LINE
  5
7B27
  8
0
 10
95.0
 20
58.499999999999972
 30
0.0
 11
95.5
 21
57.999999999999972
 31
0.0
  0
LINE
  5
7B28
  8
0
 10
99.288675134599998
 20
58.499999999999972
 30
0.0
 11
101.886751346
 21
62.999999999999972
 31
0.0
  0
LINE
  5
7B29
  8
0
 10
101.886751346
 20
76.999999999999972
 30
0.0
 11
99.288675134599998
 21
81.499999999999957
 31
0.0
  0
ARC
  5
7B2A
  8
0
 10
116.2928932188
 20
79.999999999999972
 30
0.0
 40
0.5
 50
45.000000000000227
 51
90.0
  0
ARC
  5
7B2B
  8
0
 10
116.2928932188
 20
59.999999999999972
 30
0.0
 40
0.5
 50
270.0
 51
314.99999999999977
  0
LINE
  5
7B2C
  8
0
 10
112.386751346
 20
59.499999999999972
 30
0.0
 11
116.2928932188
 21
59.499999999999972
 31
0.0
  0
LINE
  5
7B2D
  8
0
 10
116.2928932188
 20
80.499999999999972
 30
0.0
 11
112.386751346
 21
80.499999999999972
 31
0.0
  0
ARC
  5
7B2E
  8
0
 10
112.386751346
 20
79.499999999999972
 30
0.0
 40
1.0000000000000071
 50
90.0
 51
150.0
  0
ARC
  5
7B2F
  8
0
 10
112.386751346
 20
60.499999999999972
 30
0.0
 40
1.0000000000000071
 50
210.0
 51
270.0
  0
LINE
  5
7B30
  8
0
 10
116.6464466094
 20
59.646446609399987
 30
0.0
 11
117.7071067812
 21
60.707106781199968
 31
0.0
  0
LINE
  5
7B31
  8
0
 10
117.7071067812
 20
79.292893218799975
 30
0.0
 11
116.6464466094
 21
80.353553390599984
 31
0.0
  0
LINE
  5
7B32
  8
0
 10
111.5207259422
 20
79.999999999999972
 30
0.0
 11
109.7886751346
 21
76.999999999999972
 31
0.0
  0
LINE
  5
7B33
  8
0
 10
109.7886751346
 20
62.999999999999972
 30
0.0
 11
111.5207259422
 21
59.999999999999972
 31
0.0
  0
ARC
  5
7B34
  8
0
 10
117.0
 20
78.585786437699994
 30
0.0
 40
1.0000000000000071
 50
0.0
 51
45.000000000000227
  0
ARC
  5
7B35
  8
0
 10
117.0
 20
61.414213562399993
 30
0.0
 40
1.0
 50
314.99999999999977
 51
0.0
  0
LINE
  5
7B36
  8
0
 10
57.5
 20
77.999999999999972
 30
0.0
 11
37.0
 21
77.999999999999972
 31
0.0
  0
LINE
  5
7B37
  8
0
 10
37.0
 20
61.999999999999972
 30
0.0
 11
57.5
 21
61.999999999999972
 31
0.0
  0
LINE
  5
7B38
  8
0
 10
37.0
 20
77.999999999999972
 30
0.0
 11
35.0
 21
75.999999999999972
 31
0.0
  0
LINE
  5
7B39
  8
0
 10
35.0
 20
63.999999999999972
 30
0.0
 11
37.0
 21
61.999999999999972
 31
0.0
  0
ARC
  5
7B3A
  8
0
 10
108.9226497308
 20
62.499999999999972
 30
0.0
 40
1.0
 50
29.999999999999929
 51
90.0
  0
ARC
  5
7B3B
  8
0
 10
108.9226497308
 20
77.499999999999972
 30
0.0
 40
0.9999999999999857
 50
270.0
 51
330.00000000000011
  0
ARC
  5
7B3C
  8
0
 10
102.7527767497
 20
62.499999999999972
 30
0.0
 40
1.0000000000000071
 50
90.0
 51
150.0
  0
ARC
  5
7B3D
  8
0
 10
102.7527767497
 20
77.499999999999972
 30
0.0
 40
1.0000000000000071
 50
210.0
 51
270.0
  0
LINE
  5
7B3E
  8
0
 10
102.7527767497
 20
63.499999999999972
 30
0.0
 11
108.9226497308
 21
63.499999999999972
 31
0.0
  0
LINE
  5
7B3F
  8
0
 10
108.9226497308
 20
76.499999999999972
 30
0.0
 11
102.7527767497
 21
76.499999999999972
 31
0.0
  0
LINE
  5
7B40
  8
0
 10
85.0
 20
91.499999999999957
 30
0.0
 11
85.0
 21
48.5
 31
0.0
  0
LINE
  5
7B41
  8
0
 10
84.0
 20
47.5
 30
0.0
 11
84.0
 21
92.499999999999986
 31
0.0
  0
LINE
  5
7B42
  8
0
 10
66.0
 20
92.499999999999986
 30
0.0
 11
66.0
 21
47.5
 31
0.0
  0
LINE
  5
7B43
  8
0
 10
65.0
 20
48.5
 30
0.0
 11
65.0
 21
91.499999999999957
 31
0.0
  0
LINE
  5
7B44
  8
0
 10
85.509058083100001
 20
85.749999999999972
 30
0.0
 11
85.509058083100001
 21
76.656237622399999
 31
0.0
  0
ARC
  5
7B45
  8
0
 10
86.669779382499996
 20
76.699168882199984
 30
0.0
 40
1.161514971034886
 50
182.11821670119971
 51
226.60927729800071
  0
LINE
  5
7B46
  8
0
 10
85.871853610999992
 20
75.855112313599989
 30
0.0
 11
85.871853610999992
 21
64.144887686399983
 31
0.0
  0
ARC
  5
7B47
  8
0
 10
86.776542653800007
 20
63.252482579900011
 30
0.0
 40
1.270767145597629
 50
135.39163598849899
 51
175.8808700125997
  0
LINE
  5
7B48
  8
0
 10
85.509058083100001
 20
54.249999999999972
 30
0.0
 11
85.509058083100001
 21
63.343762377599973
 31
0.0
  0
LINE
  5
7B49
  8
0
 10
85.199999999999989
 20
85.749999999999929
 30
0.0
 11
85.199999999999989
 21
54.249999999999972
 31
0.0
  0
LINE
  5
7B4B
  8
0
 10
92.826912067500004
 20
75.024120938799953
 30
0.0
 11
85.871853610999992
 21
75.855112313599989
 31
0.0
  0
LINE
  5
7B4C
  8
0
 10
92.826912067500004
 20
64.975879061199976
 30
0.0
 11
92.826912067500004
 21
75.024120938799953
 31
0.0
  0
LINE
  5
7B4D
  8
0
 10
85.871853610999992
 20
64.144887686399983
 30
0.0
 11
92.826912067500004
 21
64.975879061199976
 31
0.0
  0
LINE
  5
7B4E
  8
0
 10
85.509058083100001
 20
76.656237622399999
 30
0.0
 11
93.537707450700012
 21
75.683295090199977
 31
0.0
  0
ARC
  5
7B4F
  8
0
 10
92.905147509799988
 20
75.652575387899986
 30
0.0
 40
0.633305438931619
 50
262.90383324529972
 51
2.7803333870998932
  0
ARC
  5
7B50
  8
0
 10
92.914629397599995
 20
64.357649045299979
 30
0.0
 40
0.6244218786607306
 50
356.24034552939969
 51
98.075487838200601
  0
LINE
  5
7B51
  8
0
 10
85.509058083100001
 20
63.343762377599973
 30
0.0
 11
93.537707450700012
 21
64.316704909799995
 31
0.0
  0
LINE
  5
7B52
  8
0
 10
93.537707450700012
 20
75.683295090199977
 30
0.0
 11
93.537707450700012
 21
83.447821839999961
 31
0.0
  0
LINE
  5
7B53
  8
0
 10
93.537707450700012
 20
64.316704909799995
 30
0.0
 11
93.537707450700012
 21
56.55217816009997
 31
0.0
  0
LINE
  5
7B54
  8
0
 10
58.999999999999993
 20
80.999999999999943
 30
0.0
 11
59.0
 21
58.999999999999972
 31
0.0
  0
LINE
  5
7B57
  8
0
 10
57.5
 20
59.866025403799988
 30
0.0
 11
57.5
 21
80.133974596199977
 31
0.0
  0
LINE
  5
7B58
  8
0
 10
95.5
 20
81.999999999999972
 30
0.0
 11
95.5
 21
57.999999999999972
 31
0.0
  0
LINE
  5
7B59
  8
0
 10
95.0
 20
58.499999999999972
 30
0.0
 11
95.0
 21
81.499999999999957
 31
0.0
  0
LINE
  5
7B5B
  8
0
 10
118.0
 20
78.585786437699994
 30
0.0
 11
118.0
 21
61.414213562399993
 31
0.0
  0
LINE
  5
7B5C
  8
0
 10
37.0
 20
77.999999999999972
 30
0.0
 11
37.0
 21
61.999999999999972
 31
0.0
  0
LINE
  5
7B5D
  8
0
 10
35.0
 20
63.999999999999972
 30
0.0
 11
35.0
 21
75.999999999999972
 31
0.0
  0
LINE
  5
7B5E
  8
0
 10
98.422649730799975
 20
57.999999999999972
 30
0.0
 11
98.422649730799975
 21
81.999999999999972
 31
0.0
  0
LINE
  5
7B60
  8
0
 10
116.2928932188
 20
59.5
 30
0.0
 11
116.2928932188
 21
80.499999999999972
 31
0.0
  0
LINE
  5
7B63
  8
0
 10
112.386751346
 20
80.499999999999972
 30
0.0
 11
112.386751346
 21
59.5
 31
0.0
  0
LINE
  5
7B64
  8
0
 10
108.9226497308
 20
63.499999999999972
 30
0.0
 11
108.9226497308
 21
76.499999999999972
 31
0.0
  0
LINE
  5
7B65
  8
0
 10
102.7527767497
 20
76.499999999999972
 30
0.0
 11
102.7527767497
 21
63.499999999999972
 31
0.0
  0
CIRCLE
  5
7B66
  8
0
 10
190.50000056630009
 20
69.999999999949964
 30
0.0
 40
21.500000000000039
  0
CIRCLE
  5
7B67
  8
0
 10
190.50000056630009
 20
69.999999999949964
 30
0.0
 40
22.500000000000071
  0
ARC
  5
7B68
  8
0
 10
177.34544332109999
 20
64.029962109750016
 30
0.0
 40
1.0083224034106339
 50
16.521559141399681
 51
69.736477950999856
  0
ARC
  5
7B69
  8
0
 10
190.50000056630009
 20
69.999999999949964
 30
0.0
 40
13.75566907991856
 50
158.57764491410029
 51
201.42235508589971
  0
POLYLINE
  5
7B6A
  8
0
 66
     1
 10
0.0
 20
0.0
 30
0.0
 70
   128
  0
VERTEX
  5
7C67
  8
0
 10
178.31213491410011
 20
75.683295090149983
 30
0.0
  0
VERTEX
  5
7C68
  8
0
 10
178.2861124409001
 20
75.629474439949973
 30
0.0
  0
VERTEX
  5
7C69
  8
0
 10
178.12206546150011
 20
75.356918418349977
 30
0.0
  0
VERTEX
  5
7C6A
  8
0
 10
177.94270081730011
 20
75.148444168849963
 30
0.0
  0
VERTEX
  5
7C6B
  8
0
 10
177.79585810770001
 20
75.039754745549999
 30
0.0
  0
VERTEX
  5
7C6C
  8
0
 10
177.7028962351001
 20
75.021124145149955
 30
0.0
  0
VERTEX
  5
7C6D
  8
0
 10
177.6946641542001
 20
75.024120938749974
 30
0.0
  0
SEQEND
  5
7C6E
  8
0
  0
ARC
  5
7B6B
  8
0
 10
190.50000056630009
 20
69.999999999949964
 30
0.0
 40
13.447821839965989
 50
24.99999999999978
 51
155.0000000000002
  0
ARC
  5
7B6C
  8
0
 10
203.6545578115001
 20
75.970037890249984
 30
0.0
 40
1.0083224034106539
 50
196.52155914139971
 51
249.7364779509999
  0
ARC
  5
7B6D
  8
0
 10
190.50000056630009
 20
69.999999999949964
 30
0.0
 40
13.75566907991861
 50
338.57764491410029
 51
21.422355085899671
  0
POLYLINE
  5
7B6E
  8
0
 66
     1
 10
0.0
 20
0.0
 30
0.0
 70
   128
  0
VERTEX
  5
7C6F
  8
0
 10
202.68786621860011
 20
64.316704909750001
 30
0.0
  0
VERTEX
  5
7C70
  8
0
 10
202.71388869170011
 20
64.37052556004997
 30
0.0
  0
VERTEX
  5
7C71
  8
0
 10
202.87793567110009
 20
64.643081581649966
 30
0.0
  0
VERTEX
  5
7C72
  8
0
 10
203.05730031540011
 20
64.851555831049964
 30
0.0
  0
VERTEX
  5
7C73
  8
0
 10
203.20414302490011
 20
64.960245254449973
 30
0.0
  0
VERTEX
  5
7C74
  8
0
 10
203.29710489750011
 20
64.978875854850003
 30
0.0
  0
VERTEX
  5
7C75
  8
0
 10
203.30533697850009
 20
64.975879061149982
 30
0.0
  0
SEQEND
  5
7C76
  8
0
  0
ARC
  5
7B6F
  8
0
 10
190.50000056630009
 20
69.999999999949964
 30
0.0
 40
13.447821839965989
 50
204.9999999999998
 51
335.00000000000023
  0
LINE
  5
7B70
  8
0
 10
203.30533697850009
 20
64.975879061149982
 30
0.0
 11
205.1212234904001
 21
64.144887686349989
 31
0.0
  0
LINE
  5
7B72
  8
0
 10
204.77434821210011
 20
63.343762377549979
 30
0.0
 11
202.68786621860011
 21
64.316704909750001
 31
0.0
  0
LINE
  5
7B74
  8
0
 10
176.2256529205001
 20
76.656237622350005
 30
0.0
 11
178.31213491410011
 21
75.683295090149983
 31
0.0
  0
LINE
  5
7B75
  8
0
 10
177.6946641542001
 20
75.024120938749974
 30
0.0
 11
175.87877764220011
 21
75.855112313549995
 31
0.0
  0
LINE
  5
7B77
  8
0
 10
205.1212234904001
 20
75.855112313549995
 30
0.0
 11
203.30533697850009
 21
75.024120938749974
 31
0.0
  0
LINE
  5
7B78
  8
0
 10
204.77434821210011
 20
76.656237622350005
 30
0.0
 11
202.68786621860011
 21
75.683295090149983
 31
0.0
  0
LINE
  5
7B79
  8
0
 10
175.87877764220011
 20
64.144887686349989
 30
0.0
 11
177.6946641542001
 21
64.975879061149982
 31
0.0
  0
LINE
  5
7B7A
  8
0
 10
176.2256529205001
 20
63.343762377549979
 30
0.0
 11
178.31213491410011
 21
64.316704909750001
 31
0.0
  0
LINE
  5
7B80
  8
0
 10
193.50000056630009
 20
71.732050807549996
 30
0.0
 11
193.50000056630009
 21
68.267949192449976
 31
0.0
  0
LINE
  5
7B81
  8
0
 10
190.50000056630009
 20
73.464101615149985
 30
0.0
 11
193.50000056630009
 21
71.732050807549996
 31
0.0
  0
LINE
  5
7B82
  8
0
 10
187.50000056630009
 20
71.732050807549996
 30
0.0
 11
190.50000056630009
 21
73.464101615149985
 31
0.0
  0
LINE
  5
7B83
  8
0
 10
187.50000056630009
 20
68.267949192449976
 30
0.0
 11
187.50000056630009
 21
71.732050807549996
 31
0.0
  0
LINE
  5
7B84
  8
0
 10
190.50000056630009
 20
66.535898384850015
 30
0.0
 11
187.50000056630009
 21
68.267949192449976
 31
0.0
  0
LINE
  5
7B85
  8
0
 10
193.50000056630009
 20
68.267949192449976
 30
0.0
 11
190.50000056630009
 21
66.535898384850015
 31
0.0
  0
CIRCLE
  5
7B86
  8
0
 10
190.50000056630009
 20
69.999999999949964
 30
0.0
 40
3.75
  0
CIRCLE
  5
7B87
  8
0
 10
190.50000056630009
 20
69.999999999949964
 30
0.0
 40
8.5857864376269237
  0
CIRCLE
  5
7B88
  8
0
 10
190.50000056630009
 20
69.999999999949964
 30
0.0
 40
10.5
  0
CIRCLE
  5
7B8F
  8
0
 10
190.50000056630009
 20
69.999999999949964
 30
0.0
 40
12.0
  0
CIRCLE
  5
7BD9
  8
0
 10
190.50000056630009
 20
69.999999999949964
 30
0.0
 40
15.75
  0
ENDSEC
  0
EOF
