  0
SECTION
  2
HEADER
  9
$ACADVER
  1
AC1009
  9
$INSBASE
 10
0.0
 20
0.0
 30
0.0
  9
$EXTMIN
 10
0.0
 20
-1.4802182810368341
 30
0.0
  9
$EXTMAX
 10
62.300000000000239
 20
73.800000000000011
 30
0.0
  9
$LIMMIN
 10
0.0
 20
0.0
  9
$LIMMAX
 10
375.0
 20
270.0
  9
$ORTHOMODE
 70
     1
  9
$REGENMODE
 70
     1
  9
$FILLMODE
 70
     1
  9
$QTEXTMODE
 70
     0
  9
$MIRRTEXT
 70
     0
  9
$DRAGMODE
 70
     2
  9
$LTSCALE
 40
1.0
  9
$OSMODE
 70
    37
  9
$ATTMODE
 70
     1
  9
$TEXTSIZE
 40
6.0
  9
$TRACEWID
 40
0.05
  9
$TEXTSTYLE
  7
STANDARD
  9
$CLAYER
  8
0
  9
$CELTYPE
  6
BYLAYER
  9
$CECOLOR
 62
   256
  9
$DIMSCALE
 40
1.0
  9
$DIMASZ
 40
3.0
  9
$DIMEXO
 40
2.0
  9
$DIMDLI
 40
0.3799999999999999
  9
$DIMRND
 40
0.0
  9
$DIMDLE
 40
0.0
  9
$DIMEXE
 40
2.0
  9
$DIMTP
 40
0.0
  9
$DIMTM
 40
0.0
  9
$DIMTXT
 40
3.2000000000000002
  9
$DIMCEN
 40
0.09
  9
$DIMTSZ
 40
0.0
  9
$DIMTOL
 70
     0
  9
$DIMLIM
 70
     0
  9
$DIMTIH
 70
     0
  9
$DIMTOH
 70
     0
  9
$DIMSE1
 70
     0
  9
$DIMSE2
 70
     0
  9
$DIMTAD
 70
     1
  9
$DIMZIN
 70
     9
  9
$DIMBLK
  1

  9
$DIMASO
 70
     0
  9
$DIMSHO
 70
     0
  9
$DIMPOST
  1

  9
$DIMAPOST
  1

  9
$DIMALT
 70
     0
  9
$DIMALTD
 70
     2
  9
$DIMALTF
 40
25.399999999999999
  9
$DIMLFAC
 40
1.0
  9
$DIMTOFL
 70
     0
  9
$DIMTVP
 40
0.0
  9
$DIMTIX
 70
     0
  9
$DIMSOXD
 70
     0
  9
$DIMSAH
 70
     0
  9
$DIMBLK1
  1

  9
$DIMBLK2
  1

  9
$DIMSTYLE
  2
STANDARD
  9
$DIMCLRD
 70
     0
  9
$DIMCLRE
 70
     0
  9
$DIMCLRT
 70
     0
  9
$DIMTFAC
 40
1.0
  9
$DIMGAP
 40
0.09
  9
$LUNITS
 70
     2
  9
$LUPREC
 70
     1
  9
$SKETCHINC
 40
0.1
  9
$FILLETRAD
 40
20.0
  9
$AUNITS
 70
     0
  9
$AUPREC
 70
     1
  9
$MENU
  1
E:\r13\win\SUPPORT\ACAD
  9
$ELEVATION
 40
0.0
  9
$PELEVATION
 40
0.0
  9
$THICKNESS
 40
0.0
  9
$LIMCHECK
 70
     0
  9
$BLIPMODE
 70
     0
  9
$CHAMFERA
 40
0.0
  9
$CHAMFERB
 40
0.0
  9
$SKPOLY
 70
     0
  9
$TDCREATE
 40
2449840.6320370371
  9
$TDUPDATE
 40
2456927.6947884611
  9
$TDINDWG
 40
1.9796963426
  9
$TDUSRTIMER
 40
1.9796963426
  9
$USRTIMER
 70
     1
  9
$ANGBASE
 50
0.0
  9
$ANGDIR
 70
     0
  9
$PDMODE
 70
     0
  9
$PDSIZE
 40
0.0
  9
$PLINEWID
 40
0.0
  9
$COORDS
 70
     1
  9
$SPLFRAME
 70
     0
  9
$SPLINETYPE
 70
     6
  9
$SPLINESEGS
 70
     8
  9
$ATTDIA
 70
     0
  9
$ATTREQ
 70
     1
  9
$HANDLING
 70
     1
  9
$HANDSEED
  5
1F7BE
  9
$SURFTAB1
 70
     6
  9
$SURFTAB2
 70
     6
  9
$SURFTYPE
 70
     6
  9
$SURFU
 70
     6
  9
$SURFV
 70
     6
  9
$UCSNAME
  2

  9
$UCSORG
 10
0.0
 20
0.0
 30
0.0
  9
$UCSXDIR
 10
1.0
 20
0.0
 30
0.0
  9
$UCSYDIR
 10
0.0
 20
1.0
 30
0.0
  9
$PUCSNAME
  2

  9
$PUCSORG
 10
0.0
 20
0.0
 30
0.0
  9
$PUCSXDIR
 10
1.0
 20
0.0
 30
0.0
  9
$PUCSYDIR
 10
0.0
 20
1.0
 30
0.0
  9
$USERI1
 70
     0
  9
$USERI2
 70
     1
  9
$USERI3
 70
     0
  9
$USERI4
 70
     0
  9
$USERI5
 70
     0
  9
$USERR1
 40
0.0
  9
$USERR2
 40
0.0
  9
$USERR3
 40
0.0
  9
$USERR4
 40
0.0
  9
$USERR5
 40
0.0
  9
$WORLDVIEW
 70
     1
  9
$SHADEDGE
 70
     3
  9
$SHADEDIF
 70
    70
  9
$TILEMODE
 70
     1
  9
$MAXACTVP
 70
    16
  9
$PLIMCHECK
 70
     0
  9
$PEXTMIN
 10
1.0000000000000000E+020
 20
1.0000000000000000E+020
 30
1.0000000000000000E+020
  9
$PEXTMAX
 10
-1.0000000000000000E+020
 20
-1.0000000000000000E+020
 30
-1.0000000000000000E+020
  9
$PLIMMIN
 10
0.0
 20
0.0
  9
$PLIMMAX
 10
12.0
 20
9.0
  9
$UNITMODE
 70
     0
  9
$VISRETAIN
 70
     0
  9
$PLINEGEN
 70
     0
  9
$PSLTSCALE
 70
     0
  0
ENDSEC
  0
SECTION
  2
TABLES
  0
TABLE
  2
VPORT
 70
     1
  0
VPORT
  2
*ACTIVE
 70
     0
 10
0.0
 20
0.0
 11
1.0
 21
1.0
 12
45.891581903340253
 22
36.15931764219016
 13
0.0
 23
0.0
 14
10.0
 24
10.0
 15
10.0
 25
10.0
 16
0.0
 26
0.0
 36
1.0
 17
0.0
 27
0.0
 37
0.0
 40
75.946862949646032
 41
1.7454798331015291
 42
50.0
 43
0.0
 44
0.0
 50
0.0
 51
0.0
 71
     0
 72
   500
 73
     1
 74
     0
 75
     0
 76
     0
 77
     0
 78
     0
  0
ENDTAB
  0
TABLE
  2
LTYPE
 70
     4
  0
LTYPE
  2
CONTINUOUS
 70
     0
  3
Solid Line
 72
    65
 73
     0
 40
0.0
  0
LTYPE
  2
CENTER
 70
     0
  3
____ _ ____ _ ____ _ ____ _ ____ _ ____ _ ____
 72
    65
 73
     4
 40
2.0
 49
1.25
 49
-0.25
 49
0.25
 49
-0.25
  0
LTYPE
  2
PHANTOM
 70
     0
  3
_____ _ _ _____ _ _ _____ _ _ _____ _ _ ____
 72
    65
 73
     6
 40
2.5
 49
1.25
 49
-0.25
 49
0.25
 49
-0.25
 49
0.25
 49
-0.25
  0
LTYPE
  2
PHANTOM2
 70
     0
  3
___ _ _ ___ _ _ ___ _ _ ___ _ _
 72
    65
 73
     6
 40
1.25
 49
0.625
 49
-0.125
 49
0.125
 49
-0.125
 49
0.125
 49
-0.125
  0
ENDTAB
  0
TABLE
  2
LAYER
 70
     5
  0
LAYER
  2
0
 70
     0
 62
     7
  6
CONTINUOUS
  0
LAYER
  2
1
 70
     0
 62
     1
  6
CENTER
  0
LAYER
  2
DEFPOINTS
 70
     0
 62
     7
  6
CONTINUOUS
  0
LAYER
  2
5
 70
     0
 62
     3
  6
PHANTOM
  0
LAYER
  2
3
 70
     0
 62
     3
  6
CONTINUOUS
  0
ENDTAB
  0
TABLE
  2
STYLE
 70
     2
  0
STYLE
  2
STANDARD
 70
     0
 40
0.0
 41
1.0
 50
0.0
 71
     0
 42
6.0
  3
TXT
  4
BIGFONT
  0
STYLE
  2
STANDARD1
 70
     0
 40
0.0
 41
1.0
 50
0.0
 71
     0
 42
3.0
  3
txt
  4

  0
ENDTAB
  0
TABLE
  2
VIEW
 70
     1
  0
VIEW
  2
ALL
 70
     0
 40
270.0
 10
213.25689075630251
 20
135.0
 41
0.0
 11
0.0
 21
0.0
 31
1.0
 12
0.0
 22
0.0
 32
0.0
 42
0.0
 43
0.0
 44
0.0
 50
0.0
 71
     0
  0
ENDTAB
  0
TABLE
  2
UCS
 70
     0
  0
ENDTAB
  0
TABLE
  2
APPID
 70
    13
  0
APPID
  2
ACAD
 70
     0
  0
APPID
  2
ACAD_EXEMPT_FROM_CAD_STANDARDS
 70
     0
  0
APPID
  2
ACAD_MLEADERVER
 70
     0
  0
APPID
  2
ACAD_DSTYLE_DIMJAG
 70
     0
  0
APPID
  2
ACAD_DSTYLE_DIMTALN
 70
     0
  0
APPID
  2
ACAD_PSEXT
 70
     0
  0
APPID
  2
ACAD_DSTYLE_DIMBREAK
 70
     0
  0
APPID
  2
ACAECLAYERSTANDARD
 70
     0
  0
APPID
  2
ACCMTRANSPARENCY
 70
     0
  0
APPID
  2
GRADIENTCOLOR1ACI
 70
     0
  0
APPID
  2
GRADIENTCOLOR2ACI
 70
     0
  0
APPID
  2
ACAD_DSTYLE_DIMRADIAL_EXTENSION
 70
     0
  0
APPID
  2
ACAD_NAV_VCDISPLAY
 70
     0
  0
ENDTAB
  0
TABLE
  2
DIMSTYLE
 70
     1
  0
DIMSTYLE
  2
STANDARD
 70
     0
  3

  4

  5

  6

  7

 40
1.0
 41
0.18
 42
0.0625
 43
0.38
 44
0.18
 45
0.0
 46
0.0
 47
0.0
 48
0.0
140
0.18
141
0.09
142
0.0
143
25.399999999999999
144
1.0
145
0.0
146
1.0
147
0.09
 71
     0
 72
     0
 73
     1
 74
     1
 75
     0
 76
     0
 77
     0
 78
     0
170
     0
171
     2
172
     0
173
     0
174
     0
175
     0
176
     0
177
     0
178
     0
  0
ENDTAB
  0
ENDSEC
  0
SECTION
  2
BLOCKS
  0
BLOCK
  8
0
  2
$MODEL_SPACE
 70
     0
 10
0.0
 20
0.0
 30
0.0
  3
$MODEL_SPACE
  1

  0
ENDBLK
  5
126
  8
0
  0
BLOCK
 67
     1
  8
0
  2
$PAPER_SPACE
 70
     0
 10
0.0
 20
0.0
 30
0.0
  3
$PAPER_SPACE
  1

  0
ENDBLK
  5
124
 67
     1
  8
0
  0
ENDSEC
  0
SECTION
  2
ENTITIES
  0
TEXT
  5
1DA32
  8
0
 62
     3
 10
0.0
 20
0.0
 30
0.0
 40
5.0
  1
CP132-06001A
  7
STANDARD1
  0
ARC
  5
1DBB8
  8
0
 10
26.5
 20
32.199999999999989
 30
0.0
 40
0.75
 50
270.0
 51
90.0
  0
LINE
  5
1DBB9
  8
0
 10
14.100000000000019
 20
36.0
 30
0.0
 11
14.100000000000019
 21
35.800000000000068
 31
0.0
  0
LINE
  5
1DBBA
  8
0
 10
25.900000000000031
 20
35.800000000000097
 30
0.0
 11
25.900000000000031
 21
36.0
 31
0.0
  0
LINE
  5
1DBBB
  8
0
 10
17.0
 20
27.300000000000011
 30
0.0
 11
17.0
 21
21.0
 31
0.0
  0
LINE
  5
1DBBC
  8
0
 10
23.000000000000028
 20
21.0
 30
0.0
 11
23.000000000000028
 21
27.300000000000011
 31
0.0
  0
LINE
  5
1DBBD
  8
0
 10
17.0
 20
21.0
 30
0.0
 11
18.0
 21
20.0
 31
0.0
  0
LINE
  5
1DBBE
  8
0
 10
22.0
 20
20.0
 30
0.0
 11
23.000000000000028
 21
21.0
 31
0.0
  0
LINE
  5
1DBBF
  8
0
 10
25.900000000000031
 20
27.300000000000011
 30
0.0
 11
25.900000000000031
 21
28.599999999999969
 31
0.0
  0
LINE
  5
1DBC0
  8
0
 10
14.100000000000019
 20
28.599999999999969
 30
0.0
 11
14.100000000000019
 21
27.300000000000011
 31
0.0
  0
ARC
  5
1DBC3
  8
0
 10
13.500000000000011
 20
32.200000000000017
 30
0.0
 40
0.7500000000000157
 50
89.976048459465005
 51
270.00333945450637
  0
LINE
  5
1DBC4
  8
0
 10
14.100000000000019
 20
36.0
 30
0.0
 11
25.900000000000031
 21
36.0
 31
0.0
  0
LINE
  5
1DBC5
  8
0
 10
19.69999999999996
 20
35.600000000000023
 30
0.0
 11
20.300000000000011
 21
35.600000000000023
 31
0.0
  0
LINE
  5
1DBC6
  8
0
 10
17.0
 20
21.0
 30
0.0
 11
23.000000000000028
 21
21.0
 31
0.0
  0
LINE
  5
1DBC7
  8
0
 10
22.0
 20
20.0
 30
0.0
 11
18.0
 21
20.0
 31
0.0
  0
LINE
  5
1DBC8
  8
0
 10
20.300000000000011
 20
28.800000000000011
 30
0.0
 11
19.69999999999996
 21
28.800000000000011
 31
0.0
  0
LINE
  5
1DBC9
  8
0
 10
20.300000000000011
 20
30.5
 30
0.0
 11
19.69999999999996
 21
30.5
 31
0.0
  0
LINE
  5
1DBCA
  8
0
 10
25.900000000000031
 20
27.300000000000011
 30
0.0
 11
14.100000000000019
 21
27.300000000000011
 31
0.0
  0
LINE
  5
1DBCB
  8
0
 10
19.69999999999996
 20
35.800000000000097
 30
0.0
 11
19.69999999999996
 21
32.950000000000053
 31
0.0
  0
LINE
  5
1DBCD
  8
0
 10
17.724871130596341
 20
35.800000000000097
 30
0.0
 11
17.724871130596341
 21
32.950000000000053
 31
0.0
  0
LINE
  5
1DBCF
  8
0
 10
27.500000000000171
 20
32.950000000000053
 30
0.0
 11
12.499999999999829
 21
32.950000000000053
 31
0.0
  0
LINE
  5
1DBD0
  8
0
 10
12.499999999999829
 20
32.950000000000053
 30
0.0
 11
12.499999999999829
 21
35.800000000000097
 31
0.0
  0
LINE
  5
1DBD1
  8
0
 10
12.499999999999829
 20
35.800000000000097
 30
0.0
 11
19.69999999999996
 21
35.800000000000118
 31
0.0
  0
LINE
  5
1DBD2
  8
0
 10
19.69999999999996
 20
31.450000000000049
 30
0.0
 11
19.69999999999996
 21
28.599999999999969
 31
0.0
  0
LINE
  5
1DBD4
  8
0
 10
17.724871130596341
 20
31.450000000000049
 30
0.0
 11
17.724871130596391
 21
28.599999999999969
 31
0.0
  0
LINE
  5
1DBD6
  8
0
 10
19.69999999999996
 20
28.599999999999969
 30
0.0
 11
12.499999999999829
 21
28.599999999999969
 31
0.0
  0
LINE
  5
1DBD7
  8
0
 10
12.499999999999829
 20
28.599999999999969
 30
0.0
 11
12.499999999999829
 21
31.450000000000049
 31
0.0
  0
LINE
  5
1DBD8
  8
0
 10
12.499999999999829
 20
31.450000000000049
 30
0.0
 11
27.500000000000171
 21
31.450000000000049
 31
0.0
  0
LINE
  5
1DBD9
  8
0
 10
20.300000000000011
 20
31.449999999999989
 30
0.0
 11
20.300000000000011
 21
28.599999999999941
 31
0.0
  0
LINE
  5
1DBDB
  8
0
 10
22.27512886940363
 20
28.599999999999941
 30
0.0
 11
22.275128869403598
 21
31.449999999999989
 31
0.0
  0
LINE
  5
1DBDD
  8
0
 10
27.500000000000171
 20
31.449999999999989
 30
0.0
 11
27.500000000000171
 21
28.599999999999941
 31
0.0
  0
LINE
  5
1DBDF
  8
0
 10
27.500000000000171
 20
28.599999999999941
 30
0.0
 11
20.300000000000011
 21
28.599999999999969
 31
0.0
  0
LINE
  5
1DBE1
  8
0
 10
22.27512886940363
 20
32.950000000000017
 30
0.0
 11
22.275128869403542
 21
35.800000000000068
 31
0.0
  0
LINE
  5
1DBE3
  8
0
 10
20.300000000000011
 20
35.800000000000068
 30
0.0
 11
20.300000000000011
 21
32.950000000000017
 31
0.0
  0
LINE
  5
1DBE4
  8
0
 10
27.500000000000171
 20
35.800000000000068
 30
0.0
 11
27.500000000000171
 21
32.950000000000017
 31
0.0
  0
LINE
  5
1DBE5
  8
0
 10
20.300000000000011
 20
35.800000000000068
 30
0.0
 11
27.500000000000171
 21
35.800000000000068
 31
0.0
  0
LINE
  5
1DBE7
  8
0
 10
20.300000000000011
 20
70.547202249831741
 30
0.0
 11
19.700000000000038
 21
70.547202249831741
 31
0.0
  0
LINE
  5
1DBE8
  8
0
 10
19.700000000000038
 20
56.252797750168241
 30
0.0
 11
20.300000000000011
 21
56.252797750168241
 31
0.0
  0
LINE
  5
1DBED
  8
0
 10
20.0
 20
65.709401076758496
 30
0.0
 11
18.0
 21
64.554700538379223
 31
0.0
  0
LINE
  5
1DBEE
  8
0
 10
18.0
 20
64.554700538379223
 30
0.0
 11
18.0
 21
62.245299461620732
 31
0.0
  0
LINE
  5
1DBEF
  8
0
 10
18.0
 20
62.245299461620732
 30
0.0
 11
20.0
 21
61.090598923241487
 31
0.0
  0
LINE
  5
1DBF0
  8
0
 10
20.0
 20
61.090598923241487
 30
0.0
 11
22.0
 21
62.245299461620732
 31
0.0
  0
LINE
  5
1DBF1
  8
0
 10
22.0
 20
62.245299461620732
 30
0.0
 11
22.0
 21
64.554700538379223
 31
0.0
  0
LINE
  5
1DBF2
  8
0
 10
22.0
 20
64.554700538379223
 30
0.0
 11
20.0
 21
65.709401076758496
 31
0.0
  0
CIRCLE
  5
1DBF3
  8
0
 10
20.0
 20
63.399999999999977
 30
0.0
 40
5.9000000000000048
  0
LINE
  5
1DBF4
  8
0
 10
17.724871130596512
 20
70.799999999999983
 30
0.0
 11
12.499999999999901
 21
69.399999999999963
 31
0.0
  0
LINE
  5
1DBF5
  8
0
 10
19.70000000000007
 20
70.799999999999983
 30
0.0
 11
17.724871130596512
 21
70.799999999999983
 31
0.0
  0
LINE
  5
1DBF6
  8
0
 10
19.70000000000007
 20
70.799999999999983
 30
0.0
 11
19.700000000000038
 21
69.292367945062466
 31
0.0
  0
ARC
  5
1DBF7
  8
0
 10
19.900000000000031
 20
63.399999999999949
 30
0.0
 40
6.0
 50
91.910213171709827
 51
268.08978682829019
  0
LINE
  5
1DBF8
  8
0
 10
19.699999999999989
 20
57.507632054937488
 30
0.0
 11
19.69999999999996
 21
55.999999999999972
 31
0.0
  0
LINE
  5
1DBF9
  8
0
 10
17.724871130596341
 20
55.999999999999943
 30
0.0
 11
19.69999999999996
 21
55.999999999999972
 31
0.0
  0
LINE
  5
1DBFA
  8
0
 10
12.49999999999981
 20
57.399999999999977
 30
0.0
 11
17.724871130596341
 21
55.999999999999943
 31
0.0
  0
LINE
  5
1DBFB
  8
0
 10
12.49999999999984
 20
61.400000000000041
 30
0.0
 11
12.49999999999981
 21
57.399999999999977
 31
0.0
  0
LINE
  5
1DBFC
  8
0
 10
12.49999999999984
 20
61.400000000000041
 30
0.0
 11
12.74999999999984
 21
61.649999999999999
 31
0.0
  0
LINE
  5
1DBFD
  8
0
 10
12.74999999999984
 20
61.649999999999999
 30
0.0
 11
12.74999999999987
 21
65.149999999999963
 31
0.0
  0
LINE
  5
1DBFE
  8
0
 10
12.74999999999987
 20
65.149999999999963
 30
0.0
 11
12.49999999999987
 21
65.400000000000034
 31
0.0
  0
LINE
  5
1DBFF
  8
0
 10
12.499999999999901
 20
69.399999999999963
 30
0.0
 11
12.49999999999987
 21
65.400000000000034
 31
0.0
  0
LINE
  5
1DC02
  8
0
 10
22.275128869403542
 20
56.0
 30
0.0
 11
27.500000000000171
 21
57.400000000000013
 31
0.0
  0
LINE
  5
1DC03
  8
0
 10
20.300000000000011
 20
56.0
 30
0.0
 11
22.275128869403542
 21
56.0
 31
0.0
  0
LINE
  5
1DC04
  8
0
 10
20.300000000000011
 20
56.0
 30
0.0
 11
20.300000000000011
 21
57.507632054937488
 31
0.0
  0
ARC
  5
1DC05
  8
0
 10
20.100000000000019
 20
63.399999999999977
 30
0.0
 40
5.9999999999999991
 50
271.91021317170981
 51
88.089786828290173
  0
LINE
  5
1DC06
  8
0
 10
20.300000000000011
 20
69.292367945062466
 30
0.0
 11
20.300000000000011
 21
70.800000000000011
 31
0.0
  0
LINE
  5
1DC07
  8
0
 10
22.27512886940363
 20
70.800000000000011
 30
0.0
 11
20.300000000000011
 21
70.800000000000011
 31
0.0
  0
LINE
  5
1DC08
  8
0
 10
27.500000000000171
 20
69.400000000000006
 30
0.0
 11
22.27512886940363
 21
70.800000000000011
 31
0.0
  0
LINE
  5
1DC09
  8
0
 10
27.500000000000171
 20
65.399999999999977
 30
0.0
 11
27.500000000000171
 21
69.400000000000006
 31
0.0
  0
LINE
  5
1DC0A
  8
0
 10
27.500000000000171
 20
65.399999999999977
 30
0.0
 11
27.250000000000171
 21
65.150000000000006
 31
0.0
  0
LINE
  5
1DC0B
  8
0
 10
27.250000000000171
 20
65.150000000000006
 30
0.0
 11
27.250000000000171
 21
61.649999999999999
 31
0.0
  0
LINE
  5
1DC0C
  8
0
 10
27.250000000000171
 20
61.649999999999999
 30
0.0
 11
27.500000000000171
 21
61.39999999999997
 31
0.0
  0
LINE
  5
1DC0D
  8
0
 10
27.500000000000171
 20
57.400000000000013
 30
0.0
 11
27.500000000000171
 21
61.39999999999997
 31
0.0
  0
LINE
  5
1DC10
  8
0
 10
49.000000000000142
 20
36.0
 30
0.0
 11
49.000000000000142
 21
35.800000000000068
 31
0.0
  0
LINE
  5
1DC11
  8
0
 10
60.800000000000161
 20
35.800000000000097
 30
0.0
 11
60.800000000000161
 21
36.0
 31
0.0
  0
LINE
  5
1DC12
  8
0
 10
51.900000000000183
 20
21.0
 30
0.0
 11
52.900000000000169
 21
20.0
 31
0.0
  0
LINE
  5
1DC13
  8
0
 10
56.900000000000183
 20
20.0
 30
0.0
 11
57.900000000000169
 21
21.0
 31
0.0
  0
LINE
  5
1DC14
  8
0
 10
51.900000000000183
 20
27.300000000000011
 30
0.0
 11
51.900000000000183
 21
21.0
 31
0.0
  0
LINE
  5
1DC15
  8
0
 10
57.900000000000169
 20
21.0
 30
0.0
 11
57.900000000000169
 21
27.300000000000011
 31
0.0
  0
LINE
  5
1DC16
  8
0
 10
60.800000000000161
 20
27.300000000000011
 30
0.0
 11
60.800000000000161
 21
28.599999999999969
 31
0.0
  0
LINE
  5
1DC17
  8
0
 10
49.000000000000142
 20
28.599999999999941
 30
0.0
 11
49.000000000000142
 21
27.300000000000011
 31
0.0
  0
ARC
  5
1DC18
  8
0
 10
48.502797750168412
 20
32.199999999999989
 30
0.0
 40
0.75
 50
89.999999999998366
 51
270.0000000000033
  0
ARC
  5
1DC19
  8
0
 10
61.297202249831912
 20
32.199999999999989
 30
0.0
 40
0.75
 50
270.0
 51
90.0
  0
LINE
  5
1DC1B
  8
0
 10
49.000000000000142
 20
36.0
 30
0.0
 11
60.800000000000161
 21
36.0
 31
0.0
  0
LINE
  5
1DC1C
  8
0
 10
51.900000000000183
 20
21.0
 30
0.0
 11
57.900000000000169
 21
21.0
 31
0.0
  0
LINE
  5
1DC1D
  8
0
 10
56.900000000000183
 20
20.0
 30
0.0
 11
52.900000000000169
 21
20.0
 31
0.0
  0
LINE
  5
1DC1E
  8
0
 10
60.800000000000161
 20
27.300000000000011
 30
0.0
 11
49.000000000000142
 21
27.300000000000011
 31
0.0
  0
LINE
  5
1DC1F
  8
0
 10
62.300000000000182
 20
31.450000000000049
 30
0.0
 11
62.300000000000153
 21
28.599999999999969
 31
0.0
  0
LINE
  5
1DC21
  8
0
 10
60.900000000000141
 20
28.599999999999969
 30
0.0
 11
60.900000000000141
 21
31.450000000000049
 31
0.0
  0
LINE
  5
1DC23
  8
0
 10
62.300000000000182
 20
35.800000000000097
 30
0.0
 11
62.300000000000182
 21
32.950000000000053
 31
0.0
  0
LINE
  5
1DC24
  8
0
 10
60.900000000000169
 20
32.950000000000053
 30
0.0
 11
60.900000000000169
 21
35.800000000000097
 31
0.0
  0
LINE
  5
1DC27
  8
0
 10
56.900000000000112
 20
28.599999999999941
 30
0.0
 11
56.900000000000148
 21
31.450000000000049
 31
0.0
  0
LINE
  5
1DC2A
  8
0
 10
56.900000000000148
 20
35.800000000000097
 30
0.0
 11
56.900000000000148
 21
32.950000000000053
 31
0.0
  0
LINE
  5
1DC2D
  8
0
 10
56.650000000000148
 20
28.599999999999941
 30
0.0
 11
56.650000000000148
 21
31.450000000000049
 31
0.0
  0
LINE
  5
1DC30
  8
0
 10
56.650000000000169
 20
32.950000000000053
 30
0.0
 11
56.650000000000169
 21
35.800000000000097
 31
0.0
  0
LINE
  5
1DC33
  8
0
 10
48.900000000000183
 20
31.449999999999989
 30
0.0
 11
48.900000000000183
 21
28.599999999999941
 31
0.0
  0
LINE
  5
1DC34
  8
0
 10
52.900000000000119
 20
28.599999999999941
 30
0.0
 11
52.900000000000148
 21
31.450000000000021
 31
0.0
  0
LINE
  5
1DC37
  8
0
 10
48.900000000000183
 20
35.800000000000068
 30
0.0
 11
48.900000000000183
 21
32.950000000000017
 31
0.0
  0
LINE
  5
1DC38
  8
0
 10
52.900000000000148
 20
32.950000000000053
 30
0.0
 11
52.900000000000148
 21
35.800000000000097
 31
0.0
  0
LINE
  5
1DC3B
  8
0
 10
53.150000000000183
 20
32.950000000000053
 30
0.0
 11
53.150000000000183
 21
35.800000000000097
 31
0.0
  0
LINE
  5
1DC3E
  8
0
 10
53.150000000000148
 20
28.599999999999941
 30
0.0
 11
53.150000000000183
 21
31.450000000000021
 31
0.0
  0
LINE
  5
1DC41
  8
0
 10
47.500000000000199
 20
32.950000000000017
 30
0.0
 11
47.500000000000199
 21
35.800000000000068
 31
0.0
  0
LINE
  5
1DC42
  8
0
 10
47.500000000000199
 20
35.800000000000068
 30
0.0
 11
62.300000000000182
 21
35.800000000000068
 31
0.0
  0
LINE
  5
1DC43
  8
0
 10
62.300000000000182
 20
32.950000000000017
 30
0.0
 11
47.500000000000199
 21
32.950000000000017
 31
0.0
  0
LINE
  5
1DC44
  8
0
 10
47.500000000000142
 20
28.599999999999941
 30
0.0
 11
47.500000000000199
 21
31.449999999999989
 31
0.0
  0
LINE
  5
1DC45
  8
0
 10
62.300000000000153
 20
28.599999999999941
 30
0.0
 11
47.500000000000142
 21
28.599999999999941
 31
0.0
  0
LINE
  5
1DC46
  8
0
 10
47.500000000000199
 20
31.449999999999989
 30
0.0
 11
62.300000000000182
 21
31.449999999999989
 31
0.0
  0
ARC
  5
1DC4F
  8
5
 10
27.500000000000028
 20
31.199999999999989
 30
0.0
 40
0.75
 50
270.0
 51
90.0
  0
ARC
  5
1DC5A
  8
5
 10
12.50000000000005
 20
31.199999999999989
 30
0.0
 40
0.75
 50
89.979789588447574
 51
270.0
  0
LINE
  5
1DC61
  8
5
 10
12.792893218813431
 20
31.950000000000049
 30
0.0
 11
11.499999999999829
 21
31.950000000000049
 31
0.0
  0
LINE
  5
1DC62
  8
5
 10
11.499999999999829
 20
31.950000000000049
 30
0.0
 11
11.499999999999829
 21
34.800000000000132
 31
0.0
  0
LINE
  5
1DC63
  8
5
 10
11.499999999999829
 20
34.800000000000132
 30
0.0
 11
12.49999999999981
 21
34.800000000000132
 31
0.0
  0
LINE
  5
1DC68
  8
5
 10
14.100000000000019
 20
27.599999999999969
 30
0.0
 11
11.499999999999829
 21
27.599999999999969
 31
0.0
  0
LINE
  5
1DC69
  8
5
 10
11.499999999999829
 20
27.599999999999969
 30
0.0
 11
11.499999999999829
 21
30.450000000000021
 31
0.0
  0
LINE
  5
1DC6A
  8
5
 10
11.499999999999829
 20
30.450000000000021
 30
0.0
 11
12.499999999999829
 21
30.450000000000049
 31
0.0
  0
LINE
  5
1DC6F
  8
5
 10
28.500000000000259
 20
30.449999999999989
 30
0.0
 11
28.500000000000259
 21
27.599999999999909
 31
0.0
  0
LINE
  5
1DC70
  8
5
 10
27.500000000000171
 20
30.449999999999989
 30
0.0
 11
28.500000000000259
 21
30.449999999999989
 31
0.0
  0
LINE
  5
1DC71
  8
5
 10
28.500000000000259
 20
27.599999999999909
 30
0.0
 11
25.900000000000031
 21
27.599999999999909
 31
0.0
  0
LINE
  5
1DC76
  8
5
 10
28.500000000000259
 20
34.800000000000132
 30
0.0
 11
28.500000000000259
 21
31.949999999999989
 31
0.0
  0
LINE
  5
1DC77
  8
5
 10
27.500000000000171
 20
34.800000000000132
 30
0.0
 11
28.500000000000259
 21
34.800000000000132
 31
0.0
  0
LINE
  5
1DC78
  8
5
 10
28.500000000000259
 20
31.949999999999989
 30
0.0
 11
27.20710678118655
 21
31.949999999999989
 31
0.0
  0
LINE
  5
1DC86
  8
5
 10
16.724871130596512
 20
70.799999999999983
 30
0.0
 11
11.49999999999984
 21
69.400000000000006
 31
0.0
  0
LINE
  5
1DC87
  8
5
 10
17.72487113059654
 20
70.799999999999983
 30
0.0
 11
16.724871130596512
 21
70.799999999999983
 31
0.0
  0
LINE
  5
1DC8B
  8
5
 10
16.724871130596341
 20
55.999999999999943
 30
0.0
 11
17.724871130596341
 21
55.999999999999943
 31
0.0
  0
LINE
  5
1DC8C
  8
5
 10
11.49999999999976
 20
57.399999999999977
 30
0.0
 11
16.724871130596341
 21
55.999999999999943
 31
0.0
  0
LINE
  5
1DC8D
  8
5
 10
11.49999999999979
 20
61.400000000000041
 30
0.0
 11
11.49999999999976
 21
57.399999999999977
 31
0.0
  0
LINE
  5
1DC8E
  8
5
 10
11.49999999999979
 20
61.400000000000041
 30
0.0
 11
11.74999999999978
 21
61.649999999999999
 31
0.0
  0
LINE
  5
1DC8F
  8
5
 10
11.74999999999978
 20
61.649999999999999
 30
0.0
 11
11.74999999999981
 21
65.149999999999963
 31
0.0
  0
LINE
  5
1DC90
  8
5
 10
11.74999999999981
 20
65.149999999999963
 30
0.0
 11
11.49999999999981
 21
65.400000000000034
 31
0.0
  0
LINE
  5
1DC91
  8
5
 10
11.49999999999984
 20
69.400000000000006
 30
0.0
 11
11.49999999999981
 21
65.400000000000034
 31
0.0
  0
LINE
  5
1DC94
  8
5
 10
23.275128869403542
 20
56.000000000000028
 30
0.0
 11
28.500000000000231
 21
57.400000000000027
 31
0.0
  0
LINE
  5
1DC95
  8
5
 10
22.275128869403598
 20
56.000000000000028
 30
0.0
 11
23.275128869403542
 21
56.000000000000028
 31
0.0
  0
LINE
  5
1DC99
  8
5
 10
23.275128869403598
 20
70.80000000000004
 30
0.0
 11
22.27512886940346
 21
70.800000000000068
 31
0.0
  0
LINE
  5
1DC9A
  8
5
 10
28.500000000000231
 20
69.400000000000006
 30
0.0
 11
23.275128869403598
 21
70.80000000000004
 31
0.0
  0
LINE
  5
1DC9B
  8
5
 10
28.500000000000231
 20
65.399999999999977
 30
0.0
 11
28.500000000000231
 21
69.400000000000006
 31
0.0
  0
LINE
  5
1DC9C
  8
5
 10
28.500000000000231
 20
65.399999999999977
 30
0.0
 11
28.250000000000231
 21
65.150000000000006
 31
0.0
  0
LINE
  5
1DC9D
  8
5
 10
28.250000000000231
 20
65.150000000000006
 30
0.0
 11
28.250000000000231
 21
61.649999999999999
 31
0.0
  0
LINE
  5
1DC9E
  8
5
 10
28.250000000000231
 20
61.649999999999999
 30
0.0
 11
28.500000000000231
 21
61.39999999999997
 31
0.0
  0
LINE
  5
1DC9F
  8
5
 10
28.500000000000231
 20
57.400000000000027
 30
0.0
 11
28.500000000000231
 21
61.39999999999997
 31
0.0
  0
ARC
  5
1DCAA
  8
5
 10
48.502797750168469
 20
31.199999999999989
 30
0.0
 40
0.75
 50
90.000000000004874
 51
269.99999999999682
  0
ARC
  5
1DCAB
  8
5
 10
61.297202249831876
 20
31.199999999999989
 30
0.0
 40
0.75
 50
270.0
 51
90.0
  0
LINE
  5
1DCAD
  8
5
 10
62.300000000000182
 20
30.450000000000021
 30
0.0
 11
62.300000000000118
 21
27.599999999999969
 31
0.0
  0
LINE
  5
1DCAE
  8
5
 10
62.300000000000118
 20
27.599999999999969
 30
0.0
 11
60.900000000000141
 21
27.599999999999969
 31
0.0
  0
LINE
  5
1DCB0
  8
5
 10
60.900000000000141
 20
30.450000000000021
 30
0.0
 11
62.300000000000182
 21
30.450000000000021
 31
0.0
  0
LINE
  5
1DCB1
  8
5
 10
62.300000000000239
 20
34.800000000000132
 30
0.0
 11
62.300000000000182
 21
31.950000000000049
 31
0.0
  0
LINE
  5
1DCB3
  8
5
 10
60.900000000000169
 20
34.800000000000132
 30
0.0
 11
62.300000000000239
 21
34.800000000000132
 31
0.0
  0
LINE
  5
1DCB4
  8
5
 10
62.300000000000182
 20
31.950000000000049
 30
0.0
 11
60.900000000000169
 21
31.950000000000049
 31
0.0
  0
LINE
  5
1DCCF
  8
5
 10
47.500000000000163
 20
31.949999999999989
 30
0.0
 11
47.500000000000163
 21
34.800000000000132
 31
0.0
  0
LINE
  5
1DCD0
  8
5
 10
47.500000000000163
 20
34.800000000000132
 30
0.0
 11
48.900000000000183
 21
34.800000000000132
 31
0.0
  0
LINE
  5
1DCD1
  8
5
 10
48.900000000000183
 20
31.949999999999989
 30
0.0
 11
47.500000000000163
 21
31.949999999999989
 31
0.0
  0
LINE
  5
1DCD2
  8
5
 10
47.500000000000142
 20
27.599999999999909
 30
0.0
 11
47.500000000000163
 21
30.44999999999996
 31
0.0
  0
LINE
  5
1DCD3
  8
5
 10
48.900000000000141
 20
27.599999999999909
 30
0.0
 11
47.500000000000142
 21
27.599999999999909
 31
0.0
  0
LINE
  5
1DCD4
  8
5
 10
47.500000000000163
 20
30.44999999999996
 30
0.0
 11
48.900000000000141
 21
30.449999999999989
 31
0.0
  0
LINE
  5
1E44C
  8
1
 10
20.0
 20
73.800000000000011
 30
0.0
 11
20.0
 21
53.0
 31
0.0
  0
LINE
  5
1E44D
  8
1
 10
30.500000000000171
 20
63.399999999999977
 30
0.0
 11
9.4999999999998863
 21
63.399999999999977
 31
0.0
  0
LINE
  5
1E454
  8
1
 10
20.0
 20
39.0
 30
0.0
 11
20.0
 21
15.000000000000011
 31
0.0
  0
LINE
  5
1E45E
  8
3
 10
22.458500000000068
 20
20.458500000000011
 30
0.0
 11
22.458500000000068
 21
27.300000000000011
 31
0.0
  0
LINE
  5
1E45F
  8
3
 10
17.541499999999932
 20
20.458500000000068
 30
0.0
 11
17.541499999999932
 21
27.300000000000011
 31
0.0
  0
LINE
  5
1E461
  8
1
 10
54.900000000000169
 20
39.0
 30
0.0
 11
54.900000000000169
 21
15.000000000000011
 31
0.0
  0
LINE
  5
1E462
  8
3
 10
57.358500000000241
 20
20.458500000000011
 30
0.0
 11
57.358500000000241
 21
27.300000000000011
 31
0.0
  0
LINE
  5
1E463
  8
3
 10
52.441500000000097
 20
20.458500000000068
 30
0.0
 11
52.441500000000097
 21
27.300000000000011
 31
0.0
  0
LINE
  5
1F6C6
  8
5
 10
17.000000000000028
 20
20.999999999999972
 30
0.0
 11
17.000000000000028
 21
19.000000000000021
 31
0.0
  0
LINE
  5
1F6C7
  8
5
 10
23.00000000000006
 20
19.000000000000021
 30
0.0
 11
23.00000000000006
 21
21.000000000000028
 31
0.0
  0
LINE
  5
1F6C8
  8
5
 10
17.000000000000028
 20
19.000000000000021
 30
0.0
 11
18.000000000000028
 21
18.000000000000021
 31
0.0
  0
LINE
  5
1F6C9
  8
5
 10
22.000000000000028
 20
18.000000000000021
 30
0.0
 11
23.00000000000006
 21
19.000000000000021
 31
0.0
  0
LINE
  5
1F6CA
  8
5
 10
17.000000000000028
 20
19.000000000000021
 30
0.0
 11
23.00000000000006
 21
19.000000000000021
 31
0.0
  0
LINE
  5
1F6CB
  8
5
 10
22.000000000000028
 20
18.000000000000021
 30
0.0
 11
18.000000000000028
 21
18.000000000000021
 31
0.0
  0
LINE
  5
1F6CC
  8
5
 10
22.4585000000001
 20
18.458500000000029
 30
0.0
 11
22.458500000000111
 21
20.45850000000009
 31
0.0
  0
LINE
  5
1F6CD
  8
5
 10
17.541499999999949
 20
18.45850000000009
 30
0.0
 11
17.541499999999949
 21
20.458500000000051
 31
0.0
  0
LINE
  5
1F6D5
  8
5
 10
51.900000000000198
 20
20.999999999999972
 30
0.0
 11
51.900000000000198
 21
19.000000000000021
 31
0.0
  0
LINE
  5
1F6D6
  8
5
 10
57.90000000000024
 20
19.000000000000021
 30
0.0
 11
57.90000000000024
 21
21.000000000000028
 31
0.0
  0
LINE
  5
1F6D7
  8
5
 10
51.900000000000198
 20
19.000000000000021
 30
0.0
 11
52.900000000000198
 21
18.000000000000021
 31
0.0
  0
LINE
  5
1F6D8
  8
5
 10
56.900000000000198
 20
18.000000000000021
 30
0.0
 11
57.90000000000024
 21
19.000000000000021
 31
0.0
  0
LINE
  5
1F6D9
  8
5
 10
51.900000000000198
 20
19.000000000000021
 30
0.0
 11
57.90000000000024
 21
19.000000000000021
 31
0.0
  0
LINE
  5
1F6DA
  8
5
 10
56.900000000000198
 20
18.000000000000021
 30
0.0
 11
52.900000000000198
 21
18.000000000000021
 31
0.0
  0
LINE
  5
1F6DB
  8
5
 10
57.358500000000269
 20
18.458500000000029
 30
0.0
 11
57.358500000000269
 21
20.45850000000009
 31
0.0
  0
LINE
  5
1F6DC
  8
5
 10
52.441500000000133
 20
18.45850000000009
 30
0.0
 11
52.441500000000133
 21
20.458500000000051
 31
0.0
  0
ENDSEC
  0
EOF
