  0
SECTION
  2
HEADER
  9
$ACADVER
  1
AC1009
  9
$INSBASE
 10
798.67572335528303
 20
137.84630522417569
 30
0.0
  9
$EXTMIN
 10
0.0
 20
-2.960436562073669
 30
0.0
  9
$EXTMAX
 10
189.52223646159641
 20
151.4373752076479
 30
0.0
  9
$LIMMIN
 10
0.0
 20
0.0
  9
$LIMMAX
 10
375.0
 20
270.0
  9
$ORTHOMODE
 70
     0
  9
$REGENMODE
 70
     1
  9
$FILLMODE
 70
     1
  9
$QTEXTMODE
 70
     0
  9
$MIRRTEXT
 70
     0
  9
$DRAGMODE
 70
     2
  9
$LTSCALE
 40
5.0
  9
$OSMODE
 70
  3071
  9
$ATTMODE
 70
     1
  9
$TEXTSIZE
 40
0.2
  9
$TRACEWID
 40
0.05
  9
$TEXTSTYLE
  7
STANDARD
  9
$CLAYER
  8
0
  9
$CELTYPE
  6
BYLAYER
  9
$CECOLOR
 62
   256
  9
$DIMSCALE
 40
1.0
  9
$DIMASZ
 40
3.0
  9
$DIMEXO
 40
2.0
  9
$DIMDLI
 40
0.38
  9
$DIMRND
 40
0.0
  9
$DIMDLE
 40
0.0
  9
$DIMEXE
 40
2.0
  9
$DIMTP
 40
0.0
  9
$DIMTM
 40
0.0
  9
$DIMTXT
 40
3.2000000000000002
  9
$DIMCEN
 40
0.0
  9
$DIMTSZ
 40
0.0
  9
$DIMTOL
 70
     0
  9
$DIMLIM
 70
     0
  9
$DIMTIH
 70
     0
  9
$DIMTOH
 70
     0
  9
$DIMSE1
 70
     0
  9
$DIMSE2
 70
     0
  9
$DIMTAD
 70
     1
  9
$DIMZIN
 70
     0
  9
$DIMBLK
  1

  9
$DIMASO
 70
     0
  9
$DIMSHO
 70
     0
  9
$DIMPOST
  1

  9
$DIMAPOST
  1

  9
$DIMALT
 70
     0
  9
$DIMALTD
 70
     2
  9
$DIMALTF
 40
25.399999999999999
  9
$DIMLFAC
 40
1.0
  9
$DIMTOFL
 70
     1
  9
$DIMTVP
 40
1.6000000000000001
  9
$DIMTIX
 70
     1
  9
$DIMSOXD
 70
     0
  9
$DIMSAH
 70
     0
  9
$DIMBLK1
  1

  9
$DIMBLK2
  1

  9
$DIMSTYLE
  2
STANDARD
  9
$DIMCLRD
 70
     0
  9
$DIMCLRE
 70
     0
  9
$DIMCLRT
 70
     0
  9
$DIMTFAC
 40
1.0
  9
$DIMGAP
 40
0.09
  9
$LUNITS
 70
     2
  9
$LUPREC
 70
     4
  9
$SKETCHINC
 40
0.1
  9
$FILLETRAD
 40
0.0
  9
$AUNITS
 70
     0
  9
$AUPREC
 70
     4
  9
$MENU
  1
E:\r13\win\SUPPORT\ACAD
  9
$ELEVATION
 40
0.0
  9
$PELEVATION
 40
0.0
  9
$THICKNESS
 40
0.0
  9
$LIMCHECK
 70
     0
  9
$BLIPMODE
 70
     0
  9
$CHAMFERA
 40
0.0
  9
$CHAMFERB
 40
0.0
  9
$SKPOLY
 70
     0
  9
$TDCREATE
 40
2449840.6513888892
  9
$TDUPDATE
 40
2456598.4973926279
  9
$TDINDWG
 40
0.231969456
  9
$TDUSRTIMER
 40
0.231969456
  9
$USRTIMER
 70
     1
  9
$ANGBASE
 50
0.0
  9
$ANGDIR
 70
     0
  9
$PDMODE
 70
     0
  9
$PDSIZE
 40
0.0
  9
$PLINEWID
 40
0.0
  9
$COORDS
 70
     1
  9
$SPLFRAME
 70
     0
  9
$SPLINETYPE
 70
     6
  9
$SPLINESEGS
 70
     8
  9
$ATTDIA
 70
     0
  9
$ATTREQ
 70
     1
  9
$HANDLING
 70
     1
  9
$HANDSEED
  5
5AF
  9
$SURFTAB1
 70
     6
  9
$SURFTAB2
 70
     6
  9
$SURFTYPE
 70
     6
  9
$SURFU
 70
     6
  9
$SURFV
 70
     6
  9
$UCSNAME
  2

  9
$UCSORG
 10
0.0
 20
0.0
 30
0.0
  9
$UCSXDIR
 10
1.0
 20
0.0
 30
0.0
  9
$UCSYDIR
 10
0.0
 20
1.0
 30
0.0
  9
$PUCSNAME
  2

  9
$PUCSORG
 10
0.0
 20
0.0
 30
0.0
  9
$PUCSXDIR
 10
1.0
 20
0.0
 30
0.0
  9
$PUCSYDIR
 10
0.0
 20
1.0
 30
0.0
  9
$USERI1
 70
     0
  9
$USERI2
 70
     1
  9
$USERI3
 70
     0
  9
$USERI4
 70
     0
  9
$USERI5
 70
     0
  9
$USERR1
 40
0.0
  9
$USERR2
 40
0.0
  9
$USERR3
 40
0.0
  9
$USERR4
 40
0.0
  9
$USERR5
 40
0.0
  9
$WORLDVIEW
 70
     1
  9
$SHADEDGE
 70
     3
  9
$SHADEDIF
 70
    70
  9
$TILEMODE
 70
     1
  9
$MAXACTVP
 70
    16
  9
$PLIMCHECK
 70
     0
  9
$PEXTMIN
 10
1.0000000000000000E+020
 20
1.0000000000000000E+020
 30
1.0000000000000000E+020
  9
$PEXTMAX
 10
-1.0000000000000000E+020
 20
-1.0000000000000000E+020
 30
-1.0000000000000000E+020
  9
$PLIMMIN
 10
0.0
 20
0.0
  9
$PLIMMAX
 10
12.0
 20
9.0
  9
$UNITMODE
 70
     0
  9
$VISRETAIN
 70
     0
  9
$PLINEGEN
 70
     0
  9
$PSLTSCALE
 70
     0
  0
ENDSEC
  0
SECTION
  2
TABLES
  0
TABLE
  2
VPORT
 70
     1
  0
VPORT
  2
*ACTIVE
 70
     0
 10
0.0
 20
0.0
 11
1.0
 21
1.0
 12
195.0581083320873
 22
133.5127261426681
 13
0.0
 23
0.0
 14
5.0
 24
5.0
 15
10.0
 25
10.0
 16
0.0
 26
0.0
 36
1.0
 17
0.0
 27
0.0
 37
0.0
 40
275.42274993631997
 41
1.831871345029239
 42
50.0
 43
0.0
 44
0.0
 50
0.0
 51
0.0
 71
     0
 72
   500
 73
     1
 74
     0
 75
     0
 76
     0
 77
     0
 78
     2
  0
ENDTAB
  0
TABLE
  2
LTYPE
 70
     4
  0
LTYPE
  2
CONTINUOUS
 70
     0
  3
Solid Line
 72
    65
 73
     0
 40
0.0
  0
LTYPE
  2
CENTER
 70
     0
  3
____ _ ____ _ ____ _ ____ _ ____ _ ____ _ ____
 72
    65
 73
     4
 40
2.0
 49
1.25
 49
-0.25
 49
0.25
 49
-0.25
  0
LTYPE
  2
HIDDEN
 70
     0
  3
_ _ _ _ _ _ _ _ _ _ _ _ _ _ _ _ _ _ _ _ _ _ _
 72
    65
 73
     2
 40
0.375
 49
0.25
 49
-0.125
  0
LTYPE
  2
PHANTOM2
 70
     0
  3
Phantom (.5x) ___ _ _ ___ _ _ ___ _ _ ___ _ _
 72
    65
 73
     6
 40
1.25
 49
0.625
 49
-0.125
 49
0.125
 49
-0.125
 49
0.125
 49
-0.125
  0
ENDTAB
  0
TABLE
  2
LAYER
 70
     4
  0
LAYER
  2
0
 70
     0
 62
     7
  6
CONTINUOUS
  0
LAYER
  2
1
 70
     0
 62
     1
  6
CENTER
  0
LAYER
  2
2
 70
     0
 62
     2
  6
HIDDEN
  0
LAYER
  2
5
 70
     0
 62
     3
  6
PHANTOM2
  0
ENDTAB
  0
TABLE
  2
STYLE
 70
     2
  0
STYLE
  2
STANDARD
 70
     0
 40
0.0
 41
1.0
 50
0.0
 71
     0
 42
0.2
  3
TXT
  4
BIGFONT
  0
STYLE
  2
STANDARD1
 70
     0
 40
0.0
 41
1.0
 50
0.0
 71
     0
 42
3.0
  3
txt
  4

  0
ENDTAB
  0
TABLE
  2
VIEW
 70
     1
  0
VIEW
  2
ALL
 70
     0
 40
270.0
 10
220.99159663865549
 20
135.0
 41
0.0
 11
0.0
 21
0.0
 31
1.0
 12
0.0
 22
0.0
 32
0.0
 42
0.0
 43
0.0
 44
0.0
 50
0.0
 71
     0
  0
ENDTAB
  0
TABLE
  2
UCS
 70
     0
  0
ENDTAB
  0
TABLE
  2
APPID
 70
     3
  0
APPID
  2
ACAD
 70
     0
  0
APPID
  2
ACAD_MLEADERVER
 70
     0
  0
APPID
  2
ACAD_NAV_VCDISPLAY
 70
     0
  0
ENDTAB
  0
TABLE
  2
DIMSTYLE
 70
     1
  0
DIMSTYLE
  2
STANDARD
 70
     0
  3

  4

  5

  6

  7

 40
1.0
 41
0.18
 42
0.0625
 43
0.38
 44
0.18
 45
0.0
 46
0.0
 47
0.0
 48
0.0
140
0.18
141
0.09
142
0.0
143
25.399999999999999
144
1.0
145
0.0
146
1.0
147
0.09
 71
     0
 72
     0
 73
     1
 74
     1
 75
     0
 76
     0
 77
     0
 78
     0
170
     0
171
     2
172
     0
173
     0
174
     0
175
     0
176
     0
177
     0
178
     0
  0
ENDTAB
  0
ENDSEC
  0
SECTION
  2
BLOCKS
  0
BLOCK
  8
0
  2
$MODEL_SPACE
 70
     0
 10
0.0
 20
0.0
 30
0.0
  3
$MODEL_SPACE
  1

  0
ENDBLK
  5
9
  8
0
  0
BLOCK
 67
     1
  8
0
  2
$PAPER_SPACE
 70
     0
 10
0.0
 20
0.0
 30
0.0
  3
$PAPER_SPACE
  1

  0
ENDBLK
  5
F
 67
     1
  8
0
  0
ENDSEC
  0
SECTION
  2
ENTITIES
  0
LINE
  5
43B
  8
0
 10
129.52223608906741
 20
121.4373748351193
 30
0.0
 11
54.522233108835188
 21
121.4373748351186
 31
0.0
  0
LINE
  5
43C
  8
0
 10
54.522233108835081
 20
146.4373752076479
 30
0.0
 11
129.52223608906741
 21
146.4373752076479
 31
0.0
  0
CIRCLE
  5
43D
  8
0
 10
92.022234598951314
 20
133.9373750213837
 30
0.0
 40
8.7500000372529012
  0
LINE
  5
43E
  8
1
 10
49.522233108835188
 20
133.93737502138359
 30
0.0
 11
134.52223608906741
 21
133.9373750213837
 31
0.0
  0
LINE
  5
43F
  8
1
 10
177.02223627533189
 20
91.437374835118973
 30
0.0
 11
177.02223627533209
 21
43.437376057014198
 31
0.0
  0
LINE
  5
440
  8
0
 10
164.52223608906741
 20
86.437374835118931
 30
0.0
 11
164.52223608906741
 21
48.437376057014149
 31
0.0
  0
LINE
  5
441
  8
0
 10
189.52223646159641
 20
48.437376057014149
 30
0.0
 11
164.52223608906741
 21
48.437376057014149
 31
0.0
  0
LINE
  5
442
  8
0
 10
189.52223646159641
 20
86.437374835118931
 30
0.0
 11
189.52223646159641
 21
48.437376057014149
 31
0.0
  0
LINE
  5
443
  8
0
 10
189.52223646159641
 20
86.437374835118931
 30
0.0
 11
164.52223608906741
 21
86.437374835118931
 31
0.0
  0
LINE
  5
444
  8
1
 10
92.022234598951314
 20
151.4373752076479
 30
0.0
 11
92.022234598951314
 21
116.4373748351189
 31
0.0
  0
CIRCLE
  5
445
  8
0
 10
92.022234598951314
 20
133.9373750213837
 30
0.0
 40
5.25
  0
LINE
  5
446
  8
0
 10
129.52223608906741
 20
146.4373752076483
 30
0.0
 11
129.52223608906741
 21
121.4373748351193
 31
0.0
  0
LINE
  5
447
  8
0
 10
98.022234651105379
 20
146.43737520764819
 30
0.0
 11
98.022234598951314
 21
140.30624462281219
 31
0.0
  0
LINE
  5
448
  8
0
 10
98.022234598951314
 20
127.5685054199552
 30
0.0
 11
98.022234651105379
 21
121.4373748351192
 31
0.0
  0
LINE
  5
449
  8
0
 10
125.5222354334163
 20
146.4373752076483
 30
0.0
 11
125.5222354334163
 21
121.4373748351193
 31
0.0
  0
LINE
  5
44A
  8
0
 10
54.522233108835081
 20
146.4373752076479
 30
0.0
 11
54.522233108835309
 21
121.4373748351188
 31
0.0
  0
LINE
  5
44B
  8
0
 10
86.02223454679725
 20
121.4373748351191
 30
0.0
 11
86.022234598951314
 21
127.5685054199551
 31
0.0
  0
LINE
  5
44C
  8
0
 10
86.022234598951314
 20
140.3062446228121
 30
0.0
 11
86.02223454679725
 21
146.4373752076481
 31
0.0
  0
LINE
  5
44D
  8
0
 10
58.522233764486167
 20
146.4373752076479
 30
0.0
 11
58.522233764486401
 21
121.4373748351188
 31
0.0
  0
LINE
  5
44E
  8
1
 10
92.022234598951542
 20
72.869644697655303
 30
0.0
 11
92.022234598951542
 21
43.437376057014149
 31
0.0
  0
LINE
  5
44F
  8
2
 10
97.272234528170799
 20
50.937376001134787
 30
0.0
 11
97.272234528170799
 21
55.937375889376078
 31
0.0
  0
LINE
  5
450
  8
2
 10
86.77223466973183
 20
55.937375889376078
 30
0.0
 11
86.77223466973183
 21
50.937376001134787
 31
0.0
  0
LINE
  5
451
  8
2
 10
100.7722345989513
 20
55.937376057014198
 30
0.0
 11
100.7722346362042
 21
72.14795659969775
 31
0.0
  0
LINE
  5
452
  8
2
 10
83.272234561698411
 20
72.14795659969775
 30
0.0
 11
83.272234598951314
 21
55.937376057014198
 31
0.0
  0
LINE
  5
453
  8
2
 10
83.272234598951314
 20
55.937376057014198
 30
0.0
 11
100.7722345989513
 21
55.937376057014198
 31
0.0
  0
LINE
  5
454
  8
0
 10
54.522233108835309
 20
86.437374835118931
 30
0.0
 11
58.522233764486401
 21
86.437374835118931
 31
0.0
  0
LINE
  5
455
  8
0
 10
98.022234651105379
 20
70.56024346242873
 30
0.0
 11
125.5222354334163
 21
86.437374835118931
 31
0.0
  0
LINE
  5
456
  8
0
 10
98.022234651105379
 20
70.56024346242873
 30
0.0
 11
98.022234651105379
 21
65.937376131519954
 31
0.0
  0
LINE
  5
457
  8
0
 10
98.022234651105379
 20
65.937376131519954
 30
0.0
 11
86.02223454679725
 21
65.937376131519954
 31
0.0
  0
LINE
  5
458
  8
0
 10
86.02223454679725
 20
65.937376131519954
 30
0.0
 11
86.02223454679725
 21
70.56024346242873
 31
0.0
  0
LINE
  5
459
  8
0
 10
58.522233764486401
 20
86.437374835118931
 30
0.0
 11
86.02223454679725
 21
70.56024346242873
 31
0.0
  0
LINE
  5
45A
  8
0
 10
54.522233108835309
 20
48.437376057014198
 30
0.0
 11
54.522233108835309
 21
86.437374835118931
 31
0.0
  0
LINE
  5
45B
  8
0
 10
82.522234904425119
 20
48.437376057014149
 30
0.0
 11
54.522233108835309
 21
48.437376057014198
 31
0.0
  0
LINE
  5
45C
  8
0
 10
82.522234904425119
 20
50.937376001134787
 30
0.0
 11
82.522234904425119
 21
48.437376057014149
 31
0.0
  0
LINE
  5
45D
  8
0
 10
101.5222342934775
 20
50.937376001134787
 30
0.0
 11
82.522234904425119
 21
50.937376001134787
 31
0.0
  0
LINE
  5
45E
  8
0
 10
101.5222342934775
 20
50.937376001134787
 30
0.0
 11
101.5222342934775
 21
48.437376057014149
 31
0.0
  0
LINE
  5
45F
  8
0
 10
129.52223608906741
 20
48.437376057014149
 30
0.0
 11
101.5222342934775
 21
48.437376057014149
 31
0.0
  0
LINE
  5
460
  8
0
 10
129.52223608906741
 20
86.437374835118931
 30
0.0
 11
129.52223608906741
 21
48.437376057014149
 31
0.0
  0
LINE
  5
461
  8
0
 10
125.5222354334163
 20
86.437374835118931
 30
0.0
 11
129.52223608906741
 21
86.437374835118931
 31
0.0
  0
LINE
  5
462
  8
5
 10
92.022234598951314
 20
67.096142039161734
 30
0.0
 11
98.022234598951314
 21
70.560243654299541
 31
0.0
  0
LINE
  5
463
  8
5
 10
86.022234598951314
 20
70.560243654299541
 30
0.0
 11
92.022234598951314
 21
67.096142039161734
 31
0.0
  0
TEXT
  5
51F
  8
0
 62
     3
 10
0.0
 20
0.0
 30
0.0
 40
10.0
  1
CP112-16001
  7
STANDARD1
  0
ENDSEC
  0
EOF
