  0
SECTION
  2
HEADER
  9
$ACADVER
  1
AC1009
  9
$INSBASE
 10
360.41591948990327
 20
27.605051712696309
 30
0.0
  9
$EXTMIN
 10
0.0
 20
-2.960436562073669
 30
0.0
  9
$EXTMAX
 10
219.1932772884596
 20
152.3582954374229
 30
0.0
  9
$LIMMIN
 10
0.0
 20
0.0
  9
$LIMMAX
 10
375.0
 20
270.0
  9
$ORTHOMODE
 70
     0
  9
$REGENMODE
 70
     1
  9
$FILLMODE
 70
     1
  9
$QTEXTMODE
 70
     0
  9
$MIRRTEXT
 70
     0
  9
$DRAGMODE
 70
     2
  9
$LTSCALE
 40
5.0
  9
$OSMODE
 70
  3071
  9
$ATTMODE
 70
     1
  9
$TEXTSIZE
 40
0.2
  9
$TRACEWID
 40
0.05
  9
$TEXTSTYLE
  7
STANDARD
  9
$CLAYER
  8
0
  9
$CELTYPE
  6
BYLAYER
  9
$CECOLOR
 62
   256
  9
$DIMSCALE
 40
1.0
  9
$DIMASZ
 40
3.0
  9
$DIMEXO
 40
2.0
  9
$DIMDLI
 40
0.38
  9
$DIMRND
 40
0.0
  9
$DIMDLE
 40
0.0
  9
$DIMEXE
 40
2.0
  9
$DIMTP
 40
0.0
  9
$DIMTM
 40
0.0
  9
$DIMTXT
 40
3.2000000000000002
  9
$DIMCEN
 40
0.0
  9
$DIMTSZ
 40
0.0
  9
$DIMTOL
 70
     0
  9
$DIMLIM
 70
     0
  9
$DIMTIH
 70
     0
  9
$DIMTOH
 70
     0
  9
$DIMSE1
 70
     0
  9
$DIMSE2
 70
     0
  9
$DIMTAD
 70
     1
  9
$DIMZIN
 70
     0
  9
$DIMBLK
  1

  9
$DIMASO
 70
     0
  9
$DIMSHO
 70
     0
  9
$DIMPOST
  1

  9
$DIMAPOST
  1

  9
$DIMALT
 70
     0
  9
$DIMALTD
 70
     2
  9
$DIMALTF
 40
25.399999999999999
  9
$DIMLFAC
 40
1.0
  9
$DIMTOFL
 70
     1
  9
$DIMTVP
 40
1.6000000000000001
  9
$DIMTIX
 70
     1
  9
$DIMSOXD
 70
     0
  9
$DIMSAH
 70
     0
  9
$DIMBLK1
  1

  9
$DIMBLK2
  1

  9
$DIMSTYLE
  2
STANDARD
  9
$DIMCLRD
 70
     0
  9
$DIMCLRE
 70
     0
  9
$DIMCLRT
 70
     0
  9
$DIMTFAC
 40
1.0
  9
$DIMGAP
 40
0.09
  9
$LUNITS
 70
     2
  9
$LUPREC
 70
     4
  9
$SKETCHINC
 40
0.1
  9
$FILLETRAD
 40
0.0
  9
$AUNITS
 70
     0
  9
$AUPREC
 70
     4
  9
$MENU
  1
E:\r13\win\SUPPORT\ACAD
  9
$ELEVATION
 40
0.0
  9
$PELEVATION
 40
0.0
  9
$THICKNESS
 40
0.0
  9
$LIMCHECK
 70
     0
  9
$BLIPMODE
 70
     0
  9
$CHAMFERA
 40
0.0
  9
$CHAMFERB
 40
0.0
  9
$SKPOLY
 70
     0
  9
$TDCREATE
 40
2449840.6513888892
  9
$TDUPDATE
 40
2456598.4965808559
  9
$TDINDWG
 40
0.3561639815
  9
$TDUSRTIMER
 40
0.3561639815
  9
$USRTIMER
 70
     1
  9
$ANGBASE
 50
0.0
  9
$ANGDIR
 70
     0
  9
$PDMODE
 70
     0
  9
$PDSIZE
 40
0.0
  9
$PLINEWID
 40
0.0
  9
$COORDS
 70
     1
  9
$SPLFRAME
 70
     0
  9
$SPLINETYPE
 70
     6
  9
$SPLINESEGS
 70
     8
  9
$ATTDIA
 70
     0
  9
$ATTREQ
 70
     1
  9
$HANDLING
 70
     1
  9
$HANDSEED
  5
3E6
  9
$SURFTAB1
 70
     6
  9
$SURFTAB2
 70
     6
  9
$SURFTYPE
 70
     6
  9
$SURFU
 70
     6
  9
$SURFV
 70
     6
  9
$UCSNAME
  2

  9
$UCSORG
 10
0.0
 20
0.0
 30
0.0
  9
$UCSXDIR
 10
1.0
 20
0.0
 30
0.0
  9
$UCSYDIR
 10
0.0
 20
1.0
 30
0.0
  9
$PUCSNAME
  2

  9
$PUCSORG
 10
0.0
 20
0.0
 30
0.0
  9
$PUCSXDIR
 10
1.0
 20
0.0
 30
0.0
  9
$PUCSYDIR
 10
0.0
 20
1.0
 30
0.0
  9
$USERI1
 70
     0
  9
$USERI2
 70
     1
  9
$USERI3
 70
     0
  9
$USERI4
 70
     0
  9
$USERI5
 70
     0
  9
$USERR1
 40
0.0
  9
$USERR2
 40
0.0
  9
$USERR3
 40
0.0
  9
$USERR4
 40
0.0
  9
$USERR5
 40
0.0
  9
$WORLDVIEW
 70
     1
  9
$SHADEDGE
 70
     3
  9
$SHADEDIF
 70
    70
  9
$TILEMODE
 70
     1
  9
$MAXACTVP
 70
    16
  9
$PLIMCHECK
 70
     0
  9
$PEXTMIN
 10
1.0000000000000000E+020
 20
1.0000000000000000E+020
 30
1.0000000000000000E+020
  9
$PEXTMAX
 10
-1.0000000000000000E+020
 20
-1.0000000000000000E+020
 30
-1.0000000000000000E+020
  9
$PLIMMIN
 10
0.0
 20
0.0
  9
$PLIMMAX
 10
12.0
 20
9.0
  9
$UNITMODE
 70
     0
  9
$VISRETAIN
 70
     0
  9
$PLINEGEN
 70
     0
  9
$PSLTSCALE
 70
     0
  0
ENDSEC
  0
SECTION
  2
TABLES
  0
TABLE
  2
VPORT
 70
     1
  0
VPORT
  2
*ACTIVE
 70
     0
 10
0.0
 20
0.0
 11
1.0
 21
1.0
 12
195.0581083320873
 22
133.5127261426681
 13
0.0
 23
0.0
 14
5.0
 24
5.0
 15
10.0
 25
10.0
 16
0.0
 26
0.0
 36
1.0
 17
0.0
 27
0.0
 37
0.0
 40
275.42274993631997
 41
1.831871345029239
 42
50.0
 43
0.0
 44
0.0
 50
0.0
 51
0.0
 71
     0
 72
   500
 73
     1
 74
     0
 75
     0
 76
     0
 77
     0
 78
     2
  0
ENDTAB
  0
TABLE
  2
LTYPE
 70
     4
  0
LTYPE
  2
CONTINUOUS
 70
     0
  3
Solid Line
 72
    65
 73
     0
 40
0.0
  0
LTYPE
  2
CENTER
 70
     0
  3
____ _ ____ _ ____ _ ____ _ ____ _ ____ _ ____
 72
    65
 73
     4
 40
2.0
 49
1.25
 49
-0.25
 49
0.25
 49
-0.25
  0
LTYPE
  2
HIDDEN
 70
     0
  3
_ _ _ _ _ _ _ _ _ _ _ _ _ _ _ _ _ _ _ _ _ _ _
 72
    65
 73
     2
 40
0.375
 49
0.25
 49
-0.125
  0
LTYPE
  2
PHANTOM2
 70
     0
  3
Phantom (.5x) ___ _ _ ___ _ _ ___ _ _ ___ _ _
 72
    65
 73
     6
 40
1.25
 49
0.625
 49
-0.125
 49
0.125
 49
-0.125
 49
0.125
 49
-0.125
  0
ENDTAB
  0
TABLE
  2
LAYER
 70
     5
  0
LAYER
  2
0
 70
     0
 62
     7
  6
CONTINUOUS
  0
LAYER
  2
1
 70
     0
 62
     1
  6
CENTER
  0
LAYER
  2
2
 70
     0
 62
     2
  6
HIDDEN
  0
LAYER
  2
5
 70
     0
 62
     3
  6
PHANTOM2
  0
LAYER
  2
3
 70
     0
 62
     3
  6
CONTINUOUS
  0
ENDTAB
  0
TABLE
  2
STYLE
 70
     2
  0
STYLE
  2
STANDARD
 70
     0
 40
0.0
 41
1.0
 50
0.0
 71
     0
 42
0.2
  3
TXT
  4
BIGFONT
  0
STYLE
  2
STANDARD1
 70
     0
 40
0.0
 41
1.0
 50
0.0
 71
     0
 42
3.0
  3
txt
  4

  0
ENDTAB
  0
TABLE
  2
VIEW
 70
     1
  0
VIEW
  2
ALL
 70
     0
 40
270.0
 10
220.99159663865549
 20
135.0
 41
0.0
 11
0.0
 21
0.0
 31
1.0
 12
0.0
 22
0.0
 32
0.0
 42
0.0
 43
0.0
 44
0.0
 50
0.0
 71
     0
  0
ENDTAB
  0
TABLE
  2
UCS
 70
     0
  0
ENDTAB
  0
TABLE
  2
APPID
 70
     3
  0
APPID
  2
ACAD
 70
     0
  0
APPID
  2
ACAD_MLEADERVER
 70
     0
  0
APPID
  2
ACAD_NAV_VCDISPLAY
 70
     0
  0
ENDTAB
  0
TABLE
  2
DIMSTYLE
 70
     1
  0
DIMSTYLE
  2
STANDARD
 70
     0
  3

  4

  5

  6

  7

 40
1.0
 41
0.18
 42
0.0625
 43
0.38
 44
0.18
 45
0.0
 46
0.0
 47
0.0
 48
0.0
140
0.18
141
0.09
142
0.0
143
25.399999999999999
144
1.0
145
0.0
146
1.0
147
0.09
 71
     0
 72
     0
 73
     1
 74
     1
 75
     0
 76
     0
 77
     0
 78
     0
170
     0
171
     2
172
     0
173
     0
174
     0
175
     0
176
     0
177
     0
178
     0
  0
ENDTAB
  0
ENDSEC
  0
SECTION
  2
BLOCKS
  0
BLOCK
  8
0
  2
$MODEL_SPACE
 70
     0
 10
0.0
 20
0.0
 30
0.0
  3
$MODEL_SPACE
  1

  0
ENDBLK
  5
9
  8
0
  0
BLOCK
 67
     1
  8
0
  2
$PAPER_SPACE
 70
     0
 10
0.0
 20
0.0
 30
0.0
  3
$PAPER_SPACE
  1

  0
ENDBLK
  5
F
 67
     1
  8
0
  0
BLOCK
  8
0
  2
*X0
 70
     1
 10
0.0
 20
0.0
 30
0.0
  3
*X0
  1

  0
LINE
  5
37C
  8
0
 62
     0
 10
60.193277288459342
 20
47.615443213701781
 30
0.0
 11
58.45753184592462
 21
49.351188656236502
 31
0.0
  0
LINE
  5
37D
  8
0
 62
     0
 10
60.193277288459342
 20
45.847676260735447
 30
0.0
 11
56.689764892958287
 21
49.351188656236502
 31
0.0
  0
LINE
  5
37E
  8
0
 62
     0
 10
60.193277288459342
 20
44.079909307769057
 30
0.0
 11
54.921997939991968
 21
49.351188656236502
 31
0.0
  0
LINE
  5
37F
  8
0
 62
     0
 10
60.193277288459342
 20
42.312142354802738
 30
0.0
 11
53.154230987025521
 21
49.351188656236502
 31
0.0
  0
LINE
  5
380
  8
0
 62
     0
 10
60.100344052542312
 20
40.637308637753392
 30
0.0
 11
51.386464034059202
 21
49.351188656236502
 31
0.0
  0
LINE
  5
381
  8
0
 62
     0
 10
58.911590299906258
 20
40.058295437423048
 30
0.0
 11
49.618697081092762
 21
49.351188656236502
 31
0.0
  0
LINE
  5
382
  8
0
 62
     0
 10
57.143823346939882
 20
40.058295437423048
 30
0.0
 11
48.693277288459342
 21
48.508841495903603
 31
0.0
  0
LINE
  5
383
  8
0
 62
     0
 10
55.376056393973442
 20
40.058295437423169
 30
0.0
 11
48.693277288459399
 21
46.74107454293727
 31
0.0
  0
LINE
  5
384
  8
0
 62
     0
 10
53.608289441007109
 20
40.058295437423048
 30
0.0
 11
48.693277288459278
 21
44.973307589970887
 31
0.0
  0
LINE
  5
385
  8
0
 62
     0
 10
51.840522488040783
 20
40.058295437423048
 30
0.0
 11
48.693277288459278
 21
43.20554063700456
 31
0.0
  0
LINE
  5
386
  8
0
 62
     0
 10
50.0727555350744
 20
40.058295437423048
 30
0.0
 11
48.693277288459228
 21
41.43777368403817
 31
0.0
  0
LINE
  5
387
  8
0
 62
     0
 10
36.693277288459399
 20
48.134472825138907
 30
0.0
 11
35.476561457361811
 21
49.351188656236502
 31
0.0
  0
LINE
  5
388
  8
0
 62
     0
 10
36.693277288459399
 20
46.366705872172588
 30
0.0
 11
33.708794504395492
 21
49.351188656236502
 31
0.0
  0
LINE
  5
389
  8
0
 62
     0
 10
36.693277288459463
 20
44.598938919206212
 30
0.0
 11
31.941027551429158
 21
49.351188656236559
 31
0.0
  0
LINE
  5
38A
  8
0
 62
     0
 10
36.693277288459399
 20
42.831171966239822
 30
0.0
 11
30.173260598462718
 21
49.351188656236502
 31
0.0
  0
LINE
  5
38B
  8
0
 62
     0
 10
36.693277288459463
 20
41.063405013273488
 30
0.0
 11
28.405493645496389
 21
49.351188656236502
 31
0.0
  0
LINE
  5
38C
  8
0
 62
     0
 10
35.930619911343399
 20
40.058295437423112
 30
0.0
 11
26.637726692530119
 21
49.351188656236388
 31
0.0
  0
LINE
  5
38D
  8
0
 62
     0
 10
34.162852958377073
 20
40.058295437423048
 30
0.0
 11
25.193277288459338
 21
49.02787110734085
 31
0.0
  0
LINE
  5
38E
  8
0
 62
     0
 10
32.39508600541069
 20
40.058295437423169
 30
0.0
 11
25.193277288459338
 21
47.260104154374453
 31
0.0
  0
LINE
  5
38F
  8
0
 62
     0
 10
30.627319052444371
 20
40.058295437423048
 30
0.0
 11
25.193277288459289
 21
45.49233720140807
 31
0.0
  0
LINE
  5
390
  8
0
 62
     0
 10
28.859552099477931
 20
40.058295437423112
 30
0.0
 11
25.193277288459338
 21
43.724570248441687
 31
0.0
  0
LINE
  5
391
  8
0
 62
     0
 10
27.09178514651154
 20
40.058295437423169
 30
0.0
 11
25.193277288459459
 21
41.956803295475297
 31
0.0
  0
ENDBLK
  5
393
  8
0
  0
BLOCK
  8
0
  2
*X1
 70
     1
 10
0.0
 20
0.0
 30
0.0
  3
*X1
  1

  0
LINE
  5
395
  8
0
 62
     0
 10
57.857829202441337
 20
40.058295437423048
 30
0.0
 11
60.193277288459512
 21
42.393743523441231
 31
0.0
  0
LINE
  5
396
  8
0
 62
     0
 10
56.09006224947489
 20
40.058295437423048
 30
0.0
 11
60.193277288459448
 21
44.161510476407607
 31
0.0
  0
LINE
  5
397
  8
0
 62
     0
 10
54.322295296508571
 20
40.058295437423112
 30
0.0
 11
60.193277288459448
 21
45.929277429373997
 31
0.0
  0
LINE
  5
398
  8
0
 62
     0
 10
52.554528343542238
 20
40.058295437423048
 30
0.0
 11
60.193277288459512
 21
47.697044382340323
 31
0.0
  0
LINE
  5
399
  8
0
 62
     0
 10
50.786761390575812
 20
40.058295437423048
 30
0.0
 11
60.079654609389188
 21
49.351188656236438
 31
0.0
  0
LINE
  5
39A
  8
0
 62
     0
 10
49.018994437609479
 20
40.058295437423048
 30
0.0
 11
58.311887656422918
 21
49.351188656236559
 31
0.0
  0
LINE
  5
39B
  8
0
 62
     0
 10
48.693277288459278
 20
41.500345241239238
 30
0.0
 11
56.544120703456421
 21
49.351188656236438
 31
0.0
  0
LINE
  5
39C
  8
0
 62
     0
 10
48.693277288459278
 20
43.268112194205621
 30
0.0
 11
54.776353750490102
 21
49.351188656236388
 31
0.0
  0
LINE
  5
39D
  8
0
 62
     0
 10
48.693277288459399
 20
45.035879147172118
 30
0.0
 11
53.00858679752384
 21
49.351188656236502
 31
0.0
  0
LINE
  5
39E
  8
0
 62
     0
 10
48.693277288459448
 20
46.803646100138501
 30
0.0
 11
51.240819844557343
 21
49.351188656236438
 31
0.0
  0
LINE
  5
39F
  8
0
 62
     0
 10
48.693277288459448
 20
48.571413053104891
 30
0.0
 11
49.473052891591067
 21
49.351188656236502
 31
0.0
  0
LINE
  5
3A0
  8
0
 62
     0
 10
36.644625766844847
 20
40.058295437423048
 30
0.0
 11
36.693277288459463
 21
40.1069469590376
 31
0.0
  0
LINE
  5
3A1
  8
0
 62
     0
 10
34.876858813878528
 20
40.058295437423112
 30
0.0
 11
36.693277288459463
 21
41.87471391200404
 31
0.0
  0
LINE
  5
3A2
  8
0
 62
     0
 10
33.109091860912088
 20
40.058295437423048
 30
0.0
 11
36.693277288459399
 21
43.642480864970359
 31
0.0
  0
LINE
  5
3A3
  8
0
 62
     0
 10
31.341324907945761
 20
40.058295437423048
 30
0.0
 11
36.693277288459463
 21
45.410247817936693
 31
0.0
  0
LINE
  5
3A4
  8
0
 62
     0
 10
29.573557954979439
 20
40.058295437423048
 30
0.0
 11
36.693277288459463
 21
47.178014770903133
 31
0.0
  0
LINE
  5
3A5
  8
0
 62
     0
 10
27.805791002013109
 20
40.058295437423112
 30
0.0
 11
36.766032038662672
 21
49.018536474072732
 31
0.0
  0
LINE
  5
3A6
  8
0
 62
     0
 10
26.048552152074201
 20
40.06882354045063
 30
0.0
 11
35.330917267860123
 21
49.351188656236559
 31
0.0
  0
LINE
  5
3A7
  8
0
 62
     0
 10
25.196035513987571
 20
40.98407385533028
 30
0.0
 11
33.56315031489379
 21
49.351188656236502
 31
0.0
  0
LINE
  5
3A8
  8
0
 62
     0
 10
25.193277288459399
 20
42.749082582768537
 30
0.0
 11
31.7953833619273
 21
49.351188656236438
 31
0.0
  0
LINE
  5
3A9
  8
0
 62
     0
 10
25.193277288459459
 20
44.516849535734927
 30
0.0
 11
30.02761640896102
 21
49.351188656236559
 31
0.0
  0
LINE
  5
3AA
  8
0
 62
     0
 10
25.193277288459399
 20
46.28461648870131
 30
0.0
 11
28.25984945599464
 21
49.351188656236502
 31
0.0
  0
LINE
  5
3AB
  8
0
 62
     0
 10
25.193277288459399
 20
48.052383441667637
 30
0.0
 11
26.492082503028261
 21
49.351188656236502
 31
0.0
  0
ENDBLK
  5
3AD
  8
0
  0
ENDSEC
  0
SECTION
  2
ENTITIES
  0
LINE
  5
1C6
  8
1
 10
132.1932772884594
 20
149.3582954374229
 30
0.0
 11
132.1932772884594
 21
120.3582954374229
 31
0.0
  0
CIRCLE
  5
1C7
  8
0
 10
132.1932772884594
 20
134.8582954374229
 30
0.0
 40
12.0
  0
CIRCLE
  5
1C8
  8
0
 10
132.1932772884594
 20
134.8582954374229
 30
0.0
 40
7.0
  0
LINE
  5
1C9
  8
1
 10
201.69327728845971
 20
20.358295437422949
 30
0.0
 11
201.69327728845971
 21
82.35829543742301
 31
0.0
  0
LINE
  5
1CA
  8
0
 10
205.6932772884596
 20
40.058295437422998
 30
0.0
 11
205.6932772884596
 21
30.058295437422998
 31
0.0
  0
LINE
  5
1CB
  8
0
 10
197.6932772884596
 20
30.058295437422998
 30
0.0
 11
197.6932772884596
 21
40.058295437422998
 31
0.0
  0
LINE
  5
1CC
  8
0
 10
213.6932772884596
 20
65.358295437422953
 30
0.0
 11
213.6932772884596
 21
63.058295437422998
 31
0.0
  0
LINE
  5
1CD
  8
0
 10
189.6932772884596
 20
63.058295437422998
 30
0.0
 11
189.6932772884596
 21
65.358295437422953
 31
0.0
  0
ARC
  5
1CE
  8
0
 10
218.1932772884596
 20
41.058295437422998
 30
0.0
 40
1.0
 50
270.0
 51
0.0
  0
LINE
  5
1CF
  8
0
 10
219.1932772884596
 20
41.058295437422998
 30
0.0
 11
219.1932772884596
 21
61.058295437422998
 31
0.0
  0
LINE
  5
1D0
  8
0
 10
185.1932772884596
 20
40.058295437422998
 30
0.0
 11
218.1932772884596
 21
40.058295437422998
 31
0.0
  0
LINE
  5
1D1
  8
0
 10
184.1932772884596
 20
61.058295437422998
 30
0.0
 11
184.1932772884596
 21
41.058295437422998
 31
0.0
  0
ARC
  5
1D2
  8
0
 10
185.1932772884596
 20
41.058295437422998
 30
0.0
 40
1.0
 50
180.0
 51
270.0
  0
ARC
  5
1D3
  8
0
 10
186.1932772884596
 20
61.058295437422998
 30
0.0
 40
2.0000000000000142
 50
90.0
 51
180.0
  0
LINE
  5
1D4
  8
0
 10
217.1932772884596
 20
63.058295437422998
 30
0.0
 11
186.1932772884596
 21
63.058295437422998
 31
0.0
  0
ARC
  5
1D5
  8
0
 10
217.1932772884596
 20
61.058295437422998
 30
0.0
 40
2.0000000000000142
 50
0.0
 51
90.0
  0
LINE
  5
1D6
  8
0
 10
197.6932772884596
 20
30.058295437422998
 30
0.0
 11
205.6932772884596
 21
30.058295437422998
 31
0.0
  0
LINE
  5
1D7
  8
0
 10
189.6932772884596
 20
65.358295437422953
 30
0.0
 11
213.6932772884596
 21
65.358295437422953
 31
0.0
  0
LINE
  5
1D8
  8
5
 10
195.6932772884596
 20
27.358295437422949
 30
0.0
 11
207.69327728845971
 21
27.35829543742307
 31
0.0
  0
LINE
  5
1D9
  8
5
 10
197.6932772884596
 20
25.358295437422949
 30
0.0
 11
195.6932772884596
 21
27.358295437422839
 31
0.0
  0
LINE
  5
1DA
  8
5
 10
195.69327728845951
 20
40.058295437422998
 30
0.0
 11
195.69327728845951
 21
27.3582954374229
 31
0.0
  0
LINE
  5
1DB
  8
5
 10
196.64027728845971
 20
40.058295437422998
 30
0.0
 11
196.64027728845971
 21
26.41129543742284
 31
0.0
  0
LINE
  5
1DC
  8
5
 10
197.6932772884596
 20
25.358295437422949
 30
0.0
 11
205.69327728845971
 21
25.358295437422949
 31
0.0
  0
LINE
  5
1DD
  8
5
 10
205.69327728845971
 20
25.358295437422949
 30
0.0
 11
207.69327728845971
 21
27.35829543742307
 31
0.0
  0
LINE
  5
1DE
  8
5
 10
206.74627728845979
 20
40.058295437422998
 30
0.0
 11
206.74627728845979
 21
26.41129543742295
 31
0.0
  0
LINE
  5
1DF
  8
5
 10
207.69327728845951
 20
40.058295437422998
 30
0.0
 11
207.69327728845991
 21
27.358295437422949
 31
0.0
  0
LINE
  5
1E0
  8
5
 10
210.6932772884596
 20
76.658295437423021
 30
0.0
 11
209.48084172316149
 21
77.358295437422953
 31
0.0
  0
LINE
  5
1E1
  8
5
 10
192.6932772884596
 20
76.658295437422893
 30
0.0
 11
193.90571285375779
 21
77.358295437422953
 31
0.0
  0
LINE
  5
1E2
  8
5
 10
210.6932772884596
 20
76.658295437422893
 30
0.0
 11
192.6932772884596
 21
76.658295437423021
 31
0.0
  0
LINE
  5
1E3
  8
5
 10
209.48084172316149
 20
77.358295437422953
 30
0.0
 11
193.90571285375779
 21
77.358295437422953
 31
0.0
  0
LINE
  5
1E4
  8
5
 10
192.6932772884596
 20
76.658295437422893
 30
0.0
 11
192.6932772884596
 21
65.358295437422953
 31
0.0
  0
LINE
  5
1E5
  8
5
 10
210.6932772884596
 20
65.358295437422953
 30
0.0
 11
210.6932772884596
 21
76.658295437422893
 31
0.0
  0
INSERT
  5
1E6
  8
3
  6
CONTINUOUS
  2
*X0
 10
0.0
 20
0.0
 30
0.0
1001
ACAD
1000
HATCH
1002
{
1070
    19
1000
ANSI31
1040
10.0
1040
1.5707963267948959
1000
R14_HATCH_DATA
1000
1E6
1011
1.0
1021
0.0
1031
0.0
1021
0.0
1031
0.0
1011
0.0
1021
0.0
1031
0.0
1021
1.0
1031
0.0
1011
0.0
1021
0.0
1031
0.0
1021
0.0
1031
1.0
1040
0.0
1010
0.0
1020
0.0
1030
1.0
1000
ANSI31
1070
     0
1070
     0
1071
        2
1071
        1
1071
        6
1070
     1
1040
36.693277288459399
1040
40.058295437423048
1040
26.193277288459399
1040
40.058295437423112
1070
     2
1040
26.193277288459399
1040
41.058295437423048
1040
1.0
1040
1.5707963267948959
1040
3.1415926535897931
1070
     0
1070
     1
1040
25.193277288459399
1040
41.058295437423048
1040
25.193277288459399
1040
49.351188656236502
1070
     1
1040
25.193277288459399
1040
49.351188656236502
1040
36.986170507272853
1040
49.351188656236502
1070
     2
1040
37.693277288459399
1040
48.644081875049949
1040
0.9999999999999786
1040
2.3561944901923439
1040
3.1415926535897931
1070
     1
1070
     1
1040
36.693277288459399
1040
48.644081875049949
1040
36.693277288459399
1040
40.058295437423048
1071
        0
1071
        1
1071
        6
1070
     2
1040
47.693277288459512
1040
48.644081875049999
1040
0.9999999999998792
1040
0.0000000000000142
1040
0.7853981633974785
1070
     1
1070
     1
1040
48.400384069645952
1040
49.351188656236502
1040
60.193277288459399
1040
49.351188656236502
1070
     1
1040
60.193277288459399
1040
49.351188656236502
1040
60.193277288459399
1040
41.058295437423048
1070
     2
1040
59.193277288459399
1040
41.058295437423048
1040
1.0
1040
6.2831853071795862
1040
7.8539816339744819
1070
     0
1070
     1
1040
59.193277288459399
1040
40.058295437423048
1040
48.693277288459278
1040
40.058295437423048
1070
     1
1040
48.693277288459278
1040
40.058295437423048
1040
48.693277288459399
1040
48.644081875049949
1071
        0
1070
     0
1070
     1
1040
1.5707963267948959
1040
10.0
1070
     0
1070
     1
1040
2.3561944901923439
1040
-718.54886607754531
1040
-174.19850879925821
1040
-0.8838834764831844
1040
-0.8838834764831842
1070
     0
1071
        1
1040
-718.54886607754531
1040
-174.19850879925821
1040
0.0
1002
}
  0
INSERT
  5
1E7
  8
3
  6
CONTINUOUS
  2
*X1
 10
0.0
 20
0.0
 30
0.0
1001
ACAD
1000
HATCH
1002
{
1070
    19
1000
ANSI31
1040
10.0
1040
0.0
1000
R14_HATCH_DATA
1000
1E7
1011
1.0
1021
0.0
1031
0.0
1021
0.0
1031
0.0
1011
0.0
1021
0.0
1031
0.0
1021
1.0
1031
0.0
1011
0.0
1021
0.0
1031
0.0
1021
0.0
1031
1.0
1040
0.0
1010
0.0
1020
0.0
1030
1.0
1000
ANSI31
1070
     0
1070
     0
1071
        2
1071
        1
1071
        6
1070
     1
1040
36.693277288459399
1040
40.058295437423048
1040
26.193277288459399
1040
40.058295437423112
1070
     2
1040
26.193277288459399
1040
41.058295437423048
1040
1.0
1040
1.5707963267948959
1040
3.1415926535897931
1070
     0
1070
     1
1040
25.193277288459399
1040
41.058295437423048
1040
25.193277288459399
1040
49.351188656236502
1070
     1
1040
25.193277288459399
1040
49.351188656236502
1040
36.986170507272853
1040
49.351188656236502
1070
     2
1040
37.693277288459399
1040
48.644081875049949
1040
0.9999999999999786
1040
2.3561944901923439
1040
3.1415926535897931
1070
     1
1070
     1
1040
36.693277288459399
1040
48.644081875049949
1040
36.693277288459399
1040
40.058295437423048
1071
        0
1071
        1
1071
        6
1070
     2
1040
47.693277288459512
1040
48.644081875049999
1040
0.9999999999998792
1040
0.0000000000000142
1040
0.7853981633974785
1070
     1
1070
     1
1040
48.400384069645952
1040
49.351188656236502
1040
60.193277288459399
1040
49.351188656236502
1070
     1
1040
60.193277288459399
1040
49.351188656236502
1040
60.193277288459399
1040
41.058295437423048
1070
     2
1040
59.193277288459399
1040
41.058295437423048
1040
1.0
1040
6.2831853071795862
1040
7.8539816339744819
1070
     0
1070
     1
1040
59.193277288459399
1040
40.058295437423048
1040
48.693277288459278
1040
40.058295437423048
1070
     1
1040
48.693277288459278
1040
40.058295437423048
1040
48.693277288459399
1040
48.644081875049949
1071
        0
1070
     0
1070
     1
1040
0.0
1040
10.0
1070
     0
1070
     1
1040
0.7853981633974483
1040
-718.54886607754531
1040
-174.19850879925821
1040
-0.8838834764831842
1040
0.8838834764831844
1070
     0
1071
        1
1040
-718.54886607754531
1040
-174.19850879925821
1040
0.0
1002
}
  0
LINE
  5
1E8
  8
5
 10
33.693277288459399
 20
65.35829543742301
 30
0.0
 11
33.693277288459399
 21
76.658295437422964
 31
0.0
  0
LINE
  5
1E9
  8
5
 10
51.693277288459399
 20
76.658295437422964
 30
0.0
 11
51.693277288459399
 21
65.35829543742301
 31
0.0
  0
LINE
  5
1EA
  8
5
 10
34.905712853757557
 20
77.35829543742301
 30
0.0
 11
50.480841723161227
 21
77.35829543742301
 31
0.0
  0
LINE
  5
1EB
  8
5
 10
33.693277288459399
 20
76.658295437422964
 30
0.0
 11
51.693277288459399
 21
76.658295437423078
 31
0.0
  0
LINE
  5
1EC
  8
5
 10
51.693277288459399
 20
76.658295437422964
 30
0.0
 11
50.480841723161227
 21
77.35829543742301
 31
0.0
  0
LINE
  5
1ED
  8
5
 10
33.693277288459399
 20
76.658295437423078
 30
0.0
 11
34.905712853757557
 21
77.35829543742301
 31
0.0
  0
LINE
  5
1EE
  8
5
 10
36.69327728845952
 20
40.058295437423048
 30
0.0
 11
36.693277288459171
 21
27.35829543742301
 31
0.0
  0
LINE
  5
1EF
  8
5
 10
37.640277288459288
 20
40.058295437423048
 30
0.0
 11
37.640277288459288
 21
26.411295437423011
 31
0.0
  0
LINE
  5
1F0
  8
5
 10
38.693277288459292
 20
25.35829543742301
 30
0.0
 11
36.693277288459278
 21
27.35829543742312
 31
0.0
  0
LINE
  5
1F1
  8
5
 10
46.693277288459399
 20
25.35829543742301
 30
0.0
 11
38.693277288459292
 21
25.35829543742301
 31
0.0
  0
LINE
  5
1F2
  8
5
 10
47.746277288459282
 20
40.058295437423048
 30
0.0
 11
47.746277288459282
 21
26.411295437422901
 31
0.0
  0
LINE
  5
1F3
  8
5
 10
48.693277288459512
 20
40.058295437423048
 30
0.0
 11
48.693277288459512
 21
27.358295437422949
 31
0.0
  0
LINE
  5
1F4
  8
5
 10
46.693277288459399
 20
25.35829543742301
 30
0.0
 11
48.693277288459399
 21
27.3582954374229
 31
0.0
  0
LINE
  5
1F5
  8
5
 10
48.693277288459399
 20
27.35829543742301
 30
0.0
 11
36.693277288459278
 21
27.35829543742312
 31
0.0
  0
LINE
  5
1F6
  8
1
 10
147.44327728845869
 20
51.058295437423112
 30
0.0
 11
136.94327728845869
 21
51.058295437423112
 31
0.0
  0
LINE
  5
1F7
  8
1
 10
142.19327728845869
 20
45.808295437423112
 30
0.0
 11
142.19327728845869
 21
56.308295437423048
 31
0.0
  0
LINE
  5
1F8
  8
5
 10
138.1932772884592
 20
27.35829543742301
 30
0.0
 11
126.193277288459
 21
27.35829543742312
 31
0.0
  0
LINE
  5
1F9
  8
5
 10
128.193277288459
 20
25.35829543742301
 30
0.0
 11
126.193277288459
 21
27.35829543742312
 31
0.0
  0
LINE
  5
1FA
  8
5
 10
136.1932772884592
 20
25.35829543742301
 30
0.0
 11
138.1932772884592
 21
27.3582954374229
 31
0.0
  0
LINE
  5
1FB
  8
5
 10
138.19327728845931
 20
40.058295437423048
 30
0.0
 11
138.19327728845931
 21
27.358295437422949
 31
0.0
  0
LINE
  5
1FC
  8
5
 10
137.246277288459
 20
40.058295437423048
 30
0.0
 11
137.246277288459
 21
26.411295437422901
 31
0.0
  0
LINE
  5
1FD
  8
5
 10
127.140277288459
 20
40.058295437423048
 30
0.0
 11
127.140277288459
 21
26.411295437423011
 31
0.0
  0
LINE
  5
1FE
  8
5
 10
126.1932772884593
 20
40.058295437423048
 30
0.0
 11
126.1932772884589
 21
27.35829543742301
 31
0.0
  0
LINE
  5
1FF
  8
5
 10
136.1932772884592
 20
25.35829543742301
 30
0.0
 11
128.193277288459
 21
25.35829543742301
 31
0.0
  0
LINE
  5
200
  8
5
 10
123.1932772884591
 20
76.658295437423078
 30
0.0
 11
124.40571285375729
 21
77.35829543742301
 31
0.0
  0
LINE
  5
201
  8
5
 10
141.1932772884592
 20
76.658295437422964
 30
0.0
 11
139.98084172316101
 21
77.35829543742301
 31
0.0
  0
LINE
  5
202
  8
5
 10
123.1932772884591
 20
76.658295437422964
 30
0.0
 11
141.1932772884592
 21
76.658295437423078
 31
0.0
  0
LINE
  5
203
  8
5
 10
124.40571285375729
 20
77.35829543742301
 30
0.0
 11
139.98084172316101
 21
77.35829543742301
 31
0.0
  0
LINE
  5
204
  8
5
 10
123.1932772884591
 20
65.35829543742301
 30
0.0
 11
123.1932772884591
 21
76.658295437422964
 31
0.0
  0
LINE
  5
205
  8
5
 10
141.1932772884592
 20
76.658295437422964
 30
0.0
 11
141.1932772884592
 21
65.35829543742301
 31
0.0
  0
LINE
  5
206
  8
5
 10
138.1932772884592
 20
32.35829543742301
 30
0.0
 11
126.193277288459
 21
32.358295437423124
 31
0.0
  0
LINE
  5
207
  8
5
 10
128.193277288459
 20
30.35829543742301
 30
0.0
 11
126.193277288459
 21
32.358295437423124
 31
0.0
  0
LINE
  5
208
  8
5
 10
136.1932772884592
 20
30.35829543742301
 30
0.0
 11
138.1932772884592
 21
32.358295437422903
 31
0.0
  0
LINE
  5
209
  8
5
 10
138.19327728845931
 20
40.058295437423048
 30
0.0
 11
138.19327728845931
 21
32.358295437422903
 31
0.0
  0
LINE
  5
20A
  8
5
 10
137.246277288459
 20
40.058295437423048
 30
0.0
 11
137.246277288459
 21
31.41129543742284
 31
0.0
  0
LINE
  5
20B
  8
5
 10
127.140277288459
 20
40.058295437423048
 30
0.0
 11
127.140277288459
 21
31.41129543742295
 31
0.0
  0
LINE
  5
20C
  8
5
 10
126.193277288459
 20
40.058295437423048
 30
0.0
 11
126.1932772884589
 21
32.35829543742301
 31
0.0
  0
LINE
  5
20D
  8
5
 10
136.1932772884592
 20
30.35829543742301
 30
0.0
 11
128.193277288459
 21
30.35829543742301
 31
0.0
  0
LINE
  5
20E
  8
5
 10
123.1932772884591
 20
81.658295437423078
 30
0.0
 11
124.40571285375729
 21
82.358295437422953
 31
0.0
  0
LINE
  5
20F
  8
5
 10
141.1932772884592
 20
81.658295437422964
 30
0.0
 11
139.98084172316101
 21
82.358295437422953
 31
0.0
  0
LINE
  5
210
  8
5
 10
123.1932772884591
 20
81.658295437422964
 30
0.0
 11
141.1932772884592
 21
81.658295437423078
 31
0.0
  0
LINE
  5
211
  8
5
 10
124.40571285375729
 20
82.358295437422953
 30
0.0
 11
139.98084172316101
 21
82.358295437422953
 31
0.0
  0
LINE
  5
212
  8
5
 10
123.1932772884591
 20
70.35829543742301
 30
0.0
 11
123.1932772884591
 21
81.658295437422964
 31
0.0
  0
LINE
  5
213
  8
5
 10
141.1932772884592
 20
81.658295437422964
 30
0.0
 11
141.1932772884592
 21
70.35829543742301
 31
0.0
  0
LINE
  5
214
  8
5
 10
150.19327728845869
 20
45.058295437422942
 30
0.0
 11
150.1932772884588
 21
68.058295437422942
 31
0.0
  0
LINE
  5
215
  8
5
 10
144.19327728845909
 20
70.35829543742301
 30
0.0
 11
120.1932772884591
 21
70.35829543742301
 31
0.0
  0
LINE
  5
216
  8
0
 10
95.48617050727205
 20
49.351188656236729
 30
0.0
 11
108.60749085083209
 21
62.472508999795821
 31
0.0
  0
ARC
  5
217
  8
5
 10
101.1932772884587
 20
46.058295437422998
 30
0.0
 40
1.000000000000014
 50
180.0
 51
270.0
  0
LINE
  5
218
  8
5
 10
100.1932772884587
 20
46.058295437422998
 30
0.0
 11
100.1932772884586
 21
53.644081875049892
 31
0.0
  0
ARC
  5
219
  8
5
 10
101.1932772884587
 20
53.644081875049892
 30
0.0
 40
1.0000000000000071
 50
135.0
 51
180.0
  0
ARC
  5
21A
  8
5
 10
115.0217044132048
 20
66.058295437422998
 30
0.0
 40
2.0000000000000062
 50
90.0
 51
135.0
  0
LINE
  5
21B
  8
5
 10
108.60749085083179
 20
62.472508999796041
 30
0.0
 11
113.6074908508317
 21
67.472508999796034
 31
0.0
  0
LINE
  5
21C
  8
2
 10
145.2487336401957
 20
58.002839085685991
 30
0.0
 11
140.2487336401957
 21
53.002839085686162
 31
0.0
  0
ARC
  5
21D
  8
2
 10
147.19327728845869
 20
56.058295437422998
 30
0.0
 40
2.749999999999992
 50
315.0
 51
135.0
  0
LINE
  5
21E
  8
2
 10
144.13782093672171
 20
49.113751789160062
 30
0.0
 11
149.13782093672171
 21
54.113751789159949
 31
0.0
  0
ARC
  5
21F
  8
2
 10
142.19327728845869
 20
51.058295437423112
 30
0.0
 40
2.750000000000012
 50
135.0
 51
315.0
  0
LINE
  5
220
  8
5
 10
115.0217044132048
 20
68.058295437422998
 30
0.0
 11
152.19327728845869
 21
68.058295437422942
 31
0.0
  0
LINE
  5
221
  8
5
 10
154.19327728845869
 20
66.058295437422998
 30
0.0
 11
154.19327728845869
 21
46.058295437422998
 31
0.0
  0
ARC
  5
222
  8
5
 10
152.19327728845869
 20
66.058295437422998
 30
0.0
 40
2.0
 50
0.0
 51
90.0
  0
LINE
  5
223
  8
5
 10
153.19327728845869
 20
45.058295437422942
 30
0.0
 11
101.1932772884587
 21
45.058295437422942
 31
0.0
  0
ARC
  5
224
  8
5
 10
153.19327728845869
 20
46.058295437422998
 30
0.0
 40
1.000000000000014
 50
270.0
 51
0.0
  0
LINE
  5
225
  8
5
 10
144.19327728845909
 20
68.058295437422998
 30
0.0
 11
144.19327728845909
 21
70.35829543742301
 31
0.0
  0
LINE
  5
226
  8
5
 10
120.1932772884591
 20
70.35829543742301
 30
0.0
 11
120.1932772884591
 21
68.058295437422998
 31
0.0
  0
LINE
  5
227
  8
1
 10
116.1932772884588
 20
45.058295437423048
 30
0.0
 11
116.1932772884586
 21
25.058295437423059
 31
0.0
  0
LINE
  5
228
  8
1
 10
132.19327728845931
 20
87.358295437422953
 30
0.0
 11
132.19327728845909
 21
20.35829543742301
 31
0.0
  0
CIRCLE
  5
229
  8
0
 10
142.19327728845869
 20
51.058295437422998
 30
0.0
 40
2.4999999999999711
  0
LINE
  5
22A
  8
0
 10
144.19327728845909
 20
65.35829543742301
 30
0.0
 11
120.1932772884591
 21
65.35829543742301
 31
0.0
  0
LINE
  5
22B
  8
0
 10
120.1932772884587
 20
30.058295437423059
 30
0.0
 11
112.1932772884588
 21
30.058295437423059
 31
0.0
  0
ARC
  5
22C
  8
0
 10
96.193277288458717
 20
41.058295437423048
 30
0.0
 40
1.0
 50
180.0
 51
270.0
  0
LINE
  5
22D
  8
0
 10
95.193277288458717
 20
41.058295437423048
 30
0.0
 11
95.19327728845883
 21
48.644081875049949
 31
0.0
  0
ARC
  5
22E
  8
0
 10
96.193277288458717
 20
48.644081875049949
 30
0.0
 40
1.0
 50
135.0
 51
180.0
  0
ARC
  5
22F
  8
0
 10
110.0217044132048
 20
61.058295437423062
 30
0.0
 40
2.0000000000000142
 50
90.0
 51
135.0
  0
LINE
  5
230
  8
0
 10
140.2487336401957
 20
53.002839085686048
 30
0.0
 11
135.2487336401957
 21
48.002839085686162
 31
0.0
  0
ARC
  5
231
  8
0
 10
142.19327728845869
 20
51.058295437423062
 30
0.0
 40
2.750000000000012
 50
315.0
 51
135.0
  0
LINE
  5
232
  8
0
 10
139.13782093672171
 20
44.113751789160119
 30
0.0
 11
144.13782093672171
 21
49.113751789159998
 31
0.0
  0
ARC
  5
233
  8
0
 10
137.19327728845869
 20
46.058295437423162
 30
0.0
 40
2.750000000000012
 50
135.0
 51
315.0
  0
LINE
  5
234
  8
0
 10
149.19327728845869
 20
61.058295437423062
 30
0.0
 11
149.19327728845869
 21
41.058295437423048
 31
0.0
  0
ARC
  5
235
  8
0
 10
147.19327728845869
 20
61.058295437423062
 30
0.0
 40
2.0000000000000142
 50
0.0
 51
90.0
  0
LINE
  5
236
  8
0
 10
110.0217044132048
 20
63.058295437423048
 30
0.0
 11
147.19327728845869
 21
63.058295437423048
 31
0.0
  0
LINE
  5
237
  8
0
 10
145.19327728845869
 20
63.058295437423048
 30
0.0
 11
145.19327728845869
 21
40.058295437423048
 31
0.0
  0
LINE
  5
238
  8
0
 10
148.19327728845869
 20
40.058295437423048
 30
0.0
 11
96.193277288458717
 21
40.058295437423048
 31
0.0
  0
ARC
  5
239
  8
0
 10
148.19327728845869
 20
41.058295437423048
 30
0.0
 40
1.0
 50
270.0
 51
0.0
  0
LINE
  5
23A
  8
0
 10
144.19327728845909
 20
63.058295437423048
 30
0.0
 11
144.19327728845909
 21
65.35829543742301
 31
0.0
  0
LINE
  5
23B
  8
0
 10
120.1932772884591
 20
65.35829543742301
 30
0.0
 11
120.1932772884591
 21
63.058295437423048
 31
0.0
  0
LINE
  5
23C
  8
0
 10
120.1932772884587
 20
30.058295437423059
 30
0.0
 11
120.1932772884587
 21
40.058295437423048
 31
0.0
  0
LINE
  5
23D
  8
0
 10
112.1932772884587
 20
40.058295437423048
 30
0.0
 11
112.1932772884587
 21
30.058295437423059
 31
0.0
  0
LINE
  5
23E
  8
1
 10
154.1932772884596
 20
134.85829543742301
 30
0.0
 11
90.193277288459512
 21
134.85829543742301
 31
0.0
  0
LINE
  5
23F
  8
0
 10
95.193277288459512
 20
140.8582954374231
 30
0.0
 11
95.193277288459512
 21
151.3582954374229
 31
0.0
  0
LINE
  5
240
  8
0
 10
95.193277288459512
 20
118.3582954374229
 30
0.0
 11
95.193277288459512
 21
128.85829543742301
 31
0.0
  0
ARC
  5
241
  8
0
 10
96.193277288459527
 20
151.3582954374229
 30
0.0
 40
1.0
 50
90.0
 51
180.0
  0
ARC
  5
242
  8
0
 10
96.193277288459527
 20
118.3582954374229
 30
0.0
 40
1.0
 50
180.0
 51
270.0
  0
LINE
  5
243
  8
0
 10
95.193277288459626
 20
140.85829543742301
 30
0.0
 11
97.193277288459527
 21
138.85829543742301
 31
0.0
  0
LINE
  5
244
  8
0
 10
97.193277288459527
 20
138.85829543742301
 30
0.0
 11
97.193277288459527
 21
130.85829543742301
 31
0.0
  0
LINE
  5
245
  8
0
 10
97.193277288459527
 20
130.85829543742301
 30
0.0
 11
95.193277288459626
 21
128.8582954374231
 31
0.0
  0
LINE
  5
246
  8
0
 10
96.193277288459527
 20
152.3582954374229
 30
0.0
 11
145.19327728845951
 21
152.3582954374229
 31
0.0
  0
LINE
  5
247
  8
0
 10
145.19327728845951
 20
117.3582954374229
 30
0.0
 11
96.193277288459527
 21
117.3582954374229
 31
0.0
  0
LINE
  5
248
  8
0
 10
110.0217044132055
 20
152.3582954374229
 30
0.0
 11
110.0217044132055
 21
117.3582954374229
 31
0.0
  0
ARC
  5
249
  8
0
 10
145.19327728845951
 20
121.3582954374229
 30
0.0
 40
4.0
 50
270.0
 51
0.0
  0
LINE
  5
24A
  8
0
 10
149.19327728845951
 20
148.3582954374229
 30
0.0
 11
149.19327728845951
 21
121.3582954374229
 31
0.0
  0
ARC
  5
24B
  8
0
 10
145.19327728845951
 20
148.3582954374229
 30
0.0
 40
4.0
 50
0.0
 51
90.0
  0
LINE
  5
24C
  8
0
 10
54.693277288459392
 20
65.35829543742301
 30
0.0
 11
30.693277288459399
 21
65.35829543742301
 31
0.0
  0
LINE
  5
24D
  8
0
 10
46.693277288459399
 20
30.058295437423059
 30
0.0
 11
38.693277288459399
 21
30.058295437423059
 31
0.0
  0
ARC
  5
24E
  8
0
 10
27.193277288459399
 20
61.058295437423062
 30
0.0
 40
2.0000000000000142
 50
90.0
 51
180.0
  0
LINE
  5
24F
  8
0
 10
27.193277288459399
 20
63.058295437423048
 30
0.0
 11
58.193277288459399
 21
63.058295437423048
 31
0.0
  0
ARC
  5
250
  8
0
 10
58.193277288459399
 20
61.058295437423062
 30
0.0
 40
2.0000000000000142
 50
0.0
 51
90.0
  0
LINE
  5
251
  8
0
 10
38.693277288459399
 20
51.058295437423062
 30
0.0
 11
46.693277288459399
 21
51.058295437423062
 31
0.0
  0
ARC
  5
252
  8
0
 10
59.193277288459399
 20
41.058295437423048
 30
0.0
 40
1.0
 50
270.0
 51
0.0
  0
LINE
  5
253
  8
0
 10
48.400384069645952
 20
49.351188656236502
 30
0.0
 11
60.193277288459399
 21
49.351188656236502
 31
0.0
  0
LINE
  5
254
  8
0
 10
60.193277288459399
 20
61.058295437423062
 30
0.0
 11
60.193277288459399
 21
41.058295437423048
 31
0.0
  0
LINE
  5
255
  8
0
 10
25.193277288459399
 20
49.351188656236502
 30
0.0
 11
36.986170507272853
 21
49.351188656236502
 31
0.0
  0
LINE
  5
256
  8
0
 10
59.193277288459399
 20
40.058295437423048
 30
0.0
 11
26.193277288459399
 21
40.058295437423048
 31
0.0
  0
LINE
  5
257
  8
0
 10
25.193277288459399
 20
41.058295437423048
 30
0.0
 11
25.193277288459399
 21
61.058295437423062
 31
0.0
  0
ARC
  5
258
  8
0
 10
26.193277288459399
 20
41.058295437423048
 30
0.0
 40
1.0
 50
180.0
 51
270.0
  0
LINE
  5
259
  8
0
 10
48.693277288459278
 20
40.058295437423048
 30
0.0
 11
48.693277288459399
 21
48.644081875049949
 31
0.0
  0
ARC
  5
25A
  8
0
 10
47.693277288459512
 20
48.644081875049999
 30
0.0
 40
0.9999999999998792
 50
0.0
 51
45.000000000001151
  0
LINE
  5
25B
  8
0
 10
46.693277288459399
 20
51.058295437423062
 30
0.0
 11
48.400384069645952
 21
49.351188656236502
 31
0.0
  0
LINE
  5
25C
  8
0
 10
46.693277288459512
 20
40.058295437423048
 30
0.0
 11
46.693277288459399
 21
51.058295437423062
 31
0.0
  0
LINE
  5
25D
  8
0
 10
36.986170507272853
 20
49.351188656236502
 30
0.0
 11
38.693277288459399
 21
51.058295437423062
 31
0.0
  0
ARC
  5
25E
  8
0
 10
37.693277288459399
 20
48.644081875049949
 30
0.0
 40
0.9999999999999786
 50
135.0
 51
180.0
  0
LINE
  5
25F
  8
0
 10
36.693277288459399
 20
40.058295437423048
 30
0.0
 11
36.693277288459399
 21
48.644081875049949
 31
0.0
  0
LINE
  5
260
  8
0
 10
38.693277288459399
 20
40.058295437423048
 30
0.0
 11
38.693277288459399
 21
51.058295437423062
 31
0.0
  0
LINE
  5
261
  8
0
 10
54.693277288459392
 20
63.058295437423048
 30
0.0
 11
54.693277288459392
 21
65.35829543742301
 31
0.0
  0
LINE
  5
262
  8
0
 10
30.693277288459399
 20
65.35829543742301
 30
0.0
 11
30.693277288459399
 21
63.058295437423048
 31
0.0
  0
LINE
  5
263
  8
0
 10
46.693277288459399
 20
30.058295437423059
 30
0.0
 11
46.693277288459399
 21
40.058295437423048
 31
0.0
  0
LINE
  5
264
  8
0
 10
38.693277288459399
 20
40.058295437423048
 30
0.0
 11
38.693277288459399
 21
30.058295437423059
 31
0.0
  0
LINE
  5
265
  8
1
 10
42.693277288459292
 20
20.35829543742301
 30
0.0
 11
42.693277288459292
 21
82.358295437423067
 31
0.0
  0
TEXT
  5
323
  8
0
 62
     3
 10
0.0
 20
0.0
 30
0.0
 40
10.0
  1
CP106-12023
  7
STANDARD1
  0
ENDSEC
  0
EOF
