  0
SECTION
  2
HEADER
  9
$ACADVER
  1
AC1009
  9
$INSBASE
 10
0.0
 20
0.0
 30
0.0
  9
$EXTMIN
 10
0.0
 20
-2.960436562073669
 30
0.0
  9
$EXTMAX
 10
164.1801374216507
 20
122.8668018172594
 30
0.0
  9
$LIMMIN
 10
0.0
 20
0.0
  9
$LIMMAX
 10
375.0
 20
270.0
  9
$ORTHOMODE
 70
     0
  9
$REGENMODE
 70
     1
  9
$FILLMODE
 70
     1
  9
$QTEXTMODE
 70
     0
  9
$MIRRTEXT
 70
     0
  9
$DRAGMODE
 70
     2
  9
$LTSCALE
 40
10.0
  9
$OSMODE
 70
  3071
  9
$ATTMODE
 70
     1
  9
$TEXTSIZE
 40
2.0
  9
$TRACEWID
 40
0.05
  9
$TEXTSTYLE
  7
STANDARD
  9
$CLAYER
  8
0
  9
$CELTYPE
  6
BYLAYER
  9
$CECOLOR
 62
   256
  9
$DIMSCALE
 40
1.0
  9
$DIMASZ
 40
2.5
  9
$DIMEXO
 40
2.0
  9
$DIMDLI
 40
0.38
  9
$DIMRND
 40
0.0
  9
$DIMDLE
 40
0.0
  9
$DIMEXE
 40
2.0
  9
$DIMTP
 40
0.0
  9
$DIMTM
 40
0.0
  9
$DIMTXT
 40
3.0
  9
$DIMCEN
 40
0.09
  9
$DIMTSZ
 40
0.0
  9
$DIMTOL
 70
     0
  9
$DIMLIM
 70
     0
  9
$DIMTIH
 70
     0
  9
$DIMTOH
 70
     0
  9
$DIMSE1
 70
     0
  9
$DIMSE2
 70
     0
  9
$DIMTAD
 70
     1
  9
$DIMZIN
 70
     0
  9
$DIMBLK
  1

  9
$DIMASO
 70
     1
  9
$DIMSHO
 70
     0
  9
$DIMPOST
  1

  9
$DIMAPOST
  1

  9
$DIMALT
 70
     0
  9
$DIMALTD
 70
     2
  9
$DIMALTF
 40
25.399999999999999
  9
$DIMLFAC
 40
1.0
  9
$DIMTOFL
 70
     0
  9
$DIMTVP
 40
1.6000000000000001
  9
$DIMTIX
 70
     1
  9
$DIMSOXD
 70
     0
  9
$DIMSAH
 70
     0
  9
$DIMBLK1
  1

  9
$DIMBLK2
  1

  9
$DIMSTYLE
  2
STANDARD
  9
$DIMCLRD
 70
     0
  9
$DIMCLRE
 70
     0
  9
$DIMCLRT
 70
     0
  9
$DIMTFAC
 40
1.0
  9
$DIMGAP
 40
0.09
  9
$LUNITS
 70
     2
  9
$LUPREC
 70
     4
  9
$SKETCHINC
 40
0.1
  9
$FILLETRAD
 40
3.0
  9
$AUNITS
 70
     0
  9
$AUPREC
 70
     0
  9
$MENU
  1
E:\r13\win\SUPPORT\ACAD
  9
$ELEVATION
 40
0.0
  9
$PELEVATION
 40
0.0
  9
$THICKNESS
 40
0.0
  9
$LIMCHECK
 70
     0
  9
$BLIPMODE
 70
     0
  9
$CHAMFERA
 40
0.0
  9
$CHAMFERB
 40
0.0
  9
$SKPOLY
 70
     0
  9
$TDCREATE
 40
2448650.5678784722
  9
$TDUPDATE
 40
2456598.590441783
  9
$TDINDWG
 40
0.0290362616
  9
$TDUSRTIMER
 40
0.0290362616
  9
$USRTIMER
 70
     1
  9
$ANGBASE
 50
0.0
  9
$ANGDIR
 70
     0
  9
$PDMODE
 70
     0
  9
$PDSIZE
 40
0.0
  9
$PLINEWID
 40
0.0
  9
$COORDS
 70
     1
  9
$SPLFRAME
 70
     0
  9
$SPLINETYPE
 70
     6
  9
$SPLINESEGS
 70
     8
  9
$ATTDIA
 70
     0
  9
$ATTREQ
 70
     1
  9
$HANDLING
 70
     1
  9
$HANDSEED
  5
14AA
  9
$SURFTAB1
 70
     6
  9
$SURFTAB2
 70
     6
  9
$SURFTYPE
 70
     6
  9
$SURFU
 70
     6
  9
$SURFV
 70
     6
  9
$UCSNAME
  2

  9
$UCSORG
 10
0.0
 20
0.0
 30
0.0
  9
$UCSXDIR
 10
1.0
 20
0.0
 30
0.0
  9
$UCSYDIR
 10
0.0
 20
1.0
 30
0.0
  9
$PUCSNAME
  2

  9
$PUCSORG
 10
0.0
 20
0.0
 30
0.0
  9
$PUCSXDIR
 10
1.0
 20
0.0
 30
0.0
  9
$PUCSYDIR
 10
0.0
 20
1.0
 30
0.0
  9
$USERI1
 70
     0
  9
$USERI2
 70
     1
  9
$USERI3
 70
     1
  9
$USERI4
 70
     0
  9
$USERI5
 70
     0
  9
$USERR1
 40
0.0
  9
$USERR2
 40
0.0
  9
$USERR3
 40
0.0
  9
$USERR4
 40
0.0
  9
$USERR5
 40
0.0
  9
$WORLDVIEW
 70
     1
  9
$SHADEDGE
 70
     3
  9
$SHADEDIF
 70
    70
  9
$TILEMODE
 70
     1
  9
$MAXACTVP
 70
    16
  9
$PLIMCHECK
 70
     0
  9
$PEXTMIN
 10
1.0000000000000000E+020
 20
1.0000000000000000E+020
 30
1.0000000000000000E+020
  9
$PEXTMAX
 10
-1.0000000000000000E+020
 20
-1.0000000000000000E+020
 30
-1.0000000000000000E+020
  9
$PLIMMIN
 10
0.0
 20
0.0
  9
$PLIMMAX
 10
12.0
 20
9.0
  9
$UNITMODE
 70
     0
  9
$VISRETAIN
 70
     0
  9
$PLINEGEN
 70
     1
  9
$PSLTSCALE
 70
     0
  0
ENDSEC
  0
SECTION
  2
TABLES
  0
TABLE
  2
VPORT
 70
     1
  0
VPORT
  2
*ACTIVE
 70
     0
 10
0.0
 20
0.0
 11
1.0
 21
1.0
 12
195.0581083320873
 22
133.5127261426681
 13
0.0
 23
0.0
 14
10.0
 24
10.0
 15
10.0
 25
10.0
 16
0.0
 26
0.0
 36
1.0
 17
0.0
 27
0.0
 37
0.0
 40
275.42274993631997
 41
1.831871345029239
 42
50.0
 43
0.0
 44
0.0
 50
0.0
 51
0.0
 71
     0
 72
   500
 73
     1
 74
     0
 75
     0
 76
     0
 77
     0
 78
     2
  0
ENDTAB
  0
TABLE
  2
LTYPE
 70
     4
  0
LTYPE
  2
CONTINUOUS
 70
     0
  3
Solid Line
 72
    65
 73
     0
 40
0.0
  0
LTYPE
  2
CENTER
 70
     0
  3
____ _ ____ _ ____ _ ____ _ ____ _ ____ _ ____
 72
    65
 73
     4
 40
2.0
 49
1.25
 49
-0.25
 49
0.25
 49
-0.25
  0
LTYPE
  2
HIDDEN
 70
     0
  3
_ _ _ _ _ _ _ _ _ _ _ _ _ _ _ _ _ _ _ _ _ _ _
 72
    65
 73
     2
 40
0.375
 49
0.25
 49
-0.125
  0
LTYPE
  2
PHANTOM2
 70
     0
  3
___ _ _ ___ _ _ ___ _ _ ___ _ _
 72
    65
 73
     6
 40
1.25
 49
0.625
 49
-0.125
 49
0.125
 49
-0.125
 49
0.125
 49
-0.125
  0
ENDTAB
  0
TABLE
  2
LAYER
 70
     4
  0
LAYER
  2
0
 70
     0
 62
     7
  6
CONTINUOUS
  0
LAYER
  2
1
 70
     0
 62
     1
  6
CENTER
  0
LAYER
  2
3
 70
     0
 62
     3
  6
CONTINUOUS
  0
LAYER
  2
2
 70
     0
 62
     2
  6
HIDDEN
  0
ENDTAB
  0
TABLE
  2
STYLE
 70
     2
  0
STYLE
  2
STANDARD
 70
     0
 40
0.0
 41
1.0
 50
0.0
 71
     0
 42
2.0
  3
TXT
  4
BIGFONT
  0
STYLE
  2
STANDARD1
 70
     0
 40
0.0
 41
1.0
 50
0.0
 71
     0
 42
3.0
  3
txt
  4

  0
ENDTAB
  0
TABLE
  2
VIEW
 70
     1
  0
VIEW
  2
ALL
 70
     0
 40
270.0
 10
220.99159663865549
 20
135.0
 41
0.0
 11
0.0
 21
0.0
 31
1.0
 12
0.0
 22
0.0
 32
0.0
 42
0.0
 43
0.0
 44
0.0
 50
0.0
 71
     0
  0
ENDTAB
  0
TABLE
  2
UCS
 70
     0
  0
ENDTAB
  0
TABLE
  2
APPID
 70
    15
  0
APPID
  2
ACAD
 70
     0
  0
APPID
  2
GENIUS_GENOENT_13
 70
     0
  0
APPID
  2
GENIUS_GENODEF_13
 70
     0
  0
APPID
  2
GENIUS_GENOBJ-N-CRS_13
 70
     0
  0
APPID
  2
GENIUS_GENOREF_13
 70
     0
  0
APPID
  2
GENIUS_GENOLIS_13
 70
     0
  0
APPID
  2
GENIUS_GENCFG_13
 70
     0
  0
APPID
  2
GENIUS_GENCFG0_13
 70
     0
  0
APPID
  2
GENIUS_GENCFG1_13
 70
     0
  0
APPID
  2
GENIUS_GENCFG2_13
 70
     0
  0
APPID
  2
GENIUS_GENCFG3_13
 70
     0
  0
APPID
  2
GENIUS_GENCFG4_13
 70
     0
  0
APPID
  2
GENIUS_GEVCFG0_13
 70
     0
  0
APPID
  2
ACAD_MLEADERVER
 70
     0
  0
APPID
  2
ACAD_NAV_VCDISPLAY
 70
     0
  0
ENDTAB
  0
TABLE
  2
DIMSTYLE
 70
     1
  0
DIMSTYLE
  2
STANDARD
 70
     0
  3

  4

  5

  6

  7

 40
1.0
 41
0.18
 42
0.0625
 43
0.38
 44
0.18
 45
0.0
 46
0.0
 47
0.0
 48
0.0
140
0.18
141
0.09
142
0.0
143
25.399999999999999
144
1.0
145
0.0
146
1.0
147
0.09
 71
     0
 72
     0
 73
     1
 74
     1
 75
     0
 76
     0
 77
     0
 78
     0
170
     0
171
     2
172
     0
173
     0
174
     0
175
     0
176
     0
177
     0
178
     0
  0
ENDTAB
  0
ENDSEC
  0
SECTION
  2
BLOCKS
  0
BLOCK
  8
0
  2
$MODEL_SPACE
 70
     0
 10
0.0
 20
0.0
 30
0.0
  3
$MODEL_SPACE
  1

  0
ENDBLK
  5
217
  8
0
  0
BLOCK
 67
     1
  8
0
  2
$PAPER_SPACE
 70
     0
 10
0.0
 20
0.0
 30
0.0
  3
$PAPER_SPACE
  1

  0
ENDBLK
  5
215
 67
     1
  8
0
  0
ENDSEC
  0
SECTION
  2
ENTITIES
  0
ARC
  5
5BB
  8
3
 10
131.0257514573544
 20
101.3638451950363
 30
0.0
 40
8.4144559647772006
 50
2.338400621059304
 51
20.55440335374967
  0
ARC
  5
5BC
  8
3
 10
145.77428303321921
 20
106.6343831382279
 30
0.0
 40
7.249719482061165
 50
176.19819587916641
 51
198.63240283507071
  0
LINE
  5
5BD
  8
3
 10
138.54051742177751
 20
107.11507810106809
 30
0.0
 11
139.18012742177751
 21
113.7760991010681
 31
0.0
  0
LINE
  5
5BE
  8
3
 10
139.18012742177751
 20
113.7760991010681
 30
0.0
 11
139.18012742177751
 21
117.86693510106809
 31
0.0
  0
LINE
  5
5BF
  8
3
 10
131.5759074330447
 20
114.00057188716551
 30
0.0
 11
131.8950474217776
 21
117.86693510106809
 31
0.0
  0
ARC
  5
5C0
  8
3
 10
153.5003765865828
 20
104.42247264414939
 30
0.0
 40
23.925349167222379
 50
156.4010222054753
 51
186.51994806740609
  0
ARC
  5
5C1
  8
3
 10
171.62055310426069
 20
98.148982705011576
 30
0.0
 40
45.870490748655001
 50
169.85286149286259
 51
180.4543071472886
  0
ARC
  5
5C2
  8
3
 10
127.3458594063634
 20
92.866934101068153
 30
0.0
 40
1.716343941401488
 50
322.51430463452738
 51
37.485695365472857
  0
ARC
  5
5C3
  8
3
 10
128.53839867666389
 20
95.754267469646209
 30
0.0
 40
1.8505979111262429
 50
215.90634151963079
 51
275.2517423718308
  0
ARC
  5
5C4
  8
3
 10
131.10774071942171
 20
98.174667125982864
 30
0.0
 40
5.3703721204030384
 50
184.1580504368435
 51
220.7520033370578
  0
ARC
  5
5C5
  8
3
 10
137.0529384758166
 20
99.985160666442255
 30
0.0
 40
7.5225880595204337
 50
166.777938328521
 51
199.45643125982491
  0
ARC
  5
5C6
  8
3
 10
131.35179821854251
 20
98.753649868363823
 30
0.0
 40
1.8870237892547159
 50
222.47253611600399
 51
271.03693024057497
  0
ARC
  5
5C7
  8
3
 10
131.6465088013982
 20
93.939651867233124
 30
0.0
 40
2.9388568123747398
 50
95.086568258761815
 51
180.55006237488209
  0
LINE
  5
5C8
  8
3
 10
139.18013742177749
 20
96.866935101068151
 30
0.0
 11
131.38594742177759
 21
96.866935101068151
 31
0.0
  0
ARC
  5
5C9
  8
3
 10
139.18013742177749
 20
93.866935101068137
 30
0.0
 40
3.0
 50
0.0
 51
90.0
  0
ARC
  5
5CA
  8
3
 10
141.15206537569659
 20
98.321047325010426
 30
0.0
 40
2.4981046133825968
 50
144.29401835711261
 51
215.59743727679719
  0
ARC
  5
5CB
  8
3
 10
135.5282128950812
 20
101.61829493417881
 30
0.0
 40
4.0384920093864354
 50
332.90678318103721
 51
1.3027421394949761
  0
ARC
  5
5CC
  8
3
 10
139.61139173554361
 20
96.670260032673454
 30
0.0
 40
5.040058218377812
 50
59.358423535305
 51
92.026114465583433
  0
ARC
  5
5CD
  8
3
 10
171.62055310426069
 20
87.584885497124759
 30
0.0
 40
45.870490748655001
 50
179.54569285271131
 51
190.14713850713741
  0
ARC
  5
5CE
  8
3
 10
128.53839867666389
 20
89.979600732490084
 30
0.0
 40
1.8505979111262429
 50
84.748257628169156
 51
144.09365848036921
  0
ARC
  5
5CF
  8
3
 10
131.10774071942171
 20
87.559201076153428
 30
0.0
 40
5.3703721204030384
 50
139.24799666294211
 51
175.8419495631565
  0
ARC
  5
5D0
  8
3
 10
137.0529384758166
 20
85.748707535694038
 30
0.0
 40
7.5225880595204337
 50
160.543568740175
 51
193.222061671479
  0
LINE
  5
5D1
  8
3
 10
139.18012742177751
 20
71.957769101068152
 30
0.0
 11
139.18012742177751
 21
67.866933101068156
 31
0.0
  0
LINE
  5
5D2
  8
3
 10
138.54051742177751
 20
78.618790101068143
 30
0.0
 11
139.18012742177751
 21
71.957769101068152
 31
0.0
  0
ARC
  5
5D3
  8
3
 10
145.77428303321921
 20
79.099485063908332
 30
0.0
 40
7.249719482061165
 50
161.3675971649289
 51
183.80180412083351
  0
ARC
  5
5D4
  8
3
 10
131.0257514573544
 20
84.370023007099974
 30
0.0
 40
8.4144559647772006
 50
339.44559664625041
 51
357.66159937894071
  0
ARC
  5
5D5
  8
3
 10
139.61139173554361
 20
89.063608169462867
 30
0.0
 40
5.040058218377812
 50
267.97388553441658
 51
300.64157646469499
  0
ARC
  5
5D6
  8
3
 10
135.5282128950812
 20
84.115573267957487
 30
0.0
 40
4.0384920093864354
 50
358.69725786050498
 51
27.09321681896277
  0
ARC
  5
5D7
  8
3
 10
141.15206537569659
 20
87.412820877125895
 30
0.0
 40
2.4981046133825968
 50
144.40256272320269
 51
215.70598164288739
  0
ARC
  5
5D8
  8
3
 10
139.18013742177749
 20
91.866933101068156
 30
0.0
 40
3.0
 50
270.0
 51
0.0
  0
LINE
  5
5D9
  8
3
 10
139.18013742177749
 20
88.866933101068156
 30
0.0
 11
131.38594742177759
 21
88.866933101068156
 31
0.0
  0
ARC
  5
5DA
  8
3
 10
131.6465088013982
 20
91.794216334903183
 30
0.0
 40
2.9388568123747398
 50
179.44993762511791
 51
264.91343174123818
  0
ARC
  5
5DB
  8
3
 10
131.35179821854251
 20
86.980218333772484
 30
0.0
 40
1.8870237892547159
 50
88.963069759425053
 51
137.52746388399589
  0
ARC
  5
5DC
  8
3
 10
153.5003765865828
 20
81.311395557986813
 30
0.0
 40
23.925349167222379
 50
173.48005193259391
 51
203.5989777945247
  0
LINE
  5
5DD
  8
3
 10
131.5759074330447
 20
71.733296314970744
 30
0.0
 11
131.8950474217776
 21
67.866933101068156
 31
0.0
  0
ARC
  5
5DE
  8
0
 10
131.8950680924637
 20
70.866800817259445
 30
0.0
 40
3.0
 50
199.16915571893031
 51
270.0
  0
ARC
  5
5E0
  8
0
 10
139.18013742165061
 20
70.866800817259445
 30
0.0
 40
3.0
 50
270.0
 51
0.0
  0
ARC
  5
5E2
  8
3
 10
81.638415069069424
 20
71.372792848499955
 30
0.0
 40
20.454631704231261
 50
88.646816852061136
 51
104.62015232239141
  0
ARC
  5
5E3
  8
3
 10
82.121457451557831
 20
92.866801817259528
 30
0.0
 40
1.0438196415581009
 50
270.0
 51
90.0
  0
ARC
  5
5E4
  8
3
 10
81.638415069069424
 20
114.3608107860189
 30
0.0
 40
20.454631704231261
 50
255.37984767760861
 51
271.35318314793892
  0
ARC
  5
5E5
  8
3
 10
80.17489134818868
 20
70.447365506814378
 30
0.0
 40
21.045445849582219
 50
100.12420583691819
 51
130.32710602588739
  0
ARC
  5
5E6
  8
3
 10
80.17489134818868
 20
115.28623812770449
 30
0.0
 40
21.045445849582219
 50
229.67289397411261
 51
259.87579416308182
  0
ARC
  5
5E7
  8
3
 10
38.72185977423203
 20
71.372792848499955
 30
0.0
 40
20.454631704231261
 50
75.379847677608566
 51
91.353183147938907
  0
ARC
  5
5E8
  8
3
 10
40.185383495112767
 20
70.447365506814378
 30
0.0
 40
21.045445849582219
 50
49.672893974112597
 51
79.87579416308175
  0
ARC
  5
5E9
  8
3
 10
37.760701111205663
 20
72.872047890721575
 30
0.0
 40
21.045445849582219
 50
10.124205836921529
 51
40.327106025882202
  0
ARC
  5
5EA
  8
3
 10
38.686128452891353
 20
71.408524169840916
 30
0.0
 40
20.454631704231261
 50
358.64681685205898
 51
14.62015232239127
  0
ARC
  5
5EB
  8
3
 10
82.599573732095777
 20
72.872047890721575
 30
0.0
 40
21.045445849582219
 50
139.67289397411781
 51
169.87579416307841
  0
ARC
  5
5EC
  8
3
 10
60.180137421650777
 20
70.925481787352481
 30
0.0
 40
1.0438196415581009
 50
180.0
 51
0.0
  0
ARC
  5
5ED
  8
3
 10
81.674146390410215
 20
71.408524169840916
 30
0.0
 40
20.454631704231261
 50
165.37984767760869
 51
181.353183147941
  0
ARC
  5
5EE
  8
3
 10
38.686128452891353
 20
114.325079464678
 30
0.0
 40
20.454631704231261
 50
345.37984767760872
 51
1.3531831479409899
  0
ARC
  5
5EF
  8
3
 10
37.760701111205663
 20
112.8615557437973
 30
0.0
 40
21.045445849582219
 50
319.67289397411781
 51
349.87579416307852
  0
ARC
  5
5F0
  8
3
 10
38.72185977423203
 20
114.3608107860189
 30
0.0
 40
20.454631704231261
 50
268.64681685206108
 51
284.62015232239139
  0
ARC
  5
5F1
  8
3
 10
38.23881739174363
 20
92.866801817259528
 30
0.0
 40
1.0438196415581009
 50
90.0
 51
270.0
  0
ARC
  5
5F2
  8
3
 10
40.185383495112767
 20
115.28623812770449
 30
0.0
 40
21.045445849582219
 50
280.12420583691829
 51
310.32710602588742
  0
ARC
  5
5F3
  8
3
 10
81.674146390410215
 20
114.325079464678
 30
0.0
 40
20.454631704231261
 50
178.646816852059
 51
194.62015232239119
  0
ARC
  5
5F4
  8
3
 10
82.599573732095777
 20
112.8615557437973
 30
0.0
 40
21.045445849582219
 50
190.1242058369215
 51
220.32710602588219
  0
ARC
  5
5F5
  8
3
 10
60.180137421650777
 20
114.8081218471664
 30
0.0
 40
1.0438196415581009
 50
0.0
 51
180.0
  0
LINE
  5
5F6
  8
0
 10
158.6801274216507
 20
101.8667978172594
 30
0.0
 11
158.6801274216507
 21
83.866805817259433
 31
0.0
  0
ARC
  5
5FB
  8
0
 10
146.1801374216507
 20
79.866805817259433
 30
0.0
 40
4.0
 50
90.0
 51
180.0
  0
ARC
  5
5FC
  8
0
 10
146.1801374216507
 20
105.8667978172594
 30
0.0
 40
4.0
 50
179.9999999999996
 51
270.0
  0
LINE
  5
626
  8
0
 10
159.18013742165061
 20
101.3668008172594
 30
0.0
 11
158.6801274216507
 21
101.8667978172594
 31
0.0
  0
LINE
  5
627
  8
0
 10
158.6801274216507
 20
101.8667978172594
 30
0.0
 11
146.1801374216507
 21
101.8667978172594
 31
0.0
  0
LINE
  5
628
  8
1
 10
120.1801374216507
 20
92.866801817259443
 30
0.0
 11
164.1801374216507
 21
92.866801817259443
 31
0.0
  0
LINE
  5
629
  8
0
 10
131.8950680924637
 20
67.866800817259445
 30
0.0
 11
139.18013742165061
 21
67.866800817259445
 31
0.0
  0
LINE
  5
62A
  8
0
 10
158.6801274216507
 20
83.866805817259433
 30
0.0
 11
159.18013742165061
 21
84.366800817259445
 31
0.0
  0
LINE
  5
62B
  8
0
 10
146.1801374216507
 20
83.866805817259433
 30
0.0
 11
158.6801274216507
 21
83.866805817259433
 31
0.0
  0
ARC
  5
62C
  8
0
 10
195.1801374216507
 20
92.866800817259445
 30
0.0
 40
70.0
 50
160.83084247035009
 51
199.16915571893031
  0
LINE
  5
62D
  8
0
 10
142.18013742165061
 20
70.866800817259445
 30
0.0
 11
142.18013742165081
 21
114.8668028172594
 31
0.0
  0
LINE
  5
62E
  8
0
 10
159.18013742165061
 20
84.366800817259445
 30
0.0
 11
159.18013742165061
 21
101.3668008172594
 31
0.0
  0
ARC
  5
62F
  8
0
 10
39.646535421650697
 20
72.333201817259436
 30
0.0
 40
16.538898
 50
358.69881000000032
 51
15.710009999999549
  0
ARC
  5
630
  8
0
 10
80.713738421650646
 20
72.333201817259436
 30
0.0
 40
16.538898
 50
164.2895400000005
 51
181.30118999999971
  0
ARC
  5
631
  8
0
 10
60.18013742165067
 20
71.866801817259443
 30
0.0
 40
4.0
 50
178.6988299999997
 51
1.3011999999999699
  0
ARC
  5
632
  8
0
 10
39.646535421650697
 20
72.333201817259436
 30
0.0
 40
16.538898
 50
74.289540000003285
 51
91.301190000000162
  0
ARC
  5
633
  8
0
 10
39.646535421650697
 20
113.40040181725939
 30
0.0
 40
16.538898
 50
268.69881499999991
 51
285.7100099999966
  0
ARC
  5
634
  8
0
 10
39.18013742165067
 20
92.866801817259443
 30
0.0
 40
4.0
 50
88.698799999999622
 51
271.3011699999999
  0
ARC
  5
635
  8
0
 10
39.646535421650697
 20
113.40040181725939
 30
0.0
 40
16.538898
 50
344.2895400000001
 51
1.301189999999746
  0
ARC
  5
636
  8
0
 10
80.713738421650646
 20
113.40040181725939
 30
0.0
 40
16.538898
 50
178.69881000000021
 51
195.7100099999995
  0
ARC
  5
637
  8
0
 10
39.646535421650697
 20
113.40040181725939
 30
0.0
 40
16.538898
 50
315.00000000000028
 51
344.2895400000001
  0
ARC
  5
638
  8
0
 10
39.646535421650697
 20
113.40040181725939
 30
0.0
 40
16.538898
 50
285.7100099999966
 51
315.00000000000028
  0
ARC
  5
639
  8
0
 10
39.646535421650697
 20
72.333201817259436
 30
0.0
 40
16.538898
 50
44.999999999999709
 51
74.289540000003285
  0
ARC
  5
63A
  8
0
 10
39.646535421650697
 20
72.333201817259436
 30
0.0
 40
16.538898
 50
15.710009999999549
 51
44.999999999999709
  0
ARC
  5
63B
  8
0
 10
80.713738421650646
 20
72.333201817259436
 30
0.0
 40
16.538898
 50
88.698809999999824
 51
105.7100099999966
  0
ARC
  5
63C
  8
0
 10
80.713738421650646
 20
72.333201817259436
 30
0.0
 40
16.538898
 50
105.7100099999966
 51
135.00000000000031
  0
ARC
  5
63D
  8
0
 10
80.713738421650646
 20
113.40040181725939
 30
0.0
 40
16.538898
 50
254.289537999998
 51
271.30118500000009
  0
ARC
  5
63E
  8
0
 10
80.713738421650646
 20
113.40040181725939
 30
0.0
 40
16.538898
 50
224.99999999999969
 51
254.289537999998
  0
ARC
  5
63F
  8
0
 10
81.180137421650656
 20
92.866801817259443
 30
0.0
 40
4.0
 50
268.69879999999961
 51
91.301200000000378
  0
ARC
  5
640
  8
0
 10
80.713738421650646
 20
72.333201817259436
 30
0.0
 40
16.538898
 50
135.00000000000031
 51
164.2895400000005
  0
ARC
  5
641
  8
0
 10
80.713738421650646
 20
113.40040181725939
 30
0.0
 40
16.538898
 50
195.71001299999949
 51
224.99999999999969
  0
LINE
  5
642
  8
1
 10
30.18013742165067
 20
92.866801817259443
 30
0.0
 11
90.18013742165067
 21
92.866801817259443
 31
0.0
  0
LINE
  5
643
  8
1
 10
60.18013742165067
 20
62.86680181725945
 30
0.0
 11
60.18013742165067
 21
122.8668018172594
 31
0.0
  0
ARC
  5
644
  8
0
 10
60.18013742165067
 20
113.8668018172594
 30
0.0
 40
4.0
 50
358.69880000000001
 51
181.30119999999999
  0
LINE
  5
649
  8
0
 10
131.89506878773039
 20
117.8668028172594
 30
0.0
 11
139.18013742165081
 21
117.8668028172594
 31
0.0
  0
ARC
  5
64B
  8
0
 10
139.18013742165081
 20
114.8668028172594
 30
0.0
 40
3.0
 50
359.99999999999977
 51
90.0
  0
ARC
  5
64C
  8
0
 10
131.89506878773039
 20
114.8668028172594
 30
0.0
 40
3.0
 50
90.0
 51
160.83084247035029
  0
LINE
  5
1359
  8
2
 10
157.68013742165121
 20
88.866801817259443
 30
0.0
 11
159.18013742165061
 21
87.366801817259443
 31
0.0
  0
LINE
  5
135A
  8
2
 10
157.6801374216513
 20
88.866801817259443
 30
0.0
 11
157.6801374216513
 21
96.866801817259443
 31
0.0
  0
LINE
  5
135B
  8
2
 10
157.68013742165121
 20
96.866801817259443
 30
0.0
 11
159.18013742165061
 21
98.366801817259443
 31
0.0
  0
LINE
  5
135C
  8
2
 10
158.68013646797661
 20
87.866801817259443
 30
0.0
 11
144.1801374216507
 21
87.866801817259429
 31
0.0
  0
LINE
  5
135D
  8
2
 10
157.6801374216513
 20
88.866801817259443
 30
0.0
 11
138.18013742165061
 21
88.866801817259443
 31
0.0
  0
LINE
  5
135E
  8
2
 10
157.6801374216513
 20
96.866801817259443
 30
0.0
 11
138.18013742165061
 21
96.866801817259443
 31
0.0
  0
LINE
  5
135F
  8
2
 10
158.68013646797661
 20
97.866801817259443
 30
0.0
 11
144.18013742165061
 21
97.866801817259443
 31
0.0
  0
LINE
  5
1360
  8
2
 10
138.18013742165061
 20
96.866801817259443
 30
0.0
 11
138.18013742165061
 21
88.866801817259443
 31
0.0
  0
LINE
  5
1361
  8
2
 10
135.87073634489209
 20
92.866801817259443
 30
0.0
 11
138.18013742165061
 21
96.866801817259443
 31
0.0
  0
LINE
  5
1362
  8
2
 10
135.87073634489209
 20
92.866801817259443
 30
0.0
 11
138.18013742165061
 21
88.866801817259443
 31
0.0
  0
LINE
  5
1363
  8
2
 10
144.1801374216507
 20
97.866801817259486
 30
0.0
 11
144.1801374216507
 21
87.866801817259443
 31
0.0
  0
LINE
  5
1364
  8
2
 10
144.1801374216507
 20
87.866801817259443
 30
0.0
 11
142.44808661408169
 21
88.866801817259457
 31
0.0
  0
LINE
  5
1365
  8
2
 10
144.1801374216507
 20
97.866801817259457
 30
0.0
 11
142.44808661408169
 21
96.866801817259471
 31
0.0
  0
TEXT
  5
141B
  8
0
 62
     3
 10
0.0
 20
0.0
 30
0.0
 40
10.0
  1
CK50T-SUS
  7
STANDARD1
  0
ENDSEC
  0
EOF
