  0
SECTION
  2
HEADER
  9
$ACADVER
  1
AC1009
  9
$INSBASE
 10
0.0
 20
0.0
 30
0.0
  9
$EXTMIN
 10
0.0
 20
-2.960436562073669
 30
0.0
  9
$EXTMAX
 10
261.11572861267177
 20
113.8360770088007
 30
0.0
  9
$LIMMIN
 10
0.0
 20
0.0
  9
$LIMMAX
 10
375.0
 20
270.0
  9
$ORTHOMODE
 70
     0
  9
$REGENMODE
 70
     1
  9
$FILLMODE
 70
     1
  9
$QTEXTMODE
 70
     0
  9
$MIRRTEXT
 70
     0
  9
$DRAGMODE
 70
     2
  9
$LTSCALE
 40
10.0
  9
$OSMODE
 70
  3071
  9
$ATTMODE
 70
     1
  9
$TEXTSIZE
 40
2.0
  9
$TRACEWID
 40
0.05
  9
$TEXTSTYLE
  7
STANDARD
  9
$CLAYER
  8
0
  9
$CELTYPE
  6
BYLAYER
  9
$CECOLOR
 62
   256
  9
$DIMSCALE
 40
1.0
  9
$DIMASZ
 40
2.5
  9
$DIMEXO
 40
2.0
  9
$DIMDLI
 40
0.38
  9
$DIMRND
 40
0.0
  9
$DIMDLE
 40
0.0
  9
$DIMEXE
 40
2.0
  9
$DIMTP
 40
0.0
  9
$DIMTM
 40
0.0
  9
$DIMTXT
 40
3.0
  9
$DIMCEN
 40
0.09
  9
$DIMTSZ
 40
0.0
  9
$DIMTOL
 70
     0
  9
$DIMLIM
 70
     0
  9
$DIMTIH
 70
     0
  9
$DIMTOH
 70
     0
  9
$DIMSE1
 70
     0
  9
$DIMSE2
 70
     0
  9
$DIMTAD
 70
     1
  9
$DIMZIN
 70
     0
  9
$DIMBLK
  1

  9
$DIMASO
 70
     1
  9
$DIMSHO
 70
     0
  9
$DIMPOST
  1

  9
$DIMAPOST
  1

  9
$DIMALT
 70
     0
  9
$DIMALTD
 70
     2
  9
$DIMALTF
 40
25.399999999999999
  9
$DIMLFAC
 40
1.0
  9
$DIMTOFL
 70
     0
  9
$DIMTVP
 40
1.6000000000000001
  9
$DIMTIX
 70
     1
  9
$DIMSOXD
 70
     0
  9
$DIMSAH
 70
     0
  9
$DIMBLK1
  1

  9
$DIMBLK2
  1

  9
$DIMSTYLE
  2
STANDARD
  9
$DIMCLRD
 70
     0
  9
$DIMCLRE
 70
     0
  9
$DIMCLRT
 70
     0
  9
$DIMTFAC
 40
1.0
  9
$DIMGAP
 40
0.09
  9
$LUNITS
 70
     2
  9
$LUPREC
 70
     4
  9
$SKETCHINC
 40
0.1
  9
$FILLETRAD
 40
2.5
  9
$AUNITS
 70
     0
  9
$AUPREC
 70
     0
  9
$MENU
  1
E:\r13\win\SUPPORT\ACAD
  9
$ELEVATION
 40
0.0
  9
$PELEVATION
 40
0.0
  9
$THICKNESS
 40
0.0
  9
$LIMCHECK
 70
     0
  9
$BLIPMODE
 70
     0
  9
$CHAMFERA
 40
0.0
  9
$CHAMFERB
 40
0.0
  9
$SKPOLY
 70
     0
  9
$TDCREATE
 40
2448650.5678784722
  9
$TDUPDATE
 40
2456598.590231759
  9
$TDINDWG
 40
0.0324740972
  9
$TDUSRTIMER
 40
0.0324740972
  9
$USRTIMER
 70
     1
  9
$ANGBASE
 50
0.0
  9
$ANGDIR
 70
     0
  9
$PDMODE
 70
     0
  9
$PDSIZE
 40
0.0
  9
$PLINEWID
 40
0.0
  9
$COORDS
 70
     1
  9
$SPLFRAME
 70
     0
  9
$SPLINETYPE
 70
     6
  9
$SPLINESEGS
 70
     8
  9
$ATTDIA
 70
     0
  9
$ATTREQ
 70
     1
  9
$HANDLING
 70
     1
  9
$HANDSEED
  5
757
  9
$SURFTAB1
 70
     6
  9
$SURFTAB2
 70
     6
  9
$SURFTYPE
 70
     6
  9
$SURFU
 70
     6
  9
$SURFV
 70
     6
  9
$UCSNAME
  2

  9
$UCSORG
 10
0.0
 20
0.0
 30
0.0
  9
$UCSXDIR
 10
1.0
 20
0.0
 30
0.0
  9
$UCSYDIR
 10
0.0
 20
1.0
 30
0.0
  9
$PUCSNAME
  2

  9
$PUCSORG
 10
0.0
 20
0.0
 30
0.0
  9
$PUCSXDIR
 10
1.0
 20
0.0
 30
0.0
  9
$PUCSYDIR
 10
0.0
 20
1.0
 30
0.0
  9
$USERI1
 70
     0
  9
$USERI2
 70
     1
  9
$USERI3
 70
     1
  9
$USERI4
 70
     0
  9
$USERI5
 70
     0
  9
$USERR1
 40
0.0
  9
$USERR2
 40
0.0
  9
$USERR3
 40
0.0
  9
$USERR4
 40
0.0
  9
$USERR5
 40
0.0
  9
$WORLDVIEW
 70
     1
  9
$SHADEDGE
 70
     3
  9
$SHADEDIF
 70
    70
  9
$TILEMODE
 70
     1
  9
$MAXACTVP
 70
    16
  9
$PLIMCHECK
 70
     0
  9
$PEXTMIN
 10
1.0000000000000000E+020
 20
1.0000000000000000E+020
 30
1.0000000000000000E+020
  9
$PEXTMAX
 10
-1.0000000000000000E+020
 20
-1.0000000000000000E+020
 30
-1.0000000000000000E+020
  9
$PLIMMIN
 10
0.0
 20
0.0
  9
$PLIMMAX
 10
12.0
 20
9.0
  9
$UNITMODE
 70
     0
  9
$VISRETAIN
 70
     0
  9
$PLINEGEN
 70
     1
  9
$PSLTSCALE
 70
     0
  0
ENDSEC
  0
SECTION
  2
TABLES
  0
TABLE
  2
VPORT
 70
     1
  0
VPORT
  2
*ACTIVE
 70
     0
 10
0.0
 20
0.0
 11
1.0
 21
1.0
 12
195.0581083320873
 22
133.5127261426681
 13
0.0
 23
0.0
 14
10.0
 24
10.0
 15
10.0
 25
10.0
 16
0.0
 26
0.0
 36
1.0
 17
0.0
 27
0.0
 37
0.0
 40
275.42274993631997
 41
1.831871345029239
 42
50.0
 43
0.0
 44
0.0
 50
0.0
 51
0.0
 71
     0
 72
   500
 73
     1
 74
     0
 75
     0
 76
     0
 77
     0
 78
     2
  0
ENDTAB
  0
TABLE
  2
LTYPE
 70
     4
  0
LTYPE
  2
CONTINUOUS
 70
     0
  3
Solid Line
 72
    65
 73
     0
 40
0.0
  0
LTYPE
  2
CENTER
 70
     0
  3
____ _ ____ _ ____ _ ____ _ ____ _ ____ _ ____
 72
    65
 73
     4
 40
2.0
 49
1.25
 49
-0.25
 49
0.25
 49
-0.25
  0
LTYPE
  2
HIDDEN
 70
     0
  3
_ _ _ _ _ _ _ _ _ _ _ _ _ _ _ _ _ _ _ _ _ _ _
 72
    65
 73
     2
 40
0.375
 49
0.25
 49
-0.125
  0
LTYPE
  2
PHANTOM2
 70
     0
  3
___ _ _ ___ _ _ ___ _ _ ___ _ _
 72
    65
 73
     6
 40
1.25
 49
0.625
 49
-0.125
 49
0.125
 49
-0.125
 49
0.125
 49
-0.125
  0
ENDTAB
  0
TABLE
  2
LAYER
 70
     4
  0
LAYER
  2
0
 70
     0
 62
     7
  6
CONTINUOUS
  0
LAYER
  2
1
 70
     0
 62
     1
  6
CENTER
  0
LAYER
  2
3
 70
     0
 62
     3
  6
CONTINUOUS
  0
LAYER
  2
2
 70
     0
 62
     2
  6
HIDDEN
  0
ENDTAB
  0
TABLE
  2
STYLE
 70
     2
  0
STYLE
  2
STANDARD
 70
     0
 40
0.0
 41
1.0
 50
0.0
 71
     0
 42
2.0
  3
TXT
  4
BIGFONT
  0
STYLE
  2
STANDARD1
 70
     0
 40
0.0
 41
1.0
 50
0.0
 71
     0
 42
3.0
  3
txt
  4

  0
ENDTAB
  0
TABLE
  2
VIEW
 70
     1
  0
VIEW
  2
ALL
 70
     0
 40
270.0
 10
220.99159663865549
 20
135.0
 41
0.0
 11
0.0
 21
0.0
 31
1.0
 12
0.0
 22
0.0
 32
0.0
 42
0.0
 43
0.0
 44
0.0
 50
0.0
 71
     0
  0
ENDTAB
  0
TABLE
  2
UCS
 70
     0
  0
ENDTAB
  0
TABLE
  2
APPID
 70
     3
  0
APPID
  2
ACAD
 70
     0
  0
APPID
  2
ACAD_MLEADERVER
 70
     0
  0
APPID
  2
ACAD_NAV_VCDISPLAY
 70
     0
  0
ENDTAB
  0
TABLE
  2
DIMSTYLE
 70
     1
  0
DIMSTYLE
  2
STANDARD
 70
     0
  3

  4

  5

  6

  7

 40
1.0
 41
0.18
 42
0.0625
 43
0.38
 44
0.18
 45
0.0
 46
0.0
 47
0.0
 48
0.0
140
0.18
141
0.09
142
0.0
143
25.399999999999999
144
1.0
145
0.0
146
1.0
147
0.09
 71
     0
 72
     0
 73
     1
 74
     1
 75
     0
 76
     0
 77
     0
 78
     0
170
     0
171
     2
172
     0
173
     0
174
     0
175
     0
176
     0
177
     0
178
     0
  0
ENDTAB
  0
ENDSEC
  0
SECTION
  2
BLOCKS
  0
BLOCK
  8
0
  2
$MODEL_SPACE
 70
     0
 10
0.0
 20
0.0
 30
0.0
  3
$MODEL_SPACE
  1

  0
ENDBLK
  5
217
  8
0
  0
BLOCK
 67
     1
  8
0
  2
$PAPER_SPACE
 70
     0
 10
0.0
 20
0.0
 30
0.0
  3
$PAPER_SPACE
  1

  0
ENDBLK
  5
215
 67
     1
  8
0
  0
ENDSEC
  0
SECTION
  2
ENTITIES
  0
LINE
  5
54E
  8
0
 10
135.61572861267189
 20
95.836064718478099
 30
0.0
 11
135.61572713898781
 21
81.836065718478267
 31
0.0
  0
ARC
  5
54F
  8
0
 10
115.7098497023933
 20
71.83606571847811
 30
0.0
 40
3.0
 50
197.3522715993897
 51
270.0
  0
ARC
  5
550
  8
0
 10
115.7098417804562
 20
105.8360637184781
 30
0.0
 40
3.0
 50
90.0
 51
162.64775188328019
  0
ARC
  5
551
  8
0
 10
120.115728612672
 20
105.8360637184781
 30
0.0
 40
3.0
 50
0.0
 51
90.0
  0
ARC
  5
552
  8
0
 10
120.1157286126719
 20
71.83606571847811
 30
0.0
 40
3.0
 50
270.0
 51
0.0
  0
LINE
  5
553
  8
3
 10
120.1157286126719
 20
93.511554847510226
 30
0.0
 11
120.1157286126719
 21
91.829522847510347
 31
0.0
  0
LINE
  5
554
  8
3
 10
115.70984861267161
 20
106.0337818475103
 30
0.0
 11
115.70984861267161
 21
108.8360518475103
 31
0.0
  0
LINE
  5
555
  8
3
 10
120.1157286126719
 20
100.0139178475103
 30
0.0
 11
120.1157286126719
 21
108.8360518475103
 31
0.0
  0
ARC
  5
556
  8
3
 10
116.1322630074777
 20
93.932409175907424
 30
0.0
 40
2.1448927318396862
 50
197.29057495260079
 51
258.64194591931852
  0
ARC
  5
557
  8
3
 10
142.1605174647988
 20
95.259737351199036
 30
0.0
 40
28.560775856642721
 50
157.83765581312321
 51
178.0963784211668
  0
ARC
  5
558
  8
3
 10
97.100390442377602
 20
99.508394876202885
 30
0.0
 40
23.783773489981169
 50
345.39581896943082
 51
352.15161812839023
  0
ARC
  5
559
  8
3
 10
-368.3604424850173
 20
27.08259942800812
 30
0.0
 40
493.89062244252591
 50
8.0517575485937112
 51
8.4917466120918128
  0
ARC
  5
55A
  8
3
 10
121.1491182237643
 20
95.926141466458603
 30
0.0
 40
7.5389031849660837
 50
177.8537265508788
 51
200.4274231978425
  0
LINE
  5
55B
  8
3
 10
120.1157286126719
 20
91.829522847510347
 30
0.0
 11
115.709848612671
 21
91.829522847510304
 31
0.0
  0
LINE
  5
55C
  8
3
 10
120.1157286126719
 20
84.160562847510462
 30
0.0
 11
120.1157286126719
 21
85.842594847510355
 31
0.0
  0
ARC
  5
55D
  8
3
 10
120.12225749279629
 20
88.836058847510358
 30
0.0
 40
2.9934711198826851
 50
269.87503551618522
 51
90.124964483567283
  0
LINE
  5
55E
  8
3
 10
120.1157286126719
 20
85.842594847510355
 30
0.0
 11
115.7098486126711
 21
85.842594847510398
 31
0.0
  0
ARC
  5
55F
  8
3
 10
125.5701109269729
 20
94.920543962395925
 30
0.0
 40
15.04422028778124
 50
173.64167522865171
 51
196.36338418594951
  0
ARC
  5
560
  8
3
 10
113.41028337665119
 20
91.074774852332524
 30
0.0
 40
2.3086441763744561
 50
189.79145810959429
 51
255.86201307161099
  0
ARC
  5
561
  8
3
 10
125.5701109269729
 20
82.751573732624806
 30
0.0
 40
15.04422028778124
 50
163.63661581405049
 51
186.35832477134821
  0
ARC
  5
562
  8
3
 10
113.41028337665119
 20
86.597342842688207
 30
0.0
 40
2.3086441763744561
 50
104.137986928389
 51
170.2085418904056
  0
ARC
  5
563
  8
3
 10
116.1322630074777
 20
83.739708519113279
 30
0.0
 40
2.1448927318396862
 50
101.3580540806814
 51
162.70942504739921
  0
ARC
  5
564
  8
3
 10
121.1491182237643
 20
81.745976228562085
 30
0.0
 40
7.5389031849660837
 50
159.57257680215741
 51
182.1462734491212
  0
ARC
  5
565
  8
3
 10
115.842793305348
 20
88.836058847510358
 30
0.0
 40
2.9964146926963822
 50
92.542929427038061
 51
267.45707057295539
  0
LINE
  5
566
  8
3
 10
120.1157286126719
 20
77.658199847510375
 30
0.0
 11
120.1157286126719
 21
68.836065847510341
 31
0.0
  0
LINE
  5
567
  8
3
 10
115.70984861267161
 20
71.638335847510362
 30
0.0
 11
115.70984861267161
 21
68.836065847510369
 31
0.0
  0
ARC
  5
568
  8
3
 10
-368.3604424850173
 20
150.58951826701261
 30
0.0
 40
493.89062244252591
 50
351.50825338790821
 51
351.94824245140632
  0
ARC
  5
569
  8
3
 10
97.100390442377602
 20
78.163722818817845
 30
0.0
 40
23.783773489981169
 50
7.8483818716098197
 51
14.604181030569171
  0
ARC
  5
56A
  8
3
 10
142.1605174647988
 20
82.412380343821695
 30
0.0
 40
28.560775856642721
 50
181.90362157883311
 51
202.16234418687671
  0
ARC
  5
56B
  8
3
 10
69.276117005169226
 20
69.675668737925562
 30
0.0
 40
19.20214543587818
 50
93.779223928786209
 51
176.22078887850611
  0
ARC
  5
56C
  8
3
 10
30.955338220179669
 20
69.675668737925562
 30
0.0
 40
19.20214543587818
 50
3.7792111214939039
 51
86.220776071213777
  0
ARC
  5
56D
  8
3
 10
30.955338220179669
 20
107.99644695709451
 30
0.0
 40
19.20214543587818
 50
273.77922392878622
 51
356.22078887850608
  0
ARC
  5
56E
  8
3
 10
69.276117005169226
 20
107.99644695709451
 30
0.0
 40
19.20214543587818
 50
183.77921112149389
 51
266.22077607121378
  0
LINE
  5
56F
  8
0
 10
137.61572861267189
 20
88.536066412026514
 30
0.0
 11
136.1157286126718
 21
88.536066847510384
 31
0.0
  0
LINE
  5
570
  8
0
 10
137.6157284384783
 20
87.936066412026534
 30
0.0
 11
136.11572843847819
 21
87.936066847510418
 31
0.0
  0
LINE
  5
571
  8
0
 10
137.61572827880079
 20
87.386066412026565
 30
0.0
 11
136.11572827880079
 21
87.386066847510435
 31
0.0
  0
LINE
  5
572
  8
0
 10
137.61572811912339
 20
86.836066412026554
 30
0.0
 11
136.11572811912339
 21
86.836066847510466
 31
0.0
  0
LINE
  5
573
  8
0
 10
137.61572797396209
 20
86.336066412026597
 30
0.0
 11
136.11572797396201
 21
86.336066847510452
 31
0.0
  0
LINE
  5
574
  8
0
 10
137.6157278288008
 20
85.836066412026597
 30
0.0
 11
136.1157278288008
 21
85.83606684751048
 31
0.0
  0
LINE
  5
57B
  8
2
 10
116.1969006485626
 20
88.836061064624815
 30
0.0
 11
118.1157286126719
 21
92.159568589445954
 31
0.0
  0
LINE
  5
57C
  8
2
 10
119.9439962413514
 20
92.159568589445897
 30
0.0
 11
121.1157286126719
 21
92.836068589445972
 31
0.0
  0
LINE
  5
57D
  8
2
 10
124.6392286126719
 20
92.159568589445897
 30
0.0
 11
118.1157286126719
 21
92.159568589445897
 31
0.0
  0
LINE
  5
57E
  8
2
 10
125.3157286126718
 20
92.836068589445844
 30
0.0
 11
121.1157286126719
 21
92.836068589445844
 31
0.0
  0
LINE
  5
581
  8
2
 10
136.11572861267189
 20
92.159566847510504
 30
0.0
 11
124.6392286126719
 21
92.159566847510476
 31
0.0
  0
LINE
  5
582
  8
2
 10
136.11572861267189
 20
92.836066847510381
 30
0.0
 11
125.3157286126718
 21
92.836066847510381
 31
0.0
  0
LINE
  5
583
  8
2
 10
125.3157286126718
 20
92.836066847510381
 30
0.0
 11
124.1157286126717
 21
91.636066847510364
 31
0.0
  0
LINE
  5
584
  8
2
 10
124.1157286126717
 20
91.636066847510364
 30
0.0
 11
124.1157286126719
 21
86.036066847510384
 31
0.0
  0
LINE
  5
585
  8
2
 10
136.11572861267189
 20
84.836066847510395
 30
0.0
 11
125.3157286126718
 21
84.836066847510367
 31
0.0
  0
LINE
  5
586
  8
2
 10
136.1157286126718
 20
85.512566847510257
 30
0.0
 11
124.6392286126719
 21
85.512566847510257
 31
0.0
  0
LINE
  5
587
  8
2
 10
124.1157286126719
 20
86.036066847510384
 30
0.0
 11
125.3157286126718
 21
84.836066847510367
 31
0.0
  0
LINE
  5
588
  8
2
 10
125.31572861267171
 20
92.836066847510381
 30
0.0
 11
125.3157286126718
 21
84.836066847510338
 31
0.0
  0
LINE
  5
589
  8
0
 10
174.91572861267181
 20
92.836066847510381
 30
0.0
 11
174.91572861267181
 21
84.836066847510338
 31
0.0
  0
LINE
  5
58A
  8
0
 10
176.11572861267169
 20
86.036066847510384
 30
0.0
 11
174.91572861267181
 21
84.836066847510367
 31
0.0
  0
LINE
  5
58B
  8
0
 10
174.91572861267181
 20
92.836066847510381
 30
0.0
 11
176.11572861267189
 21
91.636066847510364
 31
0.0
  0
LINE
  5
58C
  8
0
 10
136.11572861267189
 20
92.836066847510367
 30
0.0
 11
174.91572861267181
 21
92.836066847510381
 31
0.0
  0
LINE
  5
58D
  8
3
 10
137.61572861267189
 20
92.159566847510547
 30
0.0
 11
175.5922286126717
 21
92.159566847510476
 31
0.0
  0
LINE
  5
58E
  8
3
 10
137.61572861267189
 20
85.512566847510286
 30
0.0
 11
175.59222861267159
 21
85.512566847510257
 31
0.0
  0
LINE
  5
58F
  8
0
 10
136.11572861267189
 20
84.836066847510395
 30
0.0
 11
174.91572861267181
 21
84.836066847510367
 31
0.0
  0
LINE
  5
590
  8
0
 10
176.11572861267189
 20
91.636066847510364
 30
0.0
 11
176.11572861267169
 21
86.036066847510384
 31
0.0
  0
LINE
  5
592
  8
0
 10
137.61572861267189
 20
92.836066847510381
 30
0.0
 11
137.61572861267189
 21
84.836066847510367
 31
0.0
  0
LINE
  5
593
  8
2
 10
125.3157286126718
 20
84.836066847510338
 30
0.0
 11
121.1157286126719
 21
84.836066847510338
 31
0.0
  0
LINE
  5
594
  8
2
 10
124.6392286126719
 20
85.512566847510314
 30
0.0
 11
118.1157286126719
 21
85.512566847510314
 31
0.0
  0
LINE
  5
595
  8
2
 10
121.1157286126719
 20
84.836066847510253
 30
0.0
 11
121.1157286126719
 21
92.836068589445844
 31
0.0
  0
LINE
  5
596
  8
2
 10
118.1157286126719
 20
85.512566847510257
 30
0.0
 11
118.1157286126719
 21
92.159568589445897
 31
0.0
  0
LINE
  5
597
  8
2
 10
116.19690833176929
 20
88.836061064627032
 30
0.0
 11
118.1157286126719
 21
85.512566847510257
 31
0.0
  0
LINE
  5
598
  8
2
 10
119.9439962413514
 20
85.512566847510314
 30
0.0
 11
121.1157286126719
 21
84.836066847510253
 31
0.0
  0
LINE
  5
599
  8
0
 10
120.115728612672
 20
108.8360637184781
 30
0.0
 11
115.7098417804562
 21
108.8360637184781
 31
0.0
  0
ARC
  5
59A
  8
0
 10
126.1157286126719
 20
98.836066718478094
 30
0.0
 40
3.0
 50
180.0
 51
269.99996999999701
  0
ARC
  5
59B
  8
0
 10
170.11572861267189
 20
88.836075718478114
 30
0.0
 40
60.000000999999997
 50
162.64775188328019
 51
180.0
  0
LINE
  5
59C
  8
0
 10
136.11572861267189
 20
95.336066718478094
 30
0.0
 11
135.61572861267189
 21
95.836064718478099
 31
0.0
  0
LINE
  5
59D
  8
1
 10
181.1157286126718
 20
88.836077008800686
 30
0.0
 11
105.11572761267441
 21
88.836057847510034
 31
0.0
  0
LINE
  5
59E
  8
0
 10
135.61572861267189
 20
95.836064718478099
 30
0.0
 11
126.1157286126719
 21
95.836064718478099
 31
0.0
  0
ARC
  5
59F
  8
0
 10
126.1157286126719
 20
78.836066718478108
 30
0.0
 40
3.0
 50
90.0
 51
180.0
  0
LINE
  5
5A0
  8
0
 10
115.7098497023933
 20
68.83606571847811
 30
0.0
 11
120.1157286126719
 21
68.83606571847811
 31
0.0
  0
LINE
  5
5A1
  8
0
 10
135.61572861267189
 20
81.83606571847811
 30
0.0
 11
136.11572861267189
 21
82.336066718478108
 31
0.0
  0
LINE
  5
5A2
  8
0
 10
126.1157286126719
 20
81.836066718478094
 30
0.0
 11
135.61572861267189
 21
81.83606571847811
 31
0.0
  0
LINE
  5
5A3
  8
0
 10
123.1157286126719
 20
71.83606571847811
 30
0.0
 11
123.115728612672
 21
105.8360637184781
 31
0.0
  0
ARC
  5
5A4
  8
0
 10
170.11572861267189
 20
88.836075718478114
 30
0.0
 40
60.0
 50
180.0
 51
197.3522715993897
  0
LINE
  5
5A5
  8
0
 10
136.11572861267189
 20
95.336066718478094
 30
0.0
 11
136.11572861267189
 21
82.336066718478108
 31
0.0
  0
ARC
  5
5A6
  8
0
 10
50.115727612674391
 20
71.836057847510048
 30
0.0
 40
3.0
 50
183.7792059999999
 51
356.22075000000001
  0
ARC
  5
5A7
  8
0
 10
33.115727612674391
 20
88.836057847510034
 30
0.0
 40
3.0
 50
93.779210000001328
 51
266.2207899999986
  0
ARC
  5
5A8
  8
0
 10
50.115727612674391
 20
105.83605784751001
 30
0.0
 40
3.0
 50
3.7792099999999138
 51
176.22079000000011
  0
ARC
  5
5A9
  8
0
 10
31.913357612674421
 20
107.03842784750999
 30
0.0
 40
15.242038000000001
 50
315.00000000000028
 51
356.22077999999988
  0
ARC
  5
5AA
  8
0
 10
31.913357612674421
 20
107.03842784750999
 30
0.0
 40
15.242038000000001
 50
273.77922399999977
 51
315.00000000000028
  0
ARC
  5
5AB
  8
0
 10
31.913357612674421
 20
70.633687847510046
 30
0.0
 40
15.242038000000001
 50
44.999999999999709
 51
86.220780000001582
  0
ARC
  5
5AC
  8
0
 10
31.913357612674421
 20
70.633687847510046
 30
0.0
 40
15.242038000000001
 50
3.7792200000000382
 51
44.999999999999709
  0
ARC
  5
5AD
  8
0
 10
68.318096612674481
 20
70.633687847510046
 30
0.0
 40
15.242038000000001
 50
93.779219999998389
 51
135.00000000000031
  0
ARC
  5
5AE
  8
0
 10
68.318096612674481
 20
107.03842784750999
 30
0.0
 40
15.242038000000001
 50
224.99999999999969
 51
266.22077600000023
  0
ARC
  5
5AF
  8
0
 10
67.115727612674391
 20
88.836057847510034
 30
0.0
 40
3.0
 50
273.77924599999523
 51
86.220789999998672
  0
ARC
  5
5B0
  8
0
 10
68.318096612674481
 20
70.633687847510046
 30
0.0
 40
15.242038000000001
 50
135.00000000000031
 51
176.22077999999991
  0
ARC
  5
5B1
  8
0
 10
68.318096612674481
 20
107.03842784750999
 30
0.0
 40
15.242038000000001
 50
183.77922399999969
 51
224.99999999999969
  0
LINE
  5
5B2
  8
1
 10
25.115727612674391
 20
88.836057847510034
 30
0.0
 11
75.115727612674391
 21
88.836057847510034
 31
0.0
  0
LINE
  5
5B3
  8
1
 10
50.115727612674391
 20
63.836057847510041
 30
0.0
 11
50.115727612674391
 21
113.83605784751001
 31
0.0
  0
CIRCLE
  5
5D9
  8
0
 10
236.1157286126718
 20
88.836077008800686
 30
0.0
 40
6.9999877096774119
  0
CIRCLE
  5
5DA
  8
0
 10
236.1157286126718
 20
88.836077008800686
 30
0.0
 40
6.4999897096774069
  0
CIRCLE
  5
5DB
  8
0
 10
236.1157286126718
 20
88.836077008800686
 30
0.0
 40
3.9999898387096939
  0
CIRCLE
  5
5DC
  8
3
 10
236.1157286126718
 20
88.836077008800686
 30
0.0
 40
3.323489838709818
  0
ARC
  5
5DD
  8
0
 10
236.1157286126718
 20
71.836077008800672
 30
0.0
 40
3.0
 50
183.77920599999999
 51
356.22075000000001
  0
ARC
  5
5DE
  8
0
 10
219.1157286126718
 20
88.836077008800686
 30
0.0
 40
3.0
 50
93.779210000001328
 51
266.2207899999986
  0
ARC
  5
5DF
  8
0
 10
236.1157286126718
 20
105.8360770088007
 30
0.0
 40
3.0
 50
3.7792099999997228
 51
176.22079000000031
  0
ARC
  5
5E0
  8
0
 10
217.9133586126718
 20
107.0384470088006
 30
0.0
 40
15.242038000000001
 50
315.00000000000063
 51
356.22077999999988
  0
ARC
  5
5E1
  8
0
 10
217.9133586126718
 20
107.0384470088006
 30
0.0
 40
15.242038000000001
 50
273.77922399999977
 51
315.00000000000063
  0
ARC
  5
5E2
  8
0
 10
217.9133586126718
 20
70.63370700880067
 30
0.0
 40
15.242038000000001
 50
44.999999999999417
 51
86.220780000001582
  0
ARC
  5
5E3
  8
0
 10
217.9133586126718
 20
70.63370700880067
 30
0.0
 40
15.242038000000001
 50
3.7792200000000382
 51
44.999999999999417
  0
ARC
  5
5E4
  8
0
 10
254.31809761267189
 20
70.63370700880067
 30
0.0
 40
15.242038000000001
 50
93.779219999998389
 51
135.0000000000006
  0
ARC
  5
5E5
  8
0
 10
254.31809761267189
 20
107.0384470088006
 30
0.0
 40
15.242038000000001
 50
224.9999999999994
 51
266.22077600000011
  0
ARC
  5
5E6
  8
0
 10
253.1157286126718
 20
88.836077008800686
 30
0.0
 40
3.0
 50
273.77924599999523
 51
86.220789999998658
  0
ARC
  5
5E7
  8
0
 10
254.31809761267189
 20
70.63370700880067
 30
0.0
 40
15.242038000000001
 50
135.0000000000006
 51
176.22077999999991
  0
ARC
  5
5E8
  8
0
 10
254.31809761267189
 20
107.0384470088006
 30
0.0
 40
15.242038000000001
 50
183.77922399999991
 51
224.9999999999994
  0
LINE
  5
5E9
  8
1
 10
211.1157286126718
 20
88.836077008800686
 30
0.0
 11
261.11572861267177
 21
88.836077008800686
 31
0.0
  0
LINE
  5
5EA
  8
1
 10
236.1157286126718
 20
63.836077008800672
 30
0.0
 11
236.1157286126718
 21
113.8360770088007
 31
0.0
  0
LINE
  5
608
  8
0
 10
137.61572769815561
 20
85.386066412026622
 30
0.0
 11
136.11572769815561
 21
85.386066847510506
 31
0.0
  0
LINE
  5
609
  8
0
 10
137.6157275675105
 20
84.936066412026648
 30
0.0
 11
136.11572756751039
 21
84.936066847510531
 31
0.0
  0
LINE
  5
612
  8
0
 10
137.6157268965425
 20
92.736067282993886
 30
0.0
 11
136.11572689654261
 21
92.736066589445414
 31
0.0
  0
LINE
  5
613
  8
0
 10
137.615727104607
 20
92.286067282993955
 30
0.0
 11
136.11572710460709
 21
92.286066589445468
 31
0.0
  0
LINE
  5
614
  8
0
 10
137.61572731267151
 20
91.836067282993994
 30
0.0
 11
136.11572731267159
 21
91.836066589445537
 31
0.0
  0
LINE
  5
615
  8
0
 10
137.61572754385449
 20
91.336067282994037
 30
0.0
 11
136.1157275438544
 21
91.336066589445608
 31
0.0
  0
LINE
  5
616
  8
0
 10
137.61572777503719
 20
90.836067282994065
 30
0.0
 11
136.1157277750373
 21
90.836066589445622
 31
0.0
  0
LINE
  5
617
  8
0
 10
137.6157280293383
 20
90.286067282994125
 30
0.0
 11
136.11572802933841
 21
90.286066589445682
 31
0.0
  0
LINE
  5
618
  8
0
 10
137.6157282836395
 20
89.736067282994185
 30
0.0
 11
136.11572828363941
 21
89.736066589445727
 31
0.0
  0
LINE
  5
619
  8
0
 10
137.61572856105889
 20
89.136067282994233
 30
0.0
 11
136.1157285610588
 21
89.136066589445804
 31
0.0
  0
TEXT
  5
6C8
  8
0
 62
     3
 10
0.0
 20
0.0
 30
0.0
 40
10.0
  1
CK40X40-SUS
  7
STANDARD1
  0
ENDSEC
  0
EOF
