  0
SECTION
  2
HEADER
  9
$ACADVER
  1
AC1009
  9
$INSBASE
 10
0.0
 20
0.0
 30
0.0
  9
$EXTMIN
 10
0.0
 20
-2.960436562073669
 30
0.0
  9
$EXTMAX
 10
176.96345400000001
 20
118.41650199999999
 30
0.0
  9
$LIMMIN
 10
0.0
 20
0.0
  9
$LIMMAX
 10
187.5
 20
135.0
  9
$ORTHOMODE
 70
     1
  9
$REGENMODE
 70
     1
  9
$FILLMODE
 70
     1
  9
$QTEXTMODE
 70
     0
  9
$MIRRTEXT
 70
     0
  9
$DRAGMODE
 70
     2
  9
$LTSCALE
 40
5.0
  9
$OSMODE
 70
  3071
  9
$ATTMODE
 70
     1
  9
$TEXTSIZE
 40
1.6000000000000001
  9
$TRACEWID
 40
0.05
  9
$TEXTSTYLE
  7
STANDARD
  9
$CLAYER
  8
0
  9
$CELTYPE
  6
BYLAYER
  9
$CECOLOR
 62
   256
  9
$DIMSCALE
 40
0.5
  9
$DIMASZ
 40
3.0
  9
$DIMEXO
 40
2.0
  9
$DIMDLI
 40
10.0
  9
$DIMRND
 40
0.0
  9
$DIMDLE
 40
0.0
  9
$DIMEXE
 40
2.0
  9
$DIMTP
 40
0.0
  9
$DIMTM
 40
0.0
  9
$DIMTXT
 40
3.2000000000000002
  9
$DIMCEN
 40
0.0
  9
$DIMTSZ
 40
0.0
  9
$DIMTOL
 70
     0
  9
$DIMLIM
 70
     0
  9
$DIMTIH
 70
     0
  9
$DIMTOH
 70
     0
  9
$DIMSE1
 70
     0
  9
$DIMSE2
 70
     0
  9
$DIMTAD
 70
     1
  9
$DIMZIN
 70
     0
  9
$DIMBLK
  1

  9
$DIMASO
 70
     0
  9
$DIMSHO
 70
     0
  9
$DIMPOST
  1

  9
$DIMAPOST
  1

  9
$DIMALT
 70
     0
  9
$DIMALTD
 70
     2
  9
$DIMALTF
 40
25.399999999999999
  9
$DIMLFAC
 40
1.0
  9
$DIMTOFL
 70
     1
  9
$DIMTVP
 40
1.6000000000000001
  9
$DIMTIX
 70
     1
  9
$DIMSOXD
 70
     0
  9
$DIMSAH
 70
     0
  9
$DIMBLK1
  1

  9
$DIMBLK2
  1

  9
$DIMSTYLE
  2
STANDARD
  9
$DIMCLRD
 70
     0
  9
$DIMCLRE
 70
     0
  9
$DIMCLRT
 70
     0
  9
$DIMTFAC
 40
1.0
  9
$DIMGAP
 40
0.09
  9
$LUNITS
 70
     2
  9
$LUPREC
 70
     4
  9
$SKETCHINC
 40
0.1
  9
$FILLETRAD
 40
0.0
  9
$AUNITS
 70
     0
  9
$AUPREC
 70
     4
  9
$MENU
  1
E:\r13\win\SUPPORT\ACAD
  9
$ELEVATION
 40
0.0
  9
$PELEVATION
 40
0.0
  9
$THICKNESS
 40
0.0
  9
$LIMCHECK
 70
     0
  9
$BLIPMODE
 70
     0
  9
$CHAMFERA
 40
0.0
  9
$CHAMFERB
 40
0.0
  9
$SKPOLY
 70
     0
  9
$TDCREATE
 40
2449839.7786342599
  9
$TDUPDATE
 40
2456598.579556331
  9
$TDINDWG
 40
0.000092419
  9
$TDUSRTIMER
 40
0.000092419
  9
$USRTIMER
 70
     1
  9
$ANGBASE
 50
0.0
  9
$ANGDIR
 70
     0
  9
$PDMODE
 70
    35
  9
$PDSIZE
 40
0.0
  9
$PLINEWID
 40
0.0
  9
$COORDS
 70
     1
  9
$SPLFRAME
 70
     0
  9
$SPLINETYPE
 70
     6
  9
$SPLINESEGS
 70
     8
  9
$ATTDIA
 70
     0
  9
$ATTREQ
 70
     1
  9
$HANDLING
 70
     1
  9
$HANDSEED
  5
29E
  9
$SURFTAB1
 70
     6
  9
$SURFTAB2
 70
     6
  9
$SURFTYPE
 70
     6
  9
$SURFU
 70
     6
  9
$SURFV
 70
     6
  9
$UCSNAME
  2

  9
$UCSORG
 10
0.0
 20
0.0
 30
0.0
  9
$UCSXDIR
 10
1.0
 20
0.0
 30
0.0
  9
$UCSYDIR
 10
0.0
 20
1.0
 30
0.0
  9
$PUCSNAME
  2

  9
$PUCSORG
 10
0.0
 20
0.0
 30
0.0
  9
$PUCSXDIR
 10
1.0
 20
0.0
 30
0.0
  9
$PUCSYDIR
 10
0.0
 20
1.0
 30
0.0
  9
$USERI1
 70
     0
  9
$USERI2
 70
     1
  9
$USERI3
 70
     0
  9
$USERI4
 70
     0
  9
$USERI5
 70
     0
  9
$USERR1
 40
0.0
  9
$USERR2
 40
0.0
  9
$USERR3
 40
0.0
  9
$USERR4
 40
0.0
  9
$USERR5
 40
0.0
  9
$WORLDVIEW
 70
     1
  9
$SHADEDGE
 70
     3
  9
$SHADEDIF
 70
    70
  9
$TILEMODE
 70
     1
  9
$MAXACTVP
 70
    16
  9
$PLIMCHECK
 70
     0
  9
$PEXTMIN
 10
1.0000000000000000E+020
 20
1.0000000000000000E+020
 30
1.0000000000000000E+020
  9
$PEXTMAX
 10
-1.0000000000000000E+020
 20
-1.0000000000000000E+020
 30
-1.0000000000000000E+020
  9
$PLIMMIN
 10
0.0
 20
0.0
  9
$PLIMMAX
 10
12.0
 20
9.0
  9
$UNITMODE
 70
     0
  9
$VISRETAIN
 70
     0
  9
$PLINEGEN
 70
     0
  9
$PSLTSCALE
 70
     0
  0
ENDSEC
  0
SECTION
  2
TABLES
  0
TABLE
  2
VPORT
 70
     1
  0
VPORT
  2
*ACTIVE
 70
     0
 10
0.0
 20
0.0
 11
1.0
 21
1.0
 12
97.570150770051072
 22
66.014785922033241
 13
0.0
 23
0.0
 14
5.0
 24
5.0
 15
5.0
 25
5.0
 16
0.0
 26
0.0
 36
1.0
 17
0.0
 27
0.0
 37
0.0
 40
139.20783109903601
 41
1.831871345029239
 42
50.0
 43
0.0
 44
0.0
 50
0.0
 51
0.0
 71
     0
 72
   100
 73
     1
 74
     0
 75
     0
 76
     0
 77
     0
 78
     2
  0
ENDTAB
  0
TABLE
  2
LTYPE
 70
     4
  0
LTYPE
  2
CONTINUOUS
 70
     0
  3
Solid Line
 72
    65
 73
     0
 40
0.0
  0
LTYPE
  2
CENTER
 70
     0
  3
____ _ ____ _ ____ _ ____ _ ____ _ ____ _ ____
 72
    65
 73
     4
 40
2.0
 49
1.25
 49
-0.25
 49
0.25
 49
-0.25
  0
LTYPE
  2
HIDDEN
 70
     0
  3
_ _ _ _ _ _ _ _ _ _ _ _ _ _ _ _ _ _ _ _ _ _ _
 72
    65
 73
     2
 40
0.375
 49
0.25
 49
-0.125
  0
LTYPE
  2
PHANTOM2
 70
     0
  3
___ _ _ ___ _ _ ___ _ _ ___ _ _
 72
    65
 73
     6
 40
1.25
 49
0.625
 49
-0.125
 49
0.125
 49
-0.125
 49
0.125
 49
-0.125
  0
ENDTAB
  0
TABLE
  2
LAYER
 70
     4
  0
LAYER
  2
0
 70
     0
 62
     7
  6
CONTINUOUS
  0
LAYER
  2
1
 70
     0
 62
     1
  6
CENTER
  0
LAYER
  2
2
 70
     0
 62
     2
  6
HIDDEN
  0
LAYER
  2
3
 70
     0
 62
     3
  6
CONTINUOUS
  0
ENDTAB
  0
TABLE
  2
STYLE
 70
     2
  0
STYLE
  2
STANDARD
 70
     0
 40
0.0
 41
1.0
 50
0.0
 71
     0
 42
1.6000000000000001
  3
ROMANS
  4
EXTFONT
  0
STYLE
  2
STANDARD1
 70
     0
 40
0.0
 41
1.0
 50
0.0
 71
     0
 42
3.0
  3
txt
  4

  0
ENDTAB
  0
TABLE
  2
VIEW
 70
     1
  0
VIEW
  2
ALL
 70
     0
 40
135.0
 10
110.49579799999999
 20
67.5
 41
0.0
 11
0.0
 21
0.0
 31
1.0
 12
0.0
 22
0.0
 32
0.0
 42
0.0
 43
0.0
 44
0.0
 50
0.0
 71
     0
  0
ENDTAB
  0
TABLE
  2
UCS
 70
     0
  0
ENDTAB
  0
TABLE
  2
APPID
 70
     3
  0
APPID
  2
ACAD
 70
     0
  0
APPID
  2
ACAD_MLEADERVER
 70
     0
  0
APPID
  2
ACAD_NAV_VCDISPLAY
 70
     0
  0
ENDTAB
  0
TABLE
  2
DIMSTYLE
 70
     1
  0
DIMSTYLE
  2
STANDARD
 70
     0
  3

  4

  5

  6

  7

 40
1.0
 41
0.18
 42
0.0625
 43
0.38
 44
0.18
 45
0.0
 46
0.0
 47
0.0
 48
0.0
140
0.18
141
0.09
142
0.0
143
25.399999999999999
144
1.0
145
0.0
146
1.0
147
0.09
 71
     0
 72
     0
 73
     1
 74
     1
 75
     0
 76
     0
 77
     0
 78
     0
170
     0
171
     2
172
     0
173
     0
174
     0
175
     0
176
     0
177
     0
178
     0
  0
ENDTAB
  0
ENDSEC
  0
SECTION
  2
BLOCKS
  0
BLOCK
  8
0
  2
$MODEL_SPACE
 70
     0
 10
0.0
 20
0.0
 30
0.0
  3
$MODEL_SPACE
  1

  0
ENDBLK
  5
152
  8
0
  0
BLOCK
 67
     1
  8
0
  2
$PAPER_SPACE
 70
     0
 10
0.0
 20
0.0
 30
0.0
  3
$PAPER_SPACE
  1

  0
ENDBLK
  5
150
 67
     1
  8
0
  0
ENDSEC
  0
SECTION
  2
ENTITIES
  0
LINE
  5
37
  8
1
 10
176.96345400000001
 20
67.818321999999995
 30
0.0
 11
150.02414400000001
 21
67.818321999999995
 31
0.0
  0
LINE
  5
38
  8
1
 10
163.493799
 20
81.287976999999984
 30
0.0
 11
163.493799
 21
54.348666999999999
 31
0.0
  0
LINE
  5
39
  8
0
 10
153.993799
 20
73.303150000000002
 30
0.0
 11
153.993799
 21
62.333494999999992
 31
0.0
  0
CIRCLE
  5
3A
  8
0
 10
163.493799
 20
67.818321999999995
 30
0.0
 40
6.0
  0
CIRCLE
  5
3B
  8
3
 10
163.493799
 20
67.818321999999995
 30
0.0
 40
5.052999999999999
  0
LINE
  5
3C
  8
0
 10
153.993799
 20
62.333494999999992
 30
0.0
 11
163.493799
 21
56.848666999999999
 31
0.0
  0
LINE
  5
3D
  8
0
 10
163.493799
 20
56.848666999999999
 30
0.0
 11
172.993799
 21
62.333494999999992
 31
0.0
  0
LINE
  5
3E
  8
0
 10
172.993799
 20
62.333494999999992
 30
0.0
 11
172.993799
 21
73.303150000000002
 31
0.0
  0
LINE
  5
3F
  8
0
 10
172.993799
 20
73.303150000000002
 30
0.0
 11
163.493799
 21
78.787976999999984
 31
0.0
  0
LINE
  5
40
  8
0
 10
163.493799
 20
78.787976999999984
 30
0.0
 11
153.993799
 21
73.303150000000002
 31
0.0
  0
ARC
  5
41
  8
0
 10
163.493799
 20
67.818321999999995
 30
0.0
 40
10.5
 50
360.0
 51
25.208765
  0
ARC
  5
42
  8
0
 10
163.493799
 20
67.818321999999995
 30
0.0
 40
10.5
 50
154.791235
 51
180.0
  0
ARC
  5
43
  8
0
 10
163.493799
 20
67.818321999999995
 30
0.0
 40
10.5
 50
94.791235
 51
145.208765
  0
ARC
  5
44
  8
0
 10
163.493799
 20
67.818321999999995
 30
0.0
 40
10.5
 50
34.791235
 51
85.208764999999985
  0
ARC
  5
45
  8
0
 10
163.493799
 20
67.818321999999995
 30
0.0
 40
10.5
 50
180.0
 51
205.208765
  0
ARC
  5
46
  8
0
 10
163.493799
 20
67.818321999999995
 30
0.0
 40
10.5
 50
214.791235
 51
265.20876500000003
  0
ARC
  5
47
  8
0
 10
163.493799
 20
67.818321999999995
 30
0.0
 40
10.5
 50
274.79123499999997
 51
325.20876500000003
  0
ARC
  5
48
  8
0
 10
163.493799
 20
67.818321999999995
 30
0.0
 40
10.5
 50
334.79123499999997
 51
0.0
  0
LINE
  5
49
  8
0
 10
96.110073999999997
 20
95.316501999999986
 30
0.0
 11
96.110073999999997
 21
114.316502
 31
0.0
  0
LINE
  5
4A
  8
0
 10
96.110073999999997
 20
104.816502
 30
0.0
 11
87.24725500000001
 21
104.816502
 31
0.0
  0
LINE
  5
4B
  8
0
 10
86.110073999999997
 20
95.816502
 30
0.0
 11
86.110073999999997
 21
113.816502
 31
0.0
  0
LINE
  5
4C
  8
0
 10
86.110073999999997
 20
113.816502
 30
0.0
 11
86.470545999999999
 21
114.316502
 31
0.0
  0
LINE
  5
4D
  8
0
 10
86.470545999999999
 20
114.316502
 30
0.0
 11
96.110073999999997
 21
114.316502
 31
0.0
  0
ARC
  5
4E
  8
0
 10
100.11843399999999
 20
109.566502
 30
0.0
 40
13.719684000000001
 50
159.743842
 51
200.256158
  0
ARC
  5
4F
  8
0
 10
100.11843399999999
 20
100.066502
 30
0.0
 40
13.719684000000001
 50
159.743842
 51
200.256158
  0
LINE
  5
50
  8
0
 10
86.470545999999999
 20
95.316501999999986
 30
0.0
 11
96.110073999999997
 21
95.316501999999986
 31
0.0
  0
LINE
  5
51
  8
0
 10
86.110073999999997
 20
95.816502
 30
0.0
 11
86.470545999999999
 21
95.316501999999986
 31
0.0
  0
LINE
  5
52
  8
0
 10
78.610073999999997
 20
94.316501999999986
 30
0.0
 11
79.610073999999983
 21
95.316501999999986
 31
0.0
  0
ARC
  5
53
  8
0
 10
80.610073999999983
 20
97.816502000000014
 30
0.0
 40
1.0
 50
90.0
 51
180.0
  0
ARC
  5
54
  8
0
 10
80.610073999999983
 20
111.816502
 30
0.0
 40
1.0
 50
180.0
 51
270.0
  0
LINE
  5
55
  8
0
 10
80.610073999999983
 20
98.816502000000014
 30
0.0
 11
86.110073999999997
 21
98.816502000000014
 31
0.0
  0
LINE
  5
56
  8
3
 10
84.860073999999997
 20
99.763502000000003
 30
0.0
 11
86.110073999999997
 21
99.763502000000003
 31
0.0
  0
LINE
  5
57
  8
3
 10
84.860073999999997
 20
109.869502
 30
0.0
 11
86.110073999999997
 21
109.869502
 31
0.0
  0
LINE
  5
58
  8
0
 10
80.610073999999983
 20
110.816502
 30
0.0
 11
86.110073999999997
 21
110.816502
 31
0.0
  0
LINE
  5
59
  8
0
 10
84.860073999999997
 20
98.816502000000014
 30
0.0
 11
84.860073999999997
 21
110.816502
 31
0.0
  0
LINE
  5
5A
  8
3
 10
84.860073999999997
 20
109.869502
 30
0.0
 11
83.219821999999979
 21
110.816502
 31
0.0
  0
LINE
  5
5B
  8
3
 10
84.860073999999997
 20
99.763502000000003
 30
0.0
 11
83.219821999999979
 21
98.816502000000014
 31
0.0
  0
LINE
  5
5C
  8
0
 10
78.610073999999997
 20
115.316502
 30
0.0
 11
78.610073999999997
 21
94.316501999999986
 31
0.0
  0
LINE
  5
5D
  8
0
 10
78.610073999999997
 20
115.316502
 30
0.0
 11
79.610073999999983
 21
114.316502
 31
0.0
  0
LINE
  5
5E
  8
0
 10
79.610073999999983
 20
114.316502
 30
0.0
 11
79.610073999999983
 21
95.316501999999986
 31
0.0
  0
LINE
  5
5F
  8
0
 10
55.610073999999997
 20
113.71650200000001
 30
0.0
 11
55.610073999999997
 21
95.916502000000008
 31
0.0
  0
LINE
  5
60
  8
1
 10
47.11007399999999
 20
104.816502
 30
0.0
 11
142.110074
 21
104.816502
 31
0.0
  0
LINE
  5
61
  8
0
 10
49.61007399999999
 20
111.8524
 30
0.0
 11
49.61007399999999
 21
97.780602999999985
 31
0.0
  0
LINE
  5
62
  8
0
 10
69.283280000000005
 20
113.71650200000001
 30
0.0
 11
70.207040000000006
 21
115.316502
 31
0.0
  0
LINE
  5
63
  8
0
 10
69.283280000000005
 20
95.916502000000008
 30
0.0
 11
70.207040000000006
 21
94.316501999999986
 31
0.0
  0
LINE
  5
64
  8
0
 10
70.207040000000006
 20
94.316501999999986
 30
0.0
 11
78.610073999999997
 21
94.316501999999986
 31
0.0
  0
LINE
  5
65
  8
1
 10
58.610073999999997
 20
118.41650199999999
 30
0.0
 11
58.610073999999997
 21
91.216502000000006
 31
0.0
  0
LINE
  5
66
  8
0
 10
87.24725500000001
 20
56.848666999999999
 30
0.0
 11
96.110073999999997
 21
56.848666999999999
 31
0.0
  0
LINE
  5
67
  8
0
 10
87.24725500000001
 20
62.333494999999992
 30
0.0
 11
96.110073999999997
 21
62.333494999999992
 31
0.0
  0
LINE
  5
68
  8
0
 10
87.24725500000001
 20
73.303150000000002
 30
0.0
 11
96.110073999999997
 21
73.303150000000002
 31
0.0
  0
LINE
  5
69
  8
0
 10
87.24725500000001
 20
78.787976999999984
 30
0.0
 11
96.110073999999997
 21
78.787976999999984
 31
0.0
  0
LINE
  5
6A
  8
0
 10
87.24725500000001
 20
78.787976999999984
 30
0.0
 11
86.110073999999997
 21
76.818321999999995
 31
0.0
  0
ARC
  5
6B
  8
0
 10
91.254812999999999
 20
76.045563999999985
 30
0.0
 40
4.8560629999999989
 50
154.38424699999999
 51
214.38424699999999
  0
ARC
  5
6C
  8
0
 10
104.55024400000001
 20
67.818321999999995
 30
0.0
 40
18.151494
 50
162.412046
 51
197.587954
  0
ARC
  5
6D
  8
0
 10
91.254812999999999
 20
59.591081000000003
 30
0.0
 40
4.8560629999999989
 50
145.61575300000001
 51
205.61575300000001
  0
LINE
  5
6E
  8
0
 10
87.24725500000001
 20
56.848666999999999
 30
0.0
 11
86.110073999999997
 21
58.818321999999988
 31
0.0
  0
LINE
  5
6F
  8
0
 10
86.110073999999997
 20
76.818321999999995
 30
0.0
 11
86.110073999999997
 21
58.818321999999988
 31
0.0
  0
LINE
  5
70
  8
0
 10
33.100225000000002
 20
61.827148999999999
 30
0.0
 11
33.977241999999997
 21
62.333494999999992
 31
0.0
  0
LINE
  5
71
  8
0
 10
33.977241999999997
 20
62.333494999999992
 30
0.0
 11
33.977241999999997
 21
63.346185999999989
 31
0.0
  0
LINE
  5
72
  8
0
 10
23.600224999999998
 20
57.355013
 30
0.0
 11
24.477242
 21
56.848666999999999
 31
0.0
  0
LINE
  5
73
  8
0
 10
24.477242
 20
56.848666999999999
 30
0.0
 11
25.354258999999999
 21
57.355013
 31
0.0
  0
LINE
  5
74
  8
0
 10
14.977242
 20
63.346185999999989
 30
0.0
 11
14.977242
 21
62.333494999999992
 31
0.0
  0
LINE
  5
75
  8
0
 10
14.977242
 20
62.333494999999992
 30
0.0
 11
15.854259000000001
 21
61.827148999999999
 31
0.0
  0
LINE
  5
76
  8
0
 10
15.854259000000001
 20
73.809495999999996
 30
0.0
 11
14.977242
 21
73.303150000000002
 31
0.0
  0
LINE
  5
77
  8
0
 10
14.977242
 20
73.303150000000002
 30
0.0
 11
14.977242
 21
72.290458000000001
 31
0.0
  0
LINE
  5
78
  8
0
 10
25.354258999999999
 20
78.281632000000002
 30
0.0
 11
24.477242
 21
78.787976999999984
 31
0.0
  0
LINE
  5
79
  8
0
 10
24.477242
 20
78.787976999999984
 30
0.0
 11
23.600224999999998
 21
78.281632000000002
 31
0.0
  0
LINE
  5
7A
  8
0
 10
33.977241999999997
 20
73.303150000000002
 30
0.0
 11
33.100225000000002
 21
73.809495999999996
 31
0.0
  0
LINE
  5
7B
  8
0
 10
33.977241999999997
 20
72.290458000000001
 30
0.0
 11
33.977241999999997
 21
73.303150000000002
 31
0.0
  0
LINE
  5
7C
  8
0
 10
96.110073999999997
 20
78.787976999999984
 30
0.0
 11
96.110073999999997
 21
56.848666999999999
 31
0.0
  0
LINE
  5
7D
  8
0
 10
49.61007399999999
 20
74.854220999999995
 30
0.0
 11
49.61007399999999
 21
60.782423999999999
 31
0.0
  0
LINE
  5
7E
  8
1
 10
24.477242
 20
81.287976999999984
 30
0.0
 11
24.477242
 21
54.348666999999999
 31
0.0
  0
LINE
  5
7F
  8
1
 10
37.946897
 20
67.818321999999995
 30
0.0
 11
11.007586999999999
 21
67.818321999999995
 31
0.0
  0
LINE
  5
80
  8
1
 10
47.11007399999999
 20
67.818321999999995
 30
0.0
 11
142.110074
 21
67.818321999999995
 31
0.0
  0
CIRCLE
  5
81
  8
0
 10
24.477242
 20
67.818321999999995
 30
0.0
 40
10.5
  0
LINE
  5
82
  8
0
 10
55.610073999999997
 20
78.318321999999995
 30
0.0
 11
78.610073999999997
 21
78.318321999999995
 31
0.0
  0
LINE
  5
83
  8
0
 10
55.610073999999997
 20
73.842440999999994
 30
0.0
 11
69.110073999999983
 21
73.842440999999994
 31
0.0
  0
LINE
  5
84
  8
0
 10
55.610073999999997
 20
61.794204000000001
 30
0.0
 11
69.110073999999983
 21
61.794204000000001
 31
0.0
  0
LINE
  5
85
  8
0
 10
55.610073999999997
 20
78.318321999999995
 30
0.0
 11
55.610073999999997
 21
73.842440999999994
 31
0.0
  0
LINE
  5
86
  8
1
 10
58.610073999999997
 20
75.918322000000003
 30
0.0
 11
58.610073999999997
 21
59.718322000000001
 31
0.0
  0
LINE
  5
87
  8
0
 10
79.610073999999983
 20
77.318321999999995
 30
0.0
 11
79.610073999999983
 21
58.318322000000002
 31
0.0
  0
LINE
  5
88
  8
0
 10
55.610073999999997
 20
78.318321999999995
 30
0.0
 11
49.61007399999999
 21
74.854220999999995
 31
0.0
  0
LINE
  5
89
  8
0
 10
69.110073999999983
 20
73.842440999999994
 30
0.0
 11
69.110073999999983
 21
61.794204000000001
 31
0.0
  0
LINE
  5
8A
  8
0
 10
78.610073999999997
 20
78.318321999999995
 30
0.0
 11
79.610073999999983
 21
77.318321999999995
 31
0.0
  0
LINE
  5
8B
  8
0
 10
78.610073999999997
 20
78.318321999999995
 30
0.0
 11
78.610073999999997
 21
57.318321999999988
 31
0.0
  0
LINE
  5
8C
  8
3
 10
84.610073999999983
 20
62.765321999999998
 30
0.0
 11
82.969821999999994
 21
61.818321999999988
 31
0.0
  0
LINE
  5
8D
  8
3
 10
84.610073999999983
 20
72.871321999999992
 30
0.0
 11
82.969821999999994
 21
73.818321999999995
 31
0.0
  0
LINE
  5
8E
  8
0
 10
84.610073999999983
 20
61.818321999999988
 30
0.0
 11
84.610073999999983
 21
73.818321999999995
 31
0.0
  0
LINE
  5
8F
  8
0
 10
80.610073999999983
 20
73.818321999999995
 30
0.0
 11
86.110073999999997
 21
73.818321999999995
 31
0.0
  0
LINE
  5
90
  8
3
 10
84.610073999999983
 20
72.871321999999992
 30
0.0
 11
86.110073999999997
 21
72.871321999999992
 31
0.0
  0
LINE
  5
91
  8
3
 10
84.610073999999983
 20
62.765321999999998
 30
0.0
 11
86.110073999999997
 21
62.765321999999998
 31
0.0
  0
LINE
  5
92
  8
0
 10
80.610073999999983
 20
61.818321999999988
 30
0.0
 11
86.110073999999997
 21
61.818321999999988
 31
0.0
  0
ARC
  5
93
  8
0
 10
80.610073999999983
 20
74.818321999999995
 30
0.0
 40
1.0
 50
180.0
 51
270.0
  0
ARC
  5
94
  8
0
 10
80.610073999999983
 20
60.818322000000002
 30
0.0
 40
1.0
 50
90.0
 51
180.0
  0
LINE
  5
95
  8
0
 10
78.610073999999997
 20
57.318321999999988
 30
0.0
 11
79.610073999999983
 21
58.318322000000002
 31
0.0
  0
LINE
  5
96
  8
0
 10
55.610073999999997
 20
57.318321999999988
 30
0.0
 11
49.61007399999999
 21
60.782423999999999
 31
0.0
  0
LINE
  5
97
  8
0
 10
55.610073999999997
 20
57.318321999999988
 30
0.0
 11
55.610073999999997
 21
61.794204000000001
 31
0.0
  0
LINE
  5
98
  8
0
 10
55.610073999999997
 20
57.318321999999988
 30
0.0
 11
78.610073999999997
 21
57.318321999999988
 31
0.0
  0
ARC
  5
99
  8
0
 10
53.117471999999999
 20
67.818321999999995
 30
0.0
 40
17.089568
 50
339.359534
 51
20.640466
  0
ARC
  5
9A
  8
0
 10
59.478320999999987
 20
67.818321999999995
 30
0.0
 40
7.1591429999999994
 50
122.705601
 51
237.294399
  0
CIRCLE
  5
9B
  8
0
 10
24.477242
 20
67.818321999999995
 30
0.0
 40
7.0358979999999987
  0
LINE
  5
9C
  8
0
 10
139.610074
 20
71.818321999999995
 30
0.0
 11
139.610074
 21
63.818321999999988
 31
0.0
  0
LINE
  5
9D
  8
0
 10
96.110073999999997
 20
61.818321999999988
 30
0.0
 11
137.610074
 21
61.818321999999988
 31
0.0
  0
LINE
  5
9E
  8
3
 10
96.110073999999997
 20
62.765321999999998
 30
0.0
 11
138.557074
 21
62.765321999999998
 31
0.0
  0
LINE
  5
9F
  8
3
 10
96.110073999999997
 20
72.871321999999992
 30
0.0
 11
138.557074
 21
72.871321999999992
 31
0.0
  0
LINE
  5
A0
  8
0
 10
96.110073999999997
 20
73.818321999999995
 30
0.0
 11
137.610074
 21
73.818321999999995
 31
0.0
  0
LINE
  5
A1
  8
0
 10
139.610074
 20
71.818321999999995
 30
0.0
 11
137.610074
 21
73.818321999999995
 31
0.0
  0
LINE
  5
A2
  8
0
 10
139.610074
 20
63.818321999999988
 30
0.0
 11
137.610074
 21
61.818321999999988
 31
0.0
  0
LINE
  5
A3
  8
0
 10
137.610074
 20
73.818321999999995
 30
0.0
 11
137.610074
 21
61.818321999999988
 31
0.0
  0
LINE
  5
A4
  8
0
 10
70.207040000000006
 20
115.316502
 30
0.0
 11
78.610073999999997
 21
115.316502
 31
0.0
  0
LINE
  5
A5
  8
0
 10
137.610074
 20
110.816502
 30
0.0
 11
137.610074
 21
98.816502000000014
 31
0.0
  0
LINE
  5
A6
  8
0
 10
139.610074
 20
100.816502
 30
0.0
 11
137.610074
 21
98.816502000000014
 31
0.0
  0
LINE
  5
A7
  8
0
 10
139.610074
 20
108.816502
 30
0.0
 11
137.610074
 21
110.816502
 31
0.0
  0
LINE
  5
A8
  8
0
 10
96.110073999999997
 20
110.816502
 30
0.0
 11
137.610074
 21
110.816502
 31
0.0
  0
LINE
  5
A9
  8
3
 10
96.110073999999997
 20
109.869502
 30
0.0
 11
138.557074
 21
109.869502
 31
0.0
  0
LINE
  5
AA
  8
3
 10
96.110073999999997
 20
99.763502000000003
 30
0.0
 11
138.557074
 21
99.763502000000003
 31
0.0
  0
LINE
  5
AB
  8
0
 10
96.110073999999997
 20
98.816502000000014
 30
0.0
 11
137.610074
 21
98.816502000000014
 31
0.0
  0
LINE
  5
AC
  8
0
 10
139.610074
 20
108.816502
 30
0.0
 11
139.610074
 21
100.816502
 31
0.0
  0
LINE
  5
AD
  8
2
 10
32.377242000000003
 20
70.818321999999995
 30
0.0
 11
16.577241999999998
 21
70.818321999999995
 31
0.0
  0
LINE
  5
AE
  8
2
 10
32.377242000000003
 20
64.818321999999995
 30
0.0
 11
16.577241999999998
 21
64.818321999999995
 31
0.0
  0
LINE
  5
AF
  8
0
 10
33.377242000000003
 20
62.246966999999998
 30
0.0
 11
33.377242000000003
 21
73.389678000000004
 31
0.0
  0
LINE
  5
B0
  8
0
 10
15.577242
 20
62.246966999999998
 30
0.0
 11
15.577242
 21
73.389678000000004
 31
0.0
  0
LINE
  5
B1
  8
2
 10
32.377242000000003
 20
70.818321999999995
 30
0.0
 11
33.377242000000003
 21
71.818321999999995
 31
0.0
  0
LINE
  5
B2
  8
2
 10
32.377242000000003
 20
64.818321999999995
 30
0.0
 11
33.377242000000003
 21
63.818321999999988
 31
0.0
  0
LINE
  5
B3
  8
2
 10
15.577242
 20
71.818321999999995
 30
0.0
 11
16.577241999999998
 21
70.818321999999995
 31
0.0
  0
LINE
  5
B4
  8
2
 10
16.577241999999998
 20
64.818321999999995
 30
0.0
 11
15.577242
 21
63.818321999999988
 31
0.0
  0
LINE
  5
B5
  8
2
 10
16.577241999999998
 20
70.818321999999995
 30
0.0
 11
16.577241999999998
 21
64.818321999999995
 31
0.0
  0
LINE
  5
B6
  8
2
 10
32.377242000000003
 20
70.818321999999995
 30
0.0
 11
32.377242000000003
 21
64.818321999999995
 31
0.0
  0
LINE
  5
B7
  8
0
 10
52.319178000000001
 20
113.71650200000001
 30
0.0
 11
69.283280000000005
 21
113.71650200000001
 31
0.0
  0
LINE
  5
B8
  8
0
 10
52.319178000000001
 20
95.916502000000008
 30
0.0
 11
69.283280000000005
 21
95.916502000000008
 31
0.0
  0
LINE
  5
B9
  8
2
 10
55.610073999999997
 20
112.71650200000001
 30
0.0
 11
55.610073999999997
 21
96.916502000000008
 31
0.0
  0
LINE
  5
BA
  8
2
 10
61.61007399999999
 20
112.71650200000001
 30
0.0
 11
61.61007399999999
 21
96.916502000000008
 31
0.0
  0
LINE
  5
BB
  8
2
 10
55.610073999999997
 20
112.71650200000001
 30
0.0
 11
54.61007399999999
 21
113.71650200000001
 31
0.0
  0
LINE
  5
BC
  8
2
 10
61.61007399999999
 20
112.71650200000001
 30
0.0
 11
62.610073999999997
 21
113.71650200000001
 31
0.0
  0
LINE
  5
BD
  8
2
 10
54.61007399999999
 20
95.916502000000008
 30
0.0
 11
55.610073999999997
 21
96.916502000000008
 31
0.0
  0
LINE
  5
BE
  8
2
 10
61.61007399999999
 20
96.916502000000008
 30
0.0
 11
62.610073999999997
 21
95.916502000000008
 31
0.0
  0
LINE
  5
BF
  8
2
 10
55.610073999999997
 20
96.916502000000008
 30
0.0
 11
61.61007399999999
 21
96.916502000000008
 31
0.0
  0
LINE
  5
C0
  8
2
 10
55.610073999999997
 20
112.71650200000001
 30
0.0
 11
61.61007399999999
 21
112.71650200000001
 31
0.0
  0
CIRCLE
  5
C1
  8
0
 10
58.610073999999997
 20
67.818321999999995
 30
0.0
 40
3.0
  0
LINE
  5
C2
  8
0
 10
52.319178000000001
 20
95.916502000000008
 30
0.0
 11
49.61007399999999
 21
97.780602999999985
 31
0.0
  0
LINE
  5
C3
  8
0
 10
52.319178000000001
 20
113.71650200000001
 30
0.0
 11
49.61007399999999
 21
111.8524
 31
0.0
  0
LINE
  5
C4
  8
0
 10
52.319178000000001
 20
42.816328999999989
 30
0.0
 11
49.61007399999999
 21
40.952228000000012
 31
0.0
  0
LINE
  5
C5
  8
0
 10
52.319178000000001
 20
25.01632900000001
 30
0.0
 11
49.61007399999999
 21
26.880431000000002
 31
0.0
  0
LINE
  5
C6
  8
2
 10
55.610073999999997
 20
41.816328999999989
 30
0.0
 11
61.61007399999999
 21
41.816328999999989
 31
0.0
  0
LINE
  5
C7
  8
2
 10
55.610073999999997
 20
26.016328999999999
 30
0.0
 11
61.61007399999999
 21
26.016328999999999
 31
0.0
  0
LINE
  5
C8
  8
2
 10
61.61007399999999
 20
26.016328999999999
 30
0.0
 11
62.610073999999997
 21
25.01632900000001
 31
0.0
  0
LINE
  5
C9
  8
2
 10
54.61007399999999
 20
25.01632900000001
 30
0.0
 11
55.610073999999997
 21
26.016328999999999
 31
0.0
  0
LINE
  5
CA
  8
2
 10
61.61007399999999
 20
41.816328999999989
 30
0.0
 11
62.610073999999997
 21
42.816328999999989
 31
0.0
  0
LINE
  5
CB
  8
2
 10
55.610073999999997
 20
41.816328999999989
 30
0.0
 11
54.61007399999999
 21
42.816328999999989
 31
0.0
  0
LINE
  5
CC
  8
2
 10
61.61007399999999
 20
41.816328999999989
 30
0.0
 11
61.61007399999999
 21
26.016328999999999
 31
0.0
  0
LINE
  5
CD
  8
2
 10
55.610073999999997
 20
41.816328999999989
 30
0.0
 11
55.610073999999997
 21
26.016328999999999
 31
0.0
  0
LINE
  5
CE
  8
0
 10
52.319178000000001
 20
25.01632900000001
 30
0.0
 11
69.283280000000005
 21
25.01632900000001
 31
0.0
  0
LINE
  5
CF
  8
0
 10
52.319178000000001
 20
42.816328999999989
 30
0.0
 11
69.283280000000005
 21
42.816328999999989
 31
0.0
  0
LINE
  5
D0
  8
0
 10
139.610074
 20
37.916328999999998
 30
0.0
 11
139.610074
 21
29.916329000000001
 31
0.0
  0
LINE
  5
D1
  8
0
 10
96.110073999999997
 20
27.916329000000001
 30
0.0
 11
137.610074
 21
27.916329000000001
 31
0.0
  0
LINE
  5
D2
  8
3
 10
96.110073999999997
 20
28.863329
 30
0.0
 11
138.557074
 21
28.863329
 31
0.0
  0
LINE
  5
D3
  8
3
 10
96.110073999999997
 20
38.969328999999988
 30
0.0
 11
138.557074
 21
38.969328999999988
 31
0.0
  0
LINE
  5
D4
  8
0
 10
96.110073999999997
 20
39.916328999999998
 30
0.0
 11
137.610074
 21
39.916328999999998
 31
0.0
  0
LINE
  5
D5
  8
0
 10
139.610074
 20
37.916328999999998
 30
0.0
 11
137.610074
 21
39.916328999999998
 31
0.0
  0
LINE
  5
D6
  8
0
 10
139.610074
 20
29.916329000000001
 30
0.0
 11
137.610074
 21
27.916329000000001
 31
0.0
  0
LINE
  5
D7
  8
0
 10
137.610074
 20
39.916328999999998
 30
0.0
 11
137.610074
 21
27.916329000000001
 31
0.0
  0
LINE
  5
D8
  8
0
 10
70.207040000000006
 20
44.416328999999998
 30
0.0
 11
78.610073999999997
 21
44.416328999999998
 31
0.0
  0
LINE
  5
D9
  8
1
 10
58.610073999999997
 20
47.516328999999992
 30
0.0
 11
58.610073999999997
 21
20.316329
 31
0.0
  0
LINE
  5
DA
  8
0
 10
70.207040000000006
 20
23.416329000000001
 30
0.0
 11
78.610073999999997
 21
23.416329000000001
 31
0.0
  0
LINE
  5
DB
  8
0
 10
69.283280000000005
 20
25.01632900000001
 30
0.0
 11
70.207040000000006
 21
23.416329000000001
 31
0.0
  0
LINE
  5
DC
  8
0
 10
69.283280000000005
 20
42.816328999999989
 30
0.0
 11
70.207040000000006
 21
44.416328999999998
 31
0.0
  0
LINE
  5
DD
  8
0
 10
49.61007399999999
 20
40.952228000000012
 30
0.0
 11
49.61007399999999
 21
26.880431000000002
 31
0.0
  0
LINE
  5
DE
  8
1
 10
47.11007399999999
 20
33.916328999999998
 30
0.0
 11
142.110074
 21
33.916328999999998
 31
0.0
  0
LINE
  5
DF
  8
0
 10
55.610073999999997
 20
42.816328999999989
 30
0.0
 11
55.610073999999997
 21
25.01632900000001
 31
0.0
  0
LINE
  5
E0
  8
0
 10
79.610073999999983
 20
43.41632899999999
 30
0.0
 11
79.610073999999983
 21
24.416329000000001
 31
0.0
  0
LINE
  5
E1
  8
0
 10
78.610073999999997
 20
44.416328999999998
 30
0.0
 11
79.610073999999983
 21
43.41632899999999
 31
0.0
  0
LINE
  5
E2
  8
0
 10
78.610073999999997
 20
44.416328999999998
 30
0.0
 11
78.610073999999997
 21
23.416329000000001
 31
0.0
  0
LINE
  5
E3
  8
3
 10
84.860073999999997
 20
28.863329
 30
0.0
 11
83.219821999999979
 21
27.916329000000001
 31
0.0
  0
LINE
  5
E4
  8
3
 10
84.860073999999997
 20
38.969328999999988
 30
0.0
 11
83.219821999999979
 21
39.916328999999998
 31
0.0
  0
LINE
  5
E5
  8
0
 10
84.860073999999997
 20
27.916329000000001
 30
0.0
 11
84.860073999999997
 21
39.916328999999998
 31
0.0
  0
LINE
  5
E6
  8
0
 10
80.610073999999983
 20
39.916328999999998
 30
0.0
 11
86.110073999999997
 21
39.916328999999998
 31
0.0
  0
LINE
  5
E7
  8
3
 10
84.860073999999997
 20
38.969328999999988
 30
0.0
 11
86.110073999999997
 21
38.969328999999988
 31
0.0
  0
LINE
  5
E8
  8
3
 10
84.860073999999997
 20
28.863329
 30
0.0
 11
86.110073999999997
 21
28.863329
 31
0.0
  0
LINE
  5
E9
  8
0
 10
80.610073999999983
 20
27.916329000000001
 30
0.0
 11
86.110073999999997
 21
27.916329000000001
 31
0.0
  0
ARC
  5
EA
  8
0
 10
80.610073999999983
 20
40.91632899999999
 30
0.0
 40
1.0
 50
180.0
 51
270.0
  0
ARC
  5
EB
  8
0
 10
80.610073999999983
 20
26.916329000000001
 30
0.0
 40
1.0
 50
90.0
 51
180.0
  0
LINE
  5
EC
  8
0
 10
78.610073999999997
 20
23.416329000000001
 30
0.0
 11
79.610073999999983
 21
24.416329000000001
 31
0.0
  0
LINE
  5
ED
  8
0
 10
86.110073999999997
 20
24.916329000000001
 30
0.0
 11
86.470545999999999
 21
24.416329000000001
 31
0.0
  0
LINE
  5
EE
  8
0
 10
86.470545999999999
 20
24.416329000000001
 30
0.0
 11
96.110073999999997
 21
24.416329000000001
 31
0.0
  0
ARC
  5
EF
  8
0
 10
100.11843399999999
 20
29.166329000000001
 30
0.0
 40
13.719684000000001
 50
159.743842
 51
200.256158
  0
ARC
  5
F0
  8
0
 10
100.11843399999999
 20
38.666328999999998
 30
0.0
 40
13.719684000000001
 50
159.743842
 51
200.256158
  0
LINE
  5
F1
  8
0
 10
86.470545999999999
 20
43.41632899999999
 30
0.0
 11
96.110073999999997
 21
43.41632899999999
 31
0.0
  0
LINE
  5
F2
  8
0
 10
86.110073999999997
 20
42.91632899999999
 30
0.0
 11
86.470545999999999
 21
43.41632899999999
 31
0.0
  0
LINE
  5
F3
  8
0
 10
86.110073999999997
 20
24.916329000000001
 30
0.0
 11
86.110073999999997
 21
42.91632899999999
 31
0.0
  0
LINE
  5
F4
  8
0
 10
96.110073999999997
 20
33.916328999999998
 30
0.0
 11
87.24725500000001
 21
33.916328999999998
 31
0.0
  0
LINE
  5
F5
  8
0
 10
96.110073999999997
 20
24.416329000000001
 30
0.0
 11
96.110073999999997
 21
43.41632899999999
 31
0.0
  0
TEXT
  5
20D
  8
0
 62
     3
 10
0.0
 20
0.0
 30
0.0
 40
10.0
  1
CBS1-60-L
  7
STANDARD1
  0
ENDSEC
  0
EOF
