  0
SECTION
  2
HEADER
  9
$ACADVER
  1
AC1009
  9
$INSBASE
 10
0.0
 20
0.0
 30
0.0
  9
$EXTMIN
 10
0.0
 20
-2.960436562073669
 30
0.0
  9
$EXTMAX
 10
167.38378700000001
 20
119.917331
 30
0.0
  9
$LIMMIN
 10
0.0
 20
0.0
  9
$LIMMAX
 10
187.5
 20
135.0
  9
$ORTHOMODE
 70
     1
  9
$REGENMODE
 70
     1
  9
$FILLMODE
 70
     1
  9
$QTEXTMODE
 70
     0
  9
$MIRRTEXT
 70
     0
  9
$DRAGMODE
 70
     2
  9
$LTSCALE
 40
5.0
  9
$OSMODE
 70
  3071
  9
$ATTMODE
 70
     1
  9
$TEXTSIZE
 40
1.6000000000000001
  9
$TRACEWID
 40
0.05
  9
$TEXTSTYLE
  7
STANDARD
  9
$CLAYER
  8
0
  9
$CELTYPE
  6
BYLAYER
  9
$CECOLOR
 62
   256
  9
$DIMSCALE
 40
0.5
  9
$DIMASZ
 40
3.0
  9
$DIMEXO
 40
2.0
  9
$DIMDLI
 40
10.0
  9
$DIMRND
 40
0.0
  9
$DIMDLE
 40
0.0
  9
$DIMEXE
 40
2.0
  9
$DIMTP
 40
0.0
  9
$DIMTM
 40
0.0
  9
$DIMTXT
 40
3.2000000000000002
  9
$DIMCEN
 40
0.0
  9
$DIMTSZ
 40
0.0
  9
$DIMTOL
 70
     0
  9
$DIMLIM
 70
     0
  9
$DIMTIH
 70
     0
  9
$DIMTOH
 70
     0
  9
$DIMSE1
 70
     0
  9
$DIMSE2
 70
     0
  9
$DIMTAD
 70
     1
  9
$DIMZIN
 70
     0
  9
$DIMBLK
  1

  9
$DIMASO
 70
     0
  9
$DIMSHO
 70
     0
  9
$DIMPOST
  1

  9
$DIMAPOST
  1

  9
$DIMALT
 70
     0
  9
$DIMALTD
 70
     2
  9
$DIMALTF
 40
25.399999999999999
  9
$DIMLFAC
 40
1.0
  9
$DIMTOFL
 70
     1
  9
$DIMTVP
 40
1.6000000000000001
  9
$DIMTIX
 70
     1
  9
$DIMSOXD
 70
     0
  9
$DIMSAH
 70
     0
  9
$DIMBLK1
  1

  9
$DIMBLK2
  1

  9
$DIMSTYLE
  2
STANDARD
  9
$DIMCLRD
 70
     0
  9
$DIMCLRE
 70
     0
  9
$DIMCLRT
 70
     0
  9
$DIMTFAC
 40
1.0
  9
$DIMGAP
 40
0.09
  9
$LUNITS
 70
     2
  9
$LUPREC
 70
     4
  9
$SKETCHINC
 40
0.1
  9
$FILLETRAD
 40
0.0
  9
$AUNITS
 70
     0
  9
$AUPREC
 70
     4
  9
$MENU
  1
E:\r13\win\SUPPORT\ACAD
  9
$ELEVATION
 40
0.0
  9
$PELEVATION
 40
0.0
  9
$THICKNESS
 40
0.0
  9
$LIMCHECK
 70
     0
  9
$BLIPMODE
 70
     0
  9
$CHAMFERA
 40
0.0
  9
$CHAMFERB
 40
0.0
  9
$SKPOLY
 70
     0
  9
$TDCREATE
 40
2449839.778611111
  9
$TDUPDATE
 40
2456598.579490093
  9
$TDINDWG
 40
0.0000890625
  9
$TDUSRTIMER
 40
0.0000890625
  9
$USRTIMER
 70
     1
  9
$ANGBASE
 50
0.0
  9
$ANGDIR
 70
     0
  9
$PDMODE
 70
    35
  9
$PDSIZE
 40
0.0
  9
$PLINEWID
 40
0.0
  9
$COORDS
 70
     1
  9
$SPLFRAME
 70
     0
  9
$SPLINETYPE
 70
     6
  9
$SPLINESEGS
 70
     8
  9
$ATTDIA
 70
     0
  9
$ATTREQ
 70
     1
  9
$HANDLING
 70
     1
  9
$HANDSEED
  5
287
  9
$SURFTAB1
 70
     6
  9
$SURFTAB2
 70
     6
  9
$SURFTYPE
 70
     6
  9
$SURFU
 70
     6
  9
$SURFV
 70
     6
  9
$UCSNAME
  2

  9
$UCSORG
 10
0.0
 20
0.0
 30
0.0
  9
$UCSXDIR
 10
1.0
 20
0.0
 30
0.0
  9
$UCSYDIR
 10
0.0
 20
1.0
 30
0.0
  9
$PUCSNAME
  2

  9
$PUCSORG
 10
0.0
 20
0.0
 30
0.0
  9
$PUCSXDIR
 10
1.0
 20
0.0
 30
0.0
  9
$PUCSYDIR
 10
0.0
 20
1.0
 30
0.0
  9
$USERI1
 70
     0
  9
$USERI2
 70
     1
  9
$USERI3
 70
     0
  9
$USERI4
 70
     0
  9
$USERI5
 70
     0
  9
$USERR1
 40
0.0
  9
$USERR2
 40
0.0
  9
$USERR3
 40
0.0
  9
$USERR4
 40
0.0
  9
$USERR5
 40
0.0
  9
$WORLDVIEW
 70
     1
  9
$SHADEDGE
 70
     3
  9
$SHADEDIF
 70
    70
  9
$TILEMODE
 70
     1
  9
$MAXACTVP
 70
    16
  9
$PLIMCHECK
 70
     0
  9
$PEXTMIN
 10
1.0000000000000000E+020
 20
1.0000000000000000E+020
 30
1.0000000000000000E+020
  9
$PEXTMAX
 10
-1.0000000000000000E+020
 20
-1.0000000000000000E+020
 30
-1.0000000000000000E+020
  9
$PLIMMIN
 10
0.0
 20
0.0
  9
$PLIMMAX
 10
12.0
 20
9.0
  9
$UNITMODE
 70
     0
  9
$VISRETAIN
 70
     0
  9
$PLINEGEN
 70
     0
  9
$PSLTSCALE
 70
     0
  0
ENDSEC
  0
SECTION
  2
TABLES
  0
TABLE
  2
VPORT
 70
     1
  0
VPORT
  2
*ACTIVE
 70
     0
 10
0.0
 20
0.0
 11
1.0
 21
1.0
 12
97.570150770051072
 22
66.014785922033241
 13
0.0
 23
0.0
 14
5.0
 24
5.0
 15
5.0
 25
5.0
 16
0.0
 26
0.0
 36
1.0
 17
0.0
 27
0.0
 37
0.0
 40
139.20783109903601
 41
1.831871345029239
 42
50.0
 43
0.0
 44
0.0
 50
0.0
 51
0.0
 71
     0
 72
   100
 73
     1
 74
     0
 75
     0
 76
     0
 77
     0
 78
     2
  0
ENDTAB
  0
TABLE
  2
LTYPE
 70
     4
  0
LTYPE
  2
CONTINUOUS
 70
     0
  3
Solid Line
 72
    65
 73
     0
 40
0.0
  0
LTYPE
  2
CENTER
 70
     0
  3
____ _ ____ _ ____ _ ____ _ ____ _ ____ _ ____
 72
    65
 73
     4
 40
2.0
 49
1.25
 49
-0.25
 49
0.25
 49
-0.25
  0
LTYPE
  2
HIDDEN
 70
     0
  3
_ _ _ _ _ _ _ _ _ _ _ _ _ _ _ _ _ _ _ _ _ _ _
 72
    65
 73
     2
 40
0.375
 49
0.25
 49
-0.125
  0
LTYPE
  2
PHANTOM2
 70
     0
  3
___ _ _ ___ _ _ ___ _ _ ___ _ _
 72
    65
 73
     6
 40
1.25
 49
0.625
 49
-0.125
 49
0.125
 49
-0.125
 49
0.125
 49
-0.125
  0
ENDTAB
  0
TABLE
  2
LAYER
 70
     4
  0
LAYER
  2
0
 70
     0
 62
     7
  6
CONTINUOUS
  0
LAYER
  2
1
 70
     0
 62
     1
  6
CENTER
  0
LAYER
  2
2
 70
     0
 62
     2
  6
HIDDEN
  0
LAYER
  2
3
 70
     0
 62
     3
  6
CONTINUOUS
  0
ENDTAB
  0
TABLE
  2
STYLE
 70
     2
  0
STYLE
  2
STANDARD
 70
     0
 40
0.0
 41
1.0
 50
0.0
 71
     0
 42
1.6000000000000001
  3
ROMANS
  4
EXTFONT
  0
STYLE
  2
STANDARD1
 70
     0
 40
0.0
 41
1.0
 50
0.0
 71
     0
 42
3.0
  3
txt
  4

  0
ENDTAB
  0
TABLE
  2
VIEW
 70
     1
  0
VIEW
  2
ALL
 70
     0
 40
135.0
 10
110.49579799999999
 20
67.5
 41
0.0
 11
0.0
 21
0.0
 31
1.0
 12
0.0
 22
0.0
 32
0.0
 42
0.0
 43
0.0
 44
0.0
 50
0.0
 71
     0
  0
ENDTAB
  0
TABLE
  2
UCS
 70
     0
  0
ENDTAB
  0
TABLE
  2
APPID
 70
     3
  0
APPID
  2
ACAD
 70
     0
  0
APPID
  2
ACAD_MLEADERVER
 70
     0
  0
APPID
  2
ACAD_NAV_VCDISPLAY
 70
     0
  0
ENDTAB
  0
TABLE
  2
DIMSTYLE
 70
     1
  0
DIMSTYLE
  2
STANDARD
 70
     0
  3

  4

  5

  6

  7

 40
1.0
 41
0.18
 42
0.0625
 43
0.38
 44
0.18
 45
0.0
 46
0.0
 47
0.0
 48
0.0
140
0.18
141
0.09
142
0.0
143
25.399999999999999
144
1.0
145
0.0
146
1.0
147
0.09
 71
     0
 72
     0
 73
     1
 74
     1
 75
     0
 76
     0
 77
     0
 78
     0
170
     0
171
     2
172
     0
173
     0
174
     0
175
     0
176
     0
177
     0
178
     0
  0
ENDTAB
  0
ENDSEC
  0
SECTION
  2
BLOCKS
  0
BLOCK
  8
0
  2
$MODEL_SPACE
 70
     0
 10
0.0
 20
0.0
 30
0.0
  3
$MODEL_SPACE
  1

  0
ENDBLK
  5
13B
  8
0
  0
BLOCK
 67
     1
  8
0
  2
$PAPER_SPACE
 70
     0
 10
0.0
 20
0.0
 30
0.0
  3
$PAPER_SPACE
  1

  0
ENDBLK
  5
139
 67
     1
  8
0
  0
ENDSEC
  0
SECTION
  2
ENTITIES
  0
LINE
  5
37
  8
1
 10
167.38378700000001
 20
70.185438000000005
 30
0.0
 11
142.75387799999999
 21
70.185438000000005
 31
0.0
  0
LINE
  5
38
  8
1
 10
155.06883199999999
 20
82.500392000000005
 30
0.0
 11
155.06883199999999
 21
57.870482999999993
 31
0.0
  0
CIRCLE
  5
39
  8
0
 10
155.06883199999999
 20
70.185438000000005
 30
0.0
 40
5.0
  0
CIRCLE
  5
3A
  8
3
 10
155.06883199999999
 20
70.185438000000005
 30
0.0
 40
4.1879999999999988
  0
LINE
  5
3B
  8
0
 10
146.56883199999999
 20
75.092915000000005
 30
0.0
 11
146.56883199999999
 21
65.277959999999993
 31
0.0
  0
LINE
  5
3C
  8
0
 10
146.56883199999999
 20
65.277959999999993
 30
0.0
 11
155.06883199999999
 21
60.370482999999993
 31
0.0
  0
LINE
  5
3D
  8
0
 10
155.06883199999999
 20
60.370482999999993
 30
0.0
 11
163.56883199999999
 21
65.277959999999993
 31
0.0
  0
LINE
  5
3E
  8
0
 10
163.56883199999999
 20
65.277959999999993
 30
0.0
 11
163.56883199999999
 21
75.092915000000005
 31
0.0
  0
LINE
  5
3F
  8
0
 10
163.56883199999999
 20
75.092915000000005
 30
0.0
 11
155.06883199999999
 21
80.000392000000005
 31
0.0
  0
LINE
  5
40
  8
0
 10
155.06883199999999
 20
80.000392000000005
 30
0.0
 11
146.56883199999999
 21
75.092915000000005
 31
0.0
  0
LINE
  5
41
  8
0
 10
94.959520999999995
 20
116.817331
 30
0.0
 11
94.959520999999995
 21
99.81733100000001
 31
0.0
  0
LINE
  5
42
  8
0
 10
86.959520999999995
 20
116.567331
 30
0.0
 11
86.959520999999995
 21
100.067331
 31
0.0
  0
ARC
  5
43
  8
0
 10
99.379365000000007
 20
112.567331
 30
0.0
 40
12.275506999999999
 50
159.743842
 51
200.256158
  0
LINE
  5
44
  8
0
 10
87.103859
 20
116.817331
 30
0.0
 11
86.959520999999995
 21
116.567331
 31
0.0
  0
LINE
  5
45
  8
0
 10
94.959520999999995
 20
116.817331
 30
0.0
 11
87.103859
 21
116.817331
 31
0.0
  0
LINE
  5
46
  8
0
 10
94.959520999999995
 20
108.317331
 30
0.0
 11
87.863047999999992
 21
108.317331
 31
0.0
  0
LINE
  5
47
  8
0
 10
94.959520999999995
 20
99.81733100000001
 30
0.0
 11
87.103859
 21
99.81733100000001
 31
0.0
  0
ARC
  5
48
  8
0
 10
99.379365000000007
 20
104.067331
 30
0.0
 40
12.275506999999999
 50
159.743842
 51
200.256158
  0
LINE
  5
49
  8
0
 10
87.103859
 20
99.81733100000001
 30
0.0
 11
86.959520999999995
 21
100.067331
 31
0.0
  0
LINE
  5
4A
  8
0
 10
81.459520999999995
 20
103.317331
 30
0.0
 11
86.959520999999995
 21
103.317331
 31
0.0
  0
ARC
  5
4B
  8
0
 10
81.459520999999995
 20
102.317331
 30
0.0
 40
1.0
 50
90.0
 51
180.0
  0
LINE
  5
4C
  8
1
 10
62.959521000000002
 20
119.917331
 30
0.0
 11
62.959521000000002
 21
96.717331000000001
 31
0.0
  0
LINE
  5
4D
  8
0
 10
60.959520999999988
 20
115.217331
 30
0.0
 11
60.959520999999988
 21
101.417331
 31
0.0
  0
ARC
  5
4E
  8
0
 10
81.459520999999995
 20
114.317331
 30
0.0
 40
1.0
 50
180.0
 51
270.0
  0
LINE
  5
4F
  8
3
 10
85.459520999999995
 20
104.12933099999999
 30
0.0
 11
86.959520999999995
 21
104.12933099999999
 31
0.0
  0
LINE
  5
50
  8
3
 10
85.459520999999995
 20
112.505331
 30
0.0
 11
86.959520999999995
 21
112.505331
 31
0.0
  0
LINE
  5
51
  8
0
 10
81.459520999999995
 20
113.317331
 30
0.0
 11
86.959520999999995
 21
113.317331
 31
0.0
  0
LINE
  5
52
  8
0
 10
85.459520999999995
 20
113.317331
 30
0.0
 11
85.459520999999995
 21
103.317331
 31
0.0
  0
LINE
  5
53
  8
3
 10
85.459520999999995
 20
112.505331
 30
0.0
 11
84.053095999999996
 21
113.317331
 31
0.0
  0
LINE
  5
54
  8
3
 10
85.459520999999995
 20
104.12933099999999
 30
0.0
 11
84.053095999999996
 21
103.317331
 31
0.0
  0
LINE
  5
55
  8
0
 10
73.056487000000004
 20
116.817331
 30
0.0
 11
80.459520999999995
 21
116.817331
 31
0.0
  0
LINE
  5
56
  8
0
 10
80.459520999999995
 20
116.817331
 30
0.0
 11
80.459520999999995
 21
99.81733100000001
 31
0.0
  0
LINE
  5
57
  8
1
 10
52.959521000000002
 20
108.317331
 30
0.0
 11
132.959521
 21
108.317331
 31
0.0
  0
LINE
  5
58
  8
0
 10
55.459521000000002
 20
113.641904
 30
0.0
 11
55.459521000000002
 21
102.992757
 31
0.0
  0
LINE
  5
59
  8
0
 10
73.056487000000004
 20
116.817331
 30
0.0
 11
72.132726000000005
 21
115.217331
 31
0.0
  0
LINE
  5
5A
  8
0
 10
73.056487000000004
 20
99.81733100000001
 30
0.0
 11
72.132726000000005
 21
101.417331
 31
0.0
  0
LINE
  5
5B
  8
0
 10
73.056487000000004
 20
99.81733100000001
 30
0.0
 11
80.459520999999995
 21
99.81733100000001
 31
0.0
  0
LINE
  5
5C
  8
0
 10
86.959520999999995
 20
61.935437999999998
 30
0.0
 11
86.959520999999995
 21
78.435438000000005
 31
0.0
  0
LINE
  5
5D
  8
0
 10
87.863047999999992
 20
60.370482999999993
 30
0.0
 11
86.959520999999995
 21
61.935437999999998
 31
0.0
  0
ARC
  5
5E
  8
0
 10
91.448757000000001
 20
62.824221999999999
 30
0.0
 40
4.344898999999999
 50
145.61575300000001
 51
205.61575300000001
  0
LINE
  5
5F
  8
0
 10
94.959520999999995
 20
60.370482999999993
 30
0.0
 11
87.863047999999992
 21
60.370482999999993
 31
0.0
  0
LINE
  5
60
  8
0
 10
94.959520999999995
 20
65.277959999999993
 30
0.0
 11
87.863047999999992
 21
65.277959999999993
 31
0.0
  0
LINE
  5
61
  8
0
 10
94.959520999999995
 20
75.092915000000005
 30
0.0
 11
87.863047999999992
 21
75.092915000000005
 31
0.0
  0
LINE
  5
62
  8
0
 10
94.959520999999995
 20
80.000392000000005
 30
0.0
 11
87.863047999999992
 21
80.000392000000005
 31
0.0
  0
ARC
  5
63
  8
0
 10
103.344669
 20
70.185438000000005
 30
0.0
 40
16.24081099999999
 50
162.412046
 51
197.587954
  0
ARC
  5
64
  8
0
 10
91.448757000000001
 20
77.546654000000004
 30
0.0
 40
4.344898999999999
 50
154.38424699999999
 51
214.38424699999999
  0
LINE
  5
65
  8
0
 10
87.863047999999992
 20
80.000392000000005
 30
0.0
 11
86.959520999999995
 21
78.435438000000005
 31
0.0
  0
LINE
  5
66
  8
0
 10
16.264778
 20
75.092915000000005
 30
0.0
 11
16.264778
 21
65.277959999999993
 31
0.0
  0
LINE
  5
67
  8
0
 10
16.264778
 20
65.277959999999993
 30
0.0
 11
24.764778
 21
60.370482999999993
 31
0.0
  0
LINE
  5
68
  8
0
 10
24.764778
 20
60.370482999999993
 30
0.0
 11
33.264778
 21
65.277959999999993
 31
0.0
  0
LINE
  5
69
  8
0
 10
33.264778
 20
65.277959999999993
 30
0.0
 11
33.264778
 21
75.092915000000005
 31
0.0
  0
LINE
  5
6A
  8
0
 10
33.264778
 20
75.092915000000005
 30
0.0
 11
24.764778
 21
80.000392000000005
 31
0.0
  0
LINE
  5
6B
  8
0
 10
24.764778
 20
80.000392000000005
 30
0.0
 11
16.264778
 21
75.092915000000005
 31
0.0
  0
LINE
  5
6C
  8
0
 10
94.959520999999995
 20
60.370482999999993
 30
0.0
 11
94.959520999999995
 21
80.000392000000005
 31
0.0
  0
LINE
  5
6D
  8
0
 10
55.459521000000002
 20
75.510010999999992
 30
0.0
 11
55.459521000000002
 21
64.860864000000007
 31
0.0
  0
LINE
  5
6E
  8
1
 10
24.764778
 20
82.500392000000005
 30
0.0
 11
24.764778
 21
57.870482999999993
 31
0.0
  0
LINE
  5
6F
  8
1
 10
37.079732
 20
70.185438000000005
 30
0.0
 11
12.449823
 21
70.185438000000005
 31
0.0
  0
LINE
  5
70
  8
1
 10
52.959521000000002
 20
70.185438000000005
 30
0.0
 11
132.959521
 21
70.185438000000005
 31
0.0
  0
CIRCLE
  5
71
  8
0
 10
24.764778
 20
70.185438000000005
 30
0.0
 40
8.5
  0
LINE
  5
72
  8
0
 10
80.459520999999995
 20
78.685438000000005
 30
0.0
 11
80.459520999999995
 21
61.685437999999998
 31
0.0
  0
LINE
  5
73
  8
0
 10
60.959520999999988
 20
78.685438000000005
 30
0.0
 11
80.459520999999995
 21
78.685438000000005
 31
0.0
  0
LINE
  5
74
  8
3
 10
85.459520999999995
 20
65.997438000000002
 30
0.0
 11
84.053095999999996
 21
65.185438000000005
 31
0.0
  0
LINE
  5
75
  8
3
 10
85.459520999999995
 20
74.373437999999993
 30
0.0
 11
84.053095999999996
 21
75.185438000000005
 31
0.0
  0
LINE
  5
76
  8
0
 10
85.459520999999995
 20
75.185438000000005
 30
0.0
 11
85.459520999999995
 21
65.185438000000005
 31
0.0
  0
LINE
  5
77
  8
0
 10
81.459520999999995
 20
75.185438000000005
 30
0.0
 11
86.959520999999995
 21
75.185438000000005
 31
0.0
  0
LINE
  5
78
  8
3
 10
85.459520999999995
 20
74.373437999999993
 30
0.0
 11
86.959520999999995
 21
74.373437999999993
 31
0.0
  0
LINE
  5
79
  8
3
 10
85.459520999999995
 20
65.997438000000002
 30
0.0
 11
86.959520999999995
 21
65.997438000000002
 31
0.0
  0
ARC
  5
7A
  8
0
 10
81.459520999999995
 20
76.185438000000005
 30
0.0
 40
1.0
 50
180.0
 51
270.0
  0
LINE
  5
7B
  8
0
 10
60.959520999999988
 20
78.685438000000005
 30
0.0
 11
60.959520999999988
 21
75.541741999999999
 31
0.0
  0
LINE
  5
7C
  8
0
 10
60.959520999999988
 20
78.685438000000005
 30
0.0
 11
55.459521000000002
 21
75.510010999999992
 31
0.0
  0
LINE
  5
7D
  8
1
 10
62.959521000000002
 20
77.835437999999996
 30
0.0
 11
62.959521000000002
 21
62.535437999999999
 31
0.0
  0
ARC
  5
7E
  8
0
 10
81.459520999999995
 20
64.185438000000005
 30
0.0
 40
1.0
 50
90.0
 51
180.0
  0
LINE
  5
7F
  8
0
 10
81.459520999999995
 20
65.185438000000005
 30
0.0
 11
86.959520999999995
 21
65.185438000000005
 31
0.0
  0
LINE
  5
80
  8
0
 10
60.959520999999988
 20
61.685437999999998
 30
0.0
 11
80.459520999999995
 21
61.685437999999998
 31
0.0
  0
LINE
  5
81
  8
0
 10
60.959520999999988
 20
61.685437999999998
 30
0.0
 11
55.459521000000002
 21
64.860864000000007
 31
0.0
  0
LINE
  5
82
  8
0
 10
60.959520999999988
 20
75.541741999999999
 30
0.0
 11
71.959520999999995
 21
75.541741999999999
 31
0.0
  0
LINE
  5
83
  8
0
 10
60.959520999999988
 20
64.829132999999985
 30
0.0
 11
71.959520999999995
 21
64.829132999999985
 31
0.0
  0
LINE
  5
84
  8
0
 10
71.959520999999995
 20
75.541741999999999
 30
0.0
 11
71.959520999999995
 21
64.829132999999985
 31
0.0
  0
ARC
  5
85
  8
0
 10
59.43101999999999
 20
70.185438000000005
 30
0.0
 40
13.625465999999999
 50
336.85185899999999
 51
23.148140999999999
  0
ARC
  5
86
  8
0
 10
63.673067000000003
 20
70.185438000000005
 30
0.0
 40
6.0044430000000002
 50
116.86713399999999
 51
243.13286600000009
  0
LINE
  5
87
  8
0
 10
60.959520999999988
 20
64.829132999999985
 30
0.0
 11
60.959520999999988
 21
61.685437999999998
 31
0.0
  0
CIRCLE
  5
88
  8
0
 10
24.764778
 20
70.185438000000005
 30
0.0
 40
5.3245740000000001
  0
LINE
  5
89
  8
0
 10
130.459521
 20
73.685438000000005
 30
0.0
 11
130.459521
 21
66.685438000000005
 31
0.0
  0
LINE
  5
8A
  8
0
 10
94.959520999999995
 20
65.185438000000005
 30
0.0
 11
128.959521
 21
65.185438000000005
 31
0.0
  0
LINE
  5
8B
  8
3
 10
94.959520999999995
 20
65.997438000000002
 30
0.0
 11
129.77152100000001
 21
65.997438000000002
 31
0.0
  0
LINE
  5
8C
  8
3
 10
94.959520999999995
 20
74.373437999999993
 30
0.0
 11
129.77152100000001
 21
74.373437999999993
 31
0.0
  0
LINE
  5
8D
  8
0
 10
94.959520999999995
 20
75.185438000000005
 30
0.0
 11
128.959521
 21
75.185438000000005
 31
0.0
  0
LINE
  5
8E
  8
0
 10
128.959521
 20
75.185438000000005
 30
0.0
 11
130.459521
 21
73.685438000000005
 31
0.0
  0
LINE
  5
8F
  8
0
 10
130.459521
 20
66.685438000000005
 30
0.0
 11
128.959521
 21
65.185438000000005
 31
0.0
  0
LINE
  5
90
  8
0
 10
128.959521
 20
75.185438000000005
 30
0.0
 11
128.959521
 21
65.185438000000005
 31
0.0
  0
LINE
  5
91
  8
0
 10
128.959521
 20
113.317331
 30
0.0
 11
128.959521
 21
103.317331
 31
0.0
  0
LINE
  5
92
  8
0
 10
130.459521
 20
104.817331
 30
0.0
 11
128.959521
 21
103.317331
 31
0.0
  0
LINE
  5
93
  8
0
 10
128.959521
 20
113.317331
 30
0.0
 11
130.459521
 21
111.817331
 31
0.0
  0
LINE
  5
94
  8
0
 10
94.959520999999995
 20
113.317331
 30
0.0
 11
128.959521
 21
113.317331
 31
0.0
  0
LINE
  5
95
  8
3
 10
94.959520999999995
 20
112.505331
 30
0.0
 11
129.77152100000001
 21
112.505331
 31
0.0
  0
LINE
  5
96
  8
3
 10
94.959520999999995
 20
104.12933099999999
 30
0.0
 11
129.77152100000001
 21
104.12933099999999
 31
0.0
  0
LINE
  5
97
  8
0
 10
94.959520999999995
 20
103.317331
 30
0.0
 11
128.959521
 21
103.317331
 31
0.0
  0
LINE
  5
98
  8
0
 10
130.459521
 20
111.817331
 30
0.0
 11
130.459521
 21
104.817331
 31
0.0
  0
LINE
  5
99
  8
2
 10
31.164777999999998
 20
72.785437999999999
 30
0.0
 11
18.364778000000001
 21
72.785437999999999
 31
0.0
  0
LINE
  5
9A
  8
2
 10
31.164777999999998
 20
67.585437999999996
 30
0.0
 11
18.364778000000001
 21
67.585437999999996
 31
0.0
  0
LINE
  5
9B
  8
0
 10
31.664777999999998
 20
65.221568000000005
 30
0.0
 11
31.664777999999998
 21
75.149306999999993
 31
0.0
  0
LINE
  5
9C
  8
0
 10
17.864778000000001
 20
65.221568000000005
 30
0.0
 11
17.864778000000001
 21
75.149306999999993
 31
0.0
  0
LINE
  5
9D
  8
2
 10
31.664777999999998
 20
73.285437999999999
 30
0.0
 11
31.164777999999998
 21
72.785437999999999
 31
0.0
  0
LINE
  5
9E
  8
2
 10
31.164777999999998
 20
67.585437999999996
 30
0.0
 11
31.664777999999998
 21
67.085437999999996
 31
0.0
  0
LINE
  5
9F
  8
2
 10
17.864778000000001
 20
73.285437999999999
 30
0.0
 11
18.364778000000001
 21
72.785437999999999
 31
0.0
  0
LINE
  5
A0
  8
2
 10
18.364778000000001
 20
67.585437999999996
 30
0.0
 11
17.864778000000001
 21
67.085437999999996
 31
0.0
  0
LINE
  5
A1
  8
2
 10
31.164777999999998
 20
72.785437999999999
 30
0.0
 11
31.164777999999998
 21
67.585437999999996
 31
0.0
  0
LINE
  5
A2
  8
2
 10
18.364778000000001
 20
72.785437999999999
 30
0.0
 11
18.364778000000001
 21
67.585437999999996
 31
0.0
  0
CIRCLE
  5
A3
  8
0
 10
62.959521000000002
 20
70.185438000000005
 30
0.0
 40
2.6000000000000001
  0
LINE
  5
A4
  8
2
 10
60.359520999999987
 20
101.917331
 30
0.0
 11
65.559520999999975
 21
101.917331
 31
0.0
  0
LINE
  5
A5
  8
2
 10
60.359520999999987
 20
114.717331
 30
0.0
 11
65.559520999999975
 21
114.717331
 31
0.0
  0
LINE
  5
A6
  8
2
 10
65.559520999999975
 20
101.917331
 30
0.0
 11
66.059520999999989
 21
101.417331
 31
0.0
  0
LINE
  5
A7
  8
2
 10
59.859520999999987
 20
101.417331
 30
0.0
 11
60.359520999999987
 21
101.917331
 31
0.0
  0
LINE
  5
A8
  8
2
 10
65.559520999999975
 20
114.717331
 30
0.0
 11
66.059520999999989
 21
115.217331
 31
0.0
  0
LINE
  5
A9
  8
2
 10
59.859520999999987
 20
115.217331
 30
0.0
 11
60.359520999999987
 21
114.717331
 31
0.0
  0
LINE
  5
AA
  8
2
 10
65.559520999999975
 20
114.717331
 30
0.0
 11
65.559520999999975
 21
101.917331
 31
0.0
  0
LINE
  5
AB
  8
2
 10
60.359520999999987
 20
114.717331
 30
0.0
 11
60.359520999999987
 21
101.917331
 31
0.0
  0
LINE
  5
AC
  8
0
 10
57.668624999999999
 20
115.217331
 30
0.0
 11
72.132726000000005
 21
115.217331
 31
0.0
  0
LINE
  5
AD
  8
0
 10
57.668624999999999
 20
101.417331
 30
0.0
 11
72.132726000000005
 21
101.417331
 31
0.0
  0
LINE
  5
AE
  8
0
 10
57.668624999999999
 20
101.417331
 30
0.0
 11
55.459521000000002
 21
102.992757
 31
0.0
  0
LINE
  5
AF
  8
0
 10
57.668624999999999
 20
115.217331
 30
0.0
 11
55.459521000000002
 21
113.641904
 31
0.0
  0
LINE
  5
B0
  8
0
 10
57.668624999999999
 20
41.603760000000001
 30
0.0
 11
55.459521000000002
 21
40.028333000000003
 31
0.0
  0
LINE
  5
B1
  8
0
 10
57.668624999999999
 20
27.80376
 30
0.0
 11
55.459521000000002
 21
29.379186000000001
 31
0.0
  0
LINE
  5
B2
  8
0
 10
57.668624999999999
 20
27.80376
 30
0.0
 11
72.132726000000005
 21
27.80376
 31
0.0
  0
LINE
  5
B3
  8
0
 10
57.668624999999999
 20
41.603760000000001
 30
0.0
 11
72.132726000000005
 21
41.603760000000001
 31
0.0
  0
LINE
  5
B4
  8
2
 10
60.359520999999987
 20
41.103760000000001
 30
0.0
 11
60.359520999999987
 21
28.30376
 31
0.0
  0
LINE
  5
B5
  8
2
 10
65.559520999999975
 20
41.103760000000001
 30
0.0
 11
65.559520999999975
 21
28.30376
 31
0.0
  0
LINE
  5
B6
  8
2
 10
59.859520999999987
 20
41.603760000000001
 30
0.0
 11
60.359520999999987
 21
41.103760000000001
 31
0.0
  0
LINE
  5
B7
  8
2
 10
65.559520999999975
 20
41.103760000000001
 30
0.0
 11
66.059520999999989
 21
41.603760000000001
 31
0.0
  0
LINE
  5
B8
  8
2
 10
59.859520999999987
 20
27.80376
 30
0.0
 11
60.359520999999987
 21
28.30376
 31
0.0
  0
LINE
  5
B9
  8
2
 10
65.559520999999975
 20
28.30376
 30
0.0
 11
66.059520999999989
 21
27.80376
 31
0.0
  0
LINE
  5
BA
  8
2
 10
60.359520999999987
 20
41.103760000000001
 30
0.0
 11
65.559520999999975
 21
41.103760000000001
 31
0.0
  0
LINE
  5
BB
  8
2
 10
60.359520999999987
 20
28.30376
 30
0.0
 11
65.559520999999975
 21
28.30376
 31
0.0
  0
LINE
  5
BC
  8
0
 10
130.459521
 20
38.203759999999988
 30
0.0
 11
130.459521
 21
31.203759999999999
 31
0.0
  0
LINE
  5
BD
  8
0
 10
94.959520999999995
 20
29.703759999999999
 30
0.0
 11
128.959521
 21
29.703759999999999
 31
0.0
  0
LINE
  5
BE
  8
3
 10
94.959520999999995
 20
30.51576
 30
0.0
 11
129.77152100000001
 21
30.51576
 31
0.0
  0
LINE
  5
BF
  8
3
 10
94.959520999999995
 20
38.891759999999998
 30
0.0
 11
129.77152100000001
 21
38.891759999999998
 31
0.0
  0
LINE
  5
C0
  8
0
 10
94.959520999999995
 20
39.703760000000003
 30
0.0
 11
128.959521
 21
39.703760000000003
 31
0.0
  0
LINE
  5
C1
  8
0
 10
128.959521
 20
39.703760000000003
 30
0.0
 11
130.459521
 21
38.203759999999988
 31
0.0
  0
LINE
  5
C2
  8
0
 10
130.459521
 20
31.203759999999999
 30
0.0
 11
128.959521
 21
29.703759999999999
 31
0.0
  0
LINE
  5
C3
  8
0
 10
128.959521
 20
39.703760000000003
 30
0.0
 11
128.959521
 21
29.703759999999999
 31
0.0
  0
LINE
  5
C4
  8
0
 10
73.056487000000004
 20
26.203759999999999
 30
0.0
 11
80.459520999999995
 21
26.203759999999999
 31
0.0
  0
LINE
  5
C5
  8
0
 10
73.056487000000004
 20
26.203759999999999
 30
0.0
 11
72.132726000000005
 21
27.80376
 31
0.0
  0
LINE
  5
C6
  8
0
 10
73.056487000000004
 20
43.203759999999988
 30
0.0
 11
72.132726000000005
 21
41.603760000000001
 31
0.0
  0
LINE
  5
C7
  8
0
 10
55.459521000000002
 20
40.028333000000003
 30
0.0
 11
55.459521000000002
 21
29.379186000000001
 31
0.0
  0
LINE
  5
C8
  8
1
 10
52.959521000000002
 20
34.703760000000003
 30
0.0
 11
132.959521
 21
34.703760000000003
 31
0.0
  0
LINE
  5
C9
  8
0
 10
80.459520999999995
 20
43.203759999999988
 30
0.0
 11
80.459520999999995
 21
26.203759999999999
 31
0.0
  0
LINE
  5
CA
  8
0
 10
73.056487000000004
 20
43.203759999999988
 30
0.0
 11
80.459520999999995
 21
43.203759999999988
 31
0.0
  0
LINE
  5
CB
  8
3
 10
85.459520999999995
 20
30.51576
 30
0.0
 11
84.053095999999996
 21
29.703759999999999
 31
0.0
  0
LINE
  5
CC
  8
3
 10
85.459520999999995
 20
38.891759999999998
 30
0.0
 11
84.053095999999996
 21
39.703760000000003
 31
0.0
  0
LINE
  5
CD
  8
0
 10
85.459520999999995
 20
39.703760000000003
 30
0.0
 11
85.459520999999995
 21
29.703759999999999
 31
0.0
  0
LINE
  5
CE
  8
0
 10
81.459520999999995
 20
39.703760000000003
 30
0.0
 11
86.959520999999995
 21
39.703760000000003
 31
0.0
  0
LINE
  5
CF
  8
3
 10
85.459520999999995
 20
38.891759999999998
 30
0.0
 11
86.959520999999995
 21
38.891759999999998
 31
0.0
  0
LINE
  5
D0
  8
3
 10
85.459520999999995
 20
30.51576
 30
0.0
 11
86.959520999999995
 21
30.51576
 31
0.0
  0
ARC
  5
D1
  8
0
 10
81.459520999999995
 20
40.703759999999988
 30
0.0
 40
1.0
 50
180.0
 51
270.0
  0
LINE
  5
D2
  8
0
 10
60.959520999999988
 20
41.603760000000001
 30
0.0
 11
60.959520999999988
 21
27.80376
 31
0.0
  0
LINE
  5
D3
  8
1
 10
62.959521000000002
 20
46.303759999999997
 30
0.0
 11
62.959521000000002
 21
23.103760000000001
 31
0.0
  0
ARC
  5
D4
  8
0
 10
81.459520999999995
 20
28.703759999999999
 30
0.0
 40
1.0
 50
90.0
 51
180.0
  0
LINE
  5
D5
  8
0
 10
81.459520999999995
 20
29.703759999999999
 30
0.0
 11
86.959520999999995
 21
29.703759999999999
 31
0.0
  0
LINE
  5
D6
  8
0
 10
87.103859
 20
26.203759999999999
 30
0.0
 11
86.959520999999995
 21
26.453759999999999
 31
0.0
  0
ARC
  5
D7
  8
0
 10
99.379365000000007
 20
30.453759999999999
 30
0.0
 40
12.275506999999999
 50
159.743842
 51
200.256158
  0
LINE
  5
D8
  8
0
 10
94.959520999999995
 20
26.203759999999999
 30
0.0
 11
87.103859
 21
26.203759999999999
 31
0.0
  0
LINE
  5
D9
  8
0
 10
94.959520999999995
 20
34.703760000000003
 30
0.0
 11
87.863047999999992
 21
34.703760000000003
 31
0.0
  0
LINE
  5
DA
  8
0
 10
94.959520999999995
 20
43.203759999999988
 30
0.0
 11
87.103859
 21
43.203759999999988
 31
0.0
  0
LINE
  5
DB
  8
0
 10
87.103859
 20
43.203759999999988
 30
0.0
 11
86.959520999999995
 21
42.953760000000003
 31
0.0
  0
ARC
  5
DC
  8
0
 10
99.379365000000007
 20
38.953760000000003
 30
0.0
 40
12.275506999999999
 50
159.743842
 51
200.256158
  0
LINE
  5
DD
  8
0
 10
86.959520999999995
 20
42.953760000000003
 30
0.0
 11
86.959520999999995
 21
26.453759999999999
 31
0.0
  0
LINE
  5
DE
  8
0
 10
94.959520999999995
 20
43.203759999999988
 30
0.0
 11
94.959520999999995
 21
26.203759999999999
 31
0.0
  0
TEXT
  5
1F6
  8
0
 62
     3
 10
0.0
 20
0.0
 30
0.0
 40
10.0
  1
CBS1-50-SUS
  7
STANDARD1
  0
ENDSEC
  0
EOF
