  0
SECTION
  2
HEADER
  9
$ACADVER
  1
AC1009
  9
$INSBASE
 10
82.638099999999994
 20
103.82319099999999
 30
0.0
  9
$EXTMIN
 10
0.0
 20
-1.4802182810368341
 30
0.0
  9
$EXTMAX
 10
128.50000012510759
 20
122.314955
 30
0.0
  9
$LIMMIN
 10
0.0
 20
0.0
  9
$LIMMAX
 10
187.5
 20
135.0
  9
$ORTHOMODE
 70
     0
  9
$REGENMODE
 70
     1
  9
$FILLMODE
 70
     1
  9
$QTEXTMODE
 70
     0
  9
$MIRRTEXT
 70
     0
  9
$DRAGMODE
 70
     2
  9
$LTSCALE
 40
5.0
  9
$OSMODE
 70
  3071
  9
$ATTMODE
 70
     1
  9
$TEXTSIZE
 40
0.06
  9
$TRACEWID
 40
0.05
  9
$TEXTSTYLE
  7
STANDARD
  9
$CLAYER
  8
0
  9
$CELTYPE
  6
BYLAYER
  9
$CECOLOR
 62
   256
  9
$DIMSCALE
 40
0.5
  9
$DIMASZ
 40
3.0
  9
$DIMEXO
 40
2.0
  9
$DIMDLI
 40
10.0
  9
$DIMRND
 40
0.0
  9
$DIMDLE
 40
0.0
  9
$DIMEXE
 40
2.0
  9
$DIMTP
 40
0.0
  9
$DIMTM
 40
0.0
  9
$DIMTXT
 40
3.0
  9
$DIMCEN
 40
0.0
  9
$DIMTSZ
 40
0.0
  9
$DIMTOL
 70
     0
  9
$DIMLIM
 70
     0
  9
$DIMTIH
 70
     0
  9
$DIMTOH
 70
     0
  9
$DIMSE1
 70
     0
  9
$DIMSE2
 70
     0
  9
$DIMTAD
 70
     1
  9
$DIMZIN
 70
     0
  9
$DIMBLK
  1

  9
$DIMASO
 70
     0
  9
$DIMSHO
 70
     0
  9
$DIMPOST
  1

  9
$DIMAPOST
  1

  9
$DIMALT
 70
     0
  9
$DIMALTD
 70
     2
  9
$DIMALTF
 40
25.399999999999999
  9
$DIMLFAC
 40
1.0
  9
$DIMTOFL
 70
     1
  9
$DIMTVP
 40
1.6000000000000001
  9
$DIMTIX
 70
     1
  9
$DIMSOXD
 70
     0
  9
$DIMSAH
 70
     0
  9
$DIMBLK1
  1

  9
$DIMBLK2
  1

  9
$DIMSTYLE
  2
STANDARD
  9
$DIMCLRD
 70
     0
  9
$DIMCLRE
 70
     0
  9
$DIMCLRT
 70
     0
  9
$DIMTFAC
 40
1.0
  9
$DIMGAP
 40
0.09
  9
$LUNITS
 70
     2
  9
$LUPREC
 70
     4
  9
$SKETCHINC
 40
0.1
  9
$FILLETRAD
 40
0.4
  9
$AUNITS
 70
     0
  9
$AUPREC
 70
     4
  9
$MENU
  1
E:\r13\win\SUPPORT\ACAD
  9
$ELEVATION
 40
0.0
  9
$PELEVATION
 40
0.0
  9
$THICKNESS
 40
0.0
  9
$LIMCHECK
 70
     0
  9
$BLIPMODE
 70
     0
  9
$CHAMFERA
 40
0.0
  9
$CHAMFERB
 40
0.0
  9
$SKPOLY
 70
     0
  9
$TDCREATE
 40
2449840.5905092591
  9
$TDUPDATE
 40
2456598.4710388891
  9
$TDINDWG
 40
0.0009698843
  9
$TDUSRTIMER
 40
0.0009698843
  9
$USRTIMER
 70
     1
  9
$ANGBASE
 50
0.0
  9
$ANGDIR
 70
     0
  9
$PDMODE
 70
     0
  9
$PDSIZE
 40
0.0
  9
$PLINEWID
 40
0.0
  9
$COORDS
 70
     1
  9
$SPLFRAME
 70
     0
  9
$SPLINETYPE
 70
     6
  9
$SPLINESEGS
 70
     8
  9
$ATTDIA
 70
     0
  9
$ATTREQ
 70
     1
  9
$HANDLING
 70
     1
  9
$HANDSEED
  5
271
  9
$SURFTAB1
 70
     6
  9
$SURFTAB2
 70
     6
  9
$SURFTYPE
 70
     6
  9
$SURFU
 70
     6
  9
$SURFV
 70
     6
  9
$UCSNAME
  2

  9
$UCSORG
 10
0.0
 20
0.0
 30
0.0
  9
$UCSXDIR
 10
1.0
 20
0.0
 30
0.0
  9
$UCSYDIR
 10
0.0
 20
1.0
 30
0.0
  9
$PUCSNAME
  2

  9
$PUCSORG
 10
0.0
 20
0.0
 30
0.0
  9
$PUCSXDIR
 10
1.0
 20
0.0
 30
0.0
  9
$PUCSYDIR
 10
0.0
 20
1.0
 30
0.0
  9
$USERI1
 70
     3
  9
$USERI2
 70
     1
  9
$USERI3
 70
     0
  9
$USERI4
 70
     0
  9
$USERI5
 70
     0
  9
$USERR1
 40
0.5
  9
$USERR2
 40
3.0
  9
$USERR3
 40
3.0
  9
$USERR4
 40
3.0
  9
$USERR5
 40
10.0
  9
$WORLDVIEW
 70
     1
  9
$SHADEDGE
 70
     3
  9
$SHADEDIF
 70
    70
  9
$TILEMODE
 70
     1
  9
$MAXACTVP
 70
    16
  9
$PLIMCHECK
 70
     0
  9
$PEXTMIN
 10
1.0000000000000000E+020
 20
1.0000000000000000E+020
 30
1.0000000000000000E+020
  9
$PEXTMAX
 10
-1.0000000000000000E+020
 20
-1.0000000000000000E+020
 30
-1.0000000000000000E+020
  9
$PLIMMIN
 10
0.0
 20
0.0
  9
$PLIMMAX
 10
12.0
 20
9.0
  9
$UNITMODE
 70
     0
  9
$VISRETAIN
 70
     0
  9
$PLINEGEN
 70
     0
  9
$PSLTSCALE
 70
     0
  0
ENDSEC
  0
SECTION
  2
TABLES
  0
TABLE
  2
VPORT
 70
     1
  0
VPORT
  2
*ACTIVE
 70
     0
 10
0.0
 20
0.0
 11
1.0
 21
1.0
 12
97.52905416604365
 22
66.75636307133405
 13
0.0
 23
0.0
 14
5.0
 24
5.0
 15
10.0
 25
10.0
 16
0.0
 26
0.0
 36
1.0
 17
0.0
 27
0.0
 37
0.0
 40
137.71137496815999
 41
1.831871345029239
 42
50.0
 43
0.0
 44
0.0
 50
0.0
 51
0.0
 71
     0
 72
   100
 73
     1
 74
     0
 75
     0
 76
     0
 77
     0
 78
     2
  0
ENDTAB
  0
TABLE
  2
LTYPE
 70
     3
  0
LTYPE
  2
CONTINUOUS
 70
     0
  3
Solid Line
 72
    65
 73
     0
 40
0.0
  0
LTYPE
  2
CENTER
 70
     0
  3
____ _ ____ _ ____ _ ____ _ ____ _ ____ _ ____
 72
    65
 73
     4
 40
2.0
 49
1.25
 49
-0.25
 49
0.25
 49
-0.25
  0
LTYPE
  2
PHANTOM2
 70
     0
  3
___ _ _ ___ _ _ ___ _ _ ___ _ _
 72
    65
 73
     6
 40
1.25
 49
0.625
 49
-0.125
 49
0.125
 49
-0.125
 49
0.125
 49
-0.125
  0
ENDTAB
  0
TABLE
  2
LAYER
 70
     3
  0
LAYER
  2
0
 70
     0
 62
     7
  6
CONTINUOUS
  0
LAYER
  2
1
 70
     0
 62
     1
  6
CENTER
  0
LAYER
  2
3
 70
     0
 62
     3
  6
CONTINUOUS
  0
ENDTAB
  0
TABLE
  2
STYLE
 70
     2
  0
STYLE
  2
STANDARD
 70
     0
 40
0.0
 41
1.0
 50
0.0
 71
     0
 42
0.06
  3
TXT
  4
BIGFONT
  0
STYLE
  2
STANDARD1
 70
     0
 40
0.0
 41
1.0
 50
0.0
 71
     0
 42
3.0
  3
txt
  4

  0
ENDTAB
  0
TABLE
  2
VIEW
 70
     0
  0
ENDTAB
  0
TABLE
  2
UCS
 70
     0
  0
ENDTAB
  0
TABLE
  2
APPID
 70
     3
  0
APPID
  2
ACAD
 70
     0
  0
APPID
  2
ACAD_MLEADERVER
 70
     0
  0
APPID
  2
ACAD_NAV_VCDISPLAY
 70
     0
  0
ENDTAB
  0
TABLE
  2
DIMSTYLE
 70
     1
  0
DIMSTYLE
  2
STANDARD
 70
     0
  3

  4

  5

  6

  7

 40
1.0
 41
0.18
 42
0.0625
 43
0.38
 44
0.18
 45
0.0
 46
0.0
 47
0.0
 48
0.0
140
0.18
141
0.09
142
0.0
143
25.399999999999999
144
1.0
145
0.0
146
1.0
147
0.09
 71
     0
 72
     0
 73
     1
 74
     1
 75
     0
 76
     0
 77
     0
 78
     0
170
     0
171
     2
172
     0
173
     0
174
     0
175
     0
176
     0
177
     0
178
     0
  0
ENDTAB
  0
ENDSEC
  0
SECTION
  2
BLOCKS
  0
BLOCK
  8
0
  2
$MODEL_SPACE
 70
     0
 10
0.0
 20
0.0
 30
0.0
  3
$MODEL_SPACE
  1

  0
ENDBLK
  5
12B
  8
0
  0
BLOCK
 67
     1
  8
0
  2
$PAPER_SPACE
 70
     0
 10
0.0
 20
0.0
 30
0.0
  3
$PAPER_SPACE
  1

  0
ENDBLK
  5
129
 67
     1
  8
0
  0
BLOCK
  8
0
  2
STDGX5
 70
     0
 10
0.0
 20
0.0
 30
0.0
  3
STDGX5
  1

  0
ENDBLK
  5
2B
  8
0
  0
ENDSEC
  0
SECTION
  2
ENTITIES
  0
INSERT
  5
37
  8
0
  2
STDGX5
 10
0.0
 20
0.0
 30
0.0
  0
INSERT
  5
41
  8
0
  2
STDGX5
 10
0.0
 20
0.0
 30
0.0
  0
INSERT
  5
42
  8
0
  2
STDGX5
 10
0.0
 20
0.0
 30
0.0
  0
LINE
  5
43
  8
1
 10
80.0
 20
18.0
 30
0.0
 11
80.0
 21
89.0
 31
0.0
  0
LINE
  5
44
  8
0
 10
71.5
 20
70.0
 30
0.0
 11
88.499999999999986
 21
70.0
 31
0.0
  0
LINE
  5
45
  8
0
 10
76.5
 20
20.0
 30
0.0
 11
83.499999999999986
 21
20.0
 31
0.0
  0
LINE
  5
46
  8
0
 10
70.185045000000002
 20
82.240810999999994
 30
0.0
 11
70.185045000000002
 21
70.759189000000006
 31
0.0
  0
LINE
  5
47
  8
0
 10
75.092522999999986
 20
82.240810999999994
 30
0.0
 11
75.092522999999986
 21
70.759189000000006
 31
0.0
  0
LINE
  5
48
  8
0
 10
71.5
 20
83.0
 30
0.0
 11
88.475999999999985
 21
83.0
 31
0.0
  0
LINE
  5
49
  8
0
 10
71.5
 20
83.0
 30
0.0
 11
70.185045000000002
 21
82.240810999999994
 31
0.0
  0
ARC
  5
4A
  8
0
 10
72.638784000000001
 20
78.655101000000002
 30
0.0
 40
4.344898999999999
 50
55.615753000000012
 51
115.615753
  0
ARC
  5
4B
  8
0
 10
80.0
 20
66.759189000000006
 30
0.0
 40
16.24081099999999
 50
72.412045999999989
 51
107.587954
  0
ARC
  5
4C
  8
0
 10
87.361215999999999
 20
78.655101000000002
 30
0.0
 40
4.344898999999999
 50
64.384247000000002
 51
124.384247
  0
LINE
  5
4D
  8
0
 10
88.499999999999986
 20
83.0
 30
0.0
 11
89.814954999999983
 21
82.240810999999994
 31
0.0
  0
LINE
  5
4E
  8
0
 10
84.907477
 20
82.240810999999994
 30
0.0
 11
84.907477
 21
70.759189000000006
 31
0.0
  0
LINE
  5
4F
  8
0
 10
89.814954999999983
 20
82.240810999999994
 30
0.0
 11
89.814954999999983
 21
70.759189000000006
 31
0.0
  0
LINE
  5
50
  8
0
 10
75.0
 20
67.0
 30
0.0
 11
75.0
 21
21.5
 31
0.0
  0
LINE
  5
51
  8
3
 10
75.811999999999983
 20
68.406424999999999
 30
0.0
 11
75.811999999999983
 21
20.687999999999999
 31
0.0
  0
LINE
  5
52
  8
3
 10
84.187999999999988
 20
68.406424999999999
 30
0.0
 11
84.187999999999988
 21
20.687999999999999
 31
0.0
  0
LINE
  5
53
  8
0
 10
85.0
 20
67.0
 30
0.0
 11
85.0
 21
21.5
 31
0.0
  0
LINE
  5
54
  8
0
 10
75.0
 20
21.5
 30
0.0
 11
76.5
 21
20.0
 31
0.0
  0
LINE
  5
55
  8
0
 10
83.499999999999986
 20
20.0
 30
0.0
 11
85.0
 21
21.5
 31
0.0
  0
LINE
  5
56
  8
0
 10
75.0
 20
21.5
 30
0.0
 11
85.0
 21
21.5
 31
0.0
  0
LINE
  5
57
  8
1
 10
67.685045000000002
 20
110.0
 30
0.0
 11
92.314954999999983
 21
110.0
 31
0.0
  0
LINE
  5
58
  8
0
 10
84.907477
 20
101.5
 30
0.0
 11
89.814954999999983
 21
110.0
 31
0.0
  0
LINE
  5
59
  8
0
 10
89.814954999999983
 20
110.0
 30
0.0
 11
84.907477
 21
118.5
 31
0.0
  0
LINE
  5
5A
  8
0
 10
84.907477
 20
118.5
 30
0.0
 11
75.092522999999986
 21
118.5
 31
0.0
  0
LINE
  5
5B
  8
0
 10
75.092522999999986
 20
118.5
 30
0.0
 11
70.185045000000002
 21
110.0
 31
0.0
  0
LINE
  5
5C
  8
0
 10
70.185045000000002
 20
110.0
 30
0.0
 11
75.092522999999986
 21
101.5
 31
0.0
  0
LINE
  5
5D
  8
0
 10
75.092522999999986
 20
101.5
 30
0.0
 11
84.907477
 21
101.5
 31
0.0
  0
CIRCLE
  5
5E
  8
0
 10
80.0
 20
110.0
 30
0.0
 40
8.5
  0
LINE
  5
5F
  8
1
 10
80.0
 20
97.685045000000002
 30
0.0
 11
80.0
 21
122.314955
 31
0.0
  0
LINE
  5
60
  8
0
 10
112.814955
 20
83.0
 30
0.0
 11
111.5
 21
82.240810999999994
 31
0.0
  0
LINE
  5
61
  8
0
 10
127.185045
 20
83.0
 30
0.0
 11
128.5
 21
82.240810999999994
 31
0.0
  0
LINE
  5
62
  8
1
 10
120.0
 20
18.0
 30
0.0
 11
120.0
 21
89.0
 31
0.0
  0
LINE
  5
63
  8
0
 10
116.5
 20
20.0
 30
0.0
 11
123.5
 21
20.0
 31
0.0
  0
LINE
  5
64
  8
0
 10
115.0
 20
67.0
 30
0.0
 11
115.0
 21
21.5
 31
0.0
  0
LINE
  5
65
  8
3
 10
115.812
 20
68.406424999999999
 30
0.0
 11
115.812
 21
20.687999999999999
 31
0.0
  0
LINE
  5
66
  8
3
 10
124.188
 20
68.406424999999999
 30
0.0
 11
124.188
 21
20.687999999999999
 31
0.0
  0
LINE
  5
67
  8
0
 10
125.0
 20
67.0
 30
0.0
 11
125.0
 21
21.5
 31
0.0
  0
LINE
  5
68
  8
0
 10
115.0
 20
21.5
 30
0.0
 11
116.5
 21
20.0
 31
0.0
  0
LINE
  5
69
  8
0
 10
123.5
 20
20.0
 30
0.0
 11
125.0
 21
21.5
 31
0.0
  0
LINE
  5
6A
  8
0
 10
115.0
 20
21.5
 30
0.0
 11
125.0
 21
21.5
 31
0.0
  0
ARC
  5
6B
  8
0
 10
124.25
 20
70.72449300000001
 30
0.0
 40
12.275506999999999
 50
69.743842000000001
 51
110.256158
  0
ARC
  5
6C
  8
0
 10
115.75
 20
70.72449300000001
 30
0.0
 40
12.275506999999999
 50
69.743842000000001
 51
110.256158
  0
LINE
  5
6D
  8
0
 10
120.0
 20
82.240810999999994
 30
0.0
 11
120.0
 21
70.759189000000006
 31
0.0
  0
LINE
  5
6E
  8
0
 10
112.814955
 20
83.0
 30
0.0
 11
127.185045
 21
83.0
 31
0.0
  0
LINE
  5
6F
  8
0
 10
112.814955
 20
70.0
 30
0.0
 11
127.185045
 21
70.0
 31
0.0
  0
LINE
  5
70
  8
0
 10
128.5
 20
82.240810999999994
 30
0.0
 11
128.5
 21
70.759189000000006
 31
0.0
  0
LINE
  5
71
  8
0
 10
111.5
 20
82.240810999999994
 30
0.0
 11
111.5
 21
70.759189000000006
 31
0.0
  0
LINE
  5
72
  8
0
 10
85.0
 20
67.0
 30
0.0
 11
83.849999999999994
 21
68.991857999999993
 31
0.0
  0
LINE
  5
73
  8
0
 10
83.849999999999994
 20
68.991857999999993
 30
0.0
 11
83.849999999999994
 21
69.599999999999994
 31
0.0
  0
ARC
  5
74
  8
0
 10
84.25
 20
69.599999999999994
 30
0.0
 40
0.4
 50
90.0
 51
180.0
  0
ARC
  5
75
  8
0
 10
75.75
 20
69.599999999999994
 30
0.0
 40
0.4
 50
0.0
 51
90.0
  0
LINE
  5
76
  8
0
 10
76.150000000000006
 20
68.991857999999993
 30
0.0
 11
76.150000000000006
 21
69.599999999999994
 31
0.0
  0
LINE
  5
77
  8
0
 10
75.0
 20
67.0
 30
0.0
 11
76.150000000000006
 21
68.991857999999993
 31
0.0
  0
LINE
  5
78
  8
0
 10
75.0
 20
67.0
 30
0.0
 11
85.0
 21
67.0
 31
0.0
  0
LINE
  5
79
  8
0
 10
115.0
 20
67.0
 30
0.0
 11
125.0
 21
67.0
 31
0.0
  0
LINE
  5
7A
  8
0
 10
115.0
 20
67.0
 30
0.0
 11
116.15000000000001
 21
68.991857999999993
 31
0.0
  0
LINE
  5
7B
  8
0
 10
116.15000000000001
 20
68.991857999999993
 30
0.0
 11
116.15000000000001
 21
69.599999999999994
 31
0.0
  0
ARC
  5
7C
  8
0
 10
115.75
 20
69.599999999999994
 30
0.0
 40
0.4
 50
0.0
 51
90.0
  0
ARC
  5
7D
  8
0
 10
124.25
 20
69.599999999999994
 30
0.0
 40
0.4
 50
90.0
 51
180.0
  0
LINE
  5
7E
  8
0
 10
123.84999999999999
 20
68.991857999999993
 30
0.0
 11
123.84999999999999
 21
69.599999999999994
 31
0.0
  0
LINE
  5
7F
  8
0
 10
125.0
 20
67.0
 30
0.0
 11
123.84999999999999
 21
68.991857999999993
 31
0.0
  0
LINE
  5
80
  8
0
 10
85.0
 20
86.284999999999997
 30
0.0
 11
85.0
 21
84.500000000000014
 31
0.0
  0
LINE
  5
81
  8
0
 10
75.0
 20
86.284999999999997
 30
0.0
 11
75.0
 21
84.500000000000014
 31
0.0
  0
LINE
  5
82
  8
0
 10
81.143000000000001
 20
87.0
 30
0.0
 11
80.0
 21
85.856999999999999
 31
0.0
  0
LINE
  5
83
  8
0
 10
80.0
 20
85.856999999999999
 30
0.0
 11
78.856999999999985
 21
87.0
 31
0.0
  0
LINE
  5
84
  8
0
 10
82.286000000000001
 20
85.856999999999999
 30
0.0
 11
81.143000000000001
 21
87.0
 31
0.0
  0
LINE
  5
85
  8
0
 10
83.429000000000002
 20
87.0
 30
0.0
 11
82.286000000000001
 21
85.856999999999999
 31
0.0
  0
LINE
  5
86
  8
0
 10
84.572000000000003
 20
85.856999999999999
 30
0.0
 11
83.429000000000002
 21
87.0
 31
0.0
  0
LINE
  5
87
  8
0
 10
76.570999999999984
 20
87.0
 30
0.0
 11
77.713999999999984
 21
85.856999999999999
 31
0.0
  0
LINE
  5
88
  8
0
 10
77.713999999999984
 20
85.856999999999999
 30
0.0
 11
78.856999999999985
 21
87.0
 31
0.0
  0
LINE
  5
89
  8
0
 10
78.856999999999985
 20
87.0
 30
0.0
 11
80.0
 21
85.856999999999999
 31
0.0
  0
LINE
  5
8A
  8
0
 10
85.0
 20
86.284999999999997
 30
0.0
 11
84.572000000000003
 21
85.856999999999999
 31
0.0
  0
LINE
  5
8B
  8
0
 10
75.0
 20
86.284999999999997
 30
0.0
 11
75.427999999999983
 21
85.856999999999999
 31
0.0
  0
LINE
  5
8C
  8
0
 10
75.427999999999983
 20
85.856999999999999
 30
0.0
 11
76.570999999999984
 21
87.0
 31
0.0
  0
ARC
  5
8D
  8
0
 10
80.0
 20
80.599999999999994
 30
0.0
 40
6.5
 50
143.13010199999999
 51
158.33181500000001
  0
LINE
  5
8E
  8
0
 10
74.799999999999997
 20
84.500000000000014
 30
0.0
 11
85.200000000000017
 21
84.500000000000014
 31
0.0
  0
ARC
  5
8F
  8
0
 10
80.0
 20
80.599999999999994
 30
0.0
 40
6.5
 50
21.668185000000001
 51
36.869897999999999
  0
ARC
  5
90
  8
0
 10
72.638784000000001
 20
74.344898999999984
 30
0.0
 40
4.344898999999999
 50
244.38424699999999
 51
304.38424700000002
  0
ARC
  5
91
  8
0
 10
80.0
 20
86.240810999999994
 30
0.0
 40
16.24081099999999
 50
252.412046
 51
287.58795400000002
  0
ARC
  5
92
  8
0
 10
87.361215999999999
 20
74.344898999999984
 30
0.0
 40
4.344898999999999
 50
235.61575300000001
 51
295.61575299999998
  0
LINE
  5
93
  8
0
 10
88.499999999999986
 20
70.0
 30
0.0
 11
89.814954999999983
 21
70.759189000000006
 31
0.0
  0
LINE
  5
94
  8
0
 10
71.5
 20
70.0
 30
0.0
 11
70.185045000000002
 21
70.759189000000006
 31
0.0
  0
ARC
  5
95
  8
0
 10
115.75
 20
82.275507000000005
 30
0.0
 40
12.275506999999999
 50
249.743842
 51
290.25615800000003
  0
LINE
  5
96
  8
0
 10
112.814955
 20
70.0
 30
0.0
 11
111.5
 21
70.759189000000006
 31
0.0
  0
ARC
  5
97
  8
0
 10
124.25
 20
82.275507000000005
 30
0.0
 40
12.275506999999999
 50
249.743842
 51
290.25615800000003
  0
LINE
  5
98
  8
0
 10
127.185045
 20
70.0
 30
0.0
 11
128.5
 21
70.759189000000006
 31
0.0
  0
ARC
  5
99
  8
0
 10
120.0
 20
80.599999999999994
 30
0.0
 40
6.5
 50
21.668185000000001
 51
36.869897999999999
  0
LINE
  5
9A
  8
0
 10
114.8
 20
84.500000000000014
 30
0.0
 11
125.2
 21
84.500000000000014
 31
0.0
  0
ARC
  5
9B
  8
0
 10
120.0
 20
80.599999999999994
 30
0.0
 40
6.5
 50
143.13010199999999
 51
158.33181500000001
  0
LINE
  5
9C
  8
0
 10
115.428
 20
85.856999999999999
 30
0.0
 11
116.571
 21
87.0
 31
0.0
  0
LINE
  5
9D
  8
0
 10
115.0
 20
86.284999999999997
 30
0.0
 11
115.428
 21
85.856999999999999
 31
0.0
  0
LINE
  5
9E
  8
0
 10
125.0
 20
86.284999999999997
 30
0.0
 11
124.572
 21
85.856999999999999
 31
0.0
  0
LINE
  5
9F
  8
0
 10
118.857
 20
87.0
 30
0.0
 11
120.0
 21
85.856999999999999
 31
0.0
  0
LINE
  5
A0
  8
0
 10
117.714
 20
85.856999999999999
 30
0.0
 11
118.857
 21
87.0
 31
0.0
  0
LINE
  5
A1
  8
0
 10
116.571
 20
87.0
 30
0.0
 11
117.714
 21
85.856999999999999
 31
0.0
  0
LINE
  5
A2
  8
0
 10
124.572
 20
85.856999999999999
 30
0.0
 11
123.429
 21
87.0
 31
0.0
  0
LINE
  5
A3
  8
0
 10
123.429
 20
87.0
 30
0.0
 11
122.286
 21
85.856999999999999
 31
0.0
  0
LINE
  5
A4
  8
0
 10
122.286
 20
85.856999999999999
 30
0.0
 11
121.143
 21
87.0
 31
0.0
  0
LINE
  5
A5
  8
0
 10
120.0
 20
85.856999999999999
 30
0.0
 11
118.857
 21
87.0
 31
0.0
  0
LINE
  5
A6
  8
0
 10
121.143
 20
87.0
 30
0.0
 11
120.0
 21
85.856999999999999
 31
0.0
  0
LINE
  5
A7
  8
0
 10
115.0
 20
86.284999999999997
 30
0.0
 11
115.0
 21
84.500000000000014
 31
0.0
  0
LINE
  5
A8
  8
0
 10
125.0
 20
86.284999999999997
 30
0.0
 11
125.0
 21
84.500000000000014
 31
0.0
  0
CIRCLE
  5
A9
  8
0
 10
80.0
 20
110.0
 30
0.0
 40
5.0
  0
CIRCLE
  5
AA
  8
0
 10
80.0
 20
110.0
 30
0.0
 40
2.0669999999999988
  0
CIRCLE
  5
AB
  8
3
 10
80.0
 20
110.0
 30
0.0
 40
2.5
  0
LINE
  5
AC
  8
3
 10
77.713999999999984
 20
105.55318
 30
0.0
 11
77.713999999999984
 21
114.44682
 31
0.0
  0
LINE
  5
AD
  8
3
 10
80.0
 20
105.0
 30
0.0
 11
80.0
 21
107.93300000000001
 31
0.0
  0
LINE
  5
AE
  8
3
 10
82.286000000000001
 20
105.55318
 30
0.0
 11
82.286000000000001
 21
114.44682
 31
0.0
  0
LINE
  5
AF
  8
3
 10
84.572000000000003
 20
107.97594100000001
 30
0.0
 11
84.572000000000003
 21
112.02405899999999
 31
0.0
  0
LINE
  5
B0
  8
3
 10
75.427999999999983
 20
107.97594100000001
 30
0.0
 11
75.427999999999983
 21
112.02405899999999
 31
0.0
  0
LINE
  5
B1
  8
3
 10
80.0
 20
112.06699999999999
 30
0.0
 11
80.0
 21
115.0
 31
0.0
  0
LINE
  5
B2
  8
3
 10
82.024058999999994
 20
114.572
 30
0.0
 11
77.975941000000006
 21
114.572
 31
0.0
  0
LINE
  5
B3
  8
3
 10
84.446820000000002
 20
112.286
 30
0.0
 11
75.553179999999983
 21
112.286
 31
0.0
  0
LINE
  5
B4
  8
3
 10
85.0
 20
110.0
 30
0.0
 11
82.067000000000007
 21
110.0
 31
0.0
  0
LINE
  5
B5
  8
3
 10
84.446820000000002
 20
107.714
 30
0.0
 11
75.553179999999983
 21
107.714
 31
0.0
  0
LINE
  5
B6
  8
3
 10
82.024058999999994
 20
105.428
 30
0.0
 11
77.975941000000006
 21
105.428
 31
0.0
  0
LINE
  5
B7
  8
3
 10
77.933000000000007
 20
110.0
 30
0.0
 11
75.0
 21
110.0
 31
0.0
  0
LINE
  5
B8
  8
3
 10
84.983073000000005
 20
109.588927
 30
0.0
 11
79.588926999999984
 21
114.983073
 31
0.0
  0
LINE
  5
B9
  8
3
 10
84.488675999999984
 20
107.797324
 30
0.0
 11
82.053931000000006
 21
110.232069
 31
0.0
  0
LINE
  5
BA
  8
3
 10
83.535533999999998
 20
106.464466
 30
0.0
 11
81.461590000000001
 21
108.53841
 31
0.0
  0
LINE
  5
BB
  8
3
 10
75.511324000000002
 20
112.202676
 30
0.0
 11
77.946068999999994
 21
109.767931
 31
0.0
  0
LINE
  5
BC
  8
3
 10
80.411073000000002
 20
105.016927
 30
0.0
 11
75.016926999999995
 21
110.411073
 31
0.0
  0
LINE
  5
BD
  8
3
 10
84.290369999999996
 20
112.56762999999999
 30
0.0
 11
82.567630000000008
 21
114.29037
 31
0.0
  0
LINE
  5
BE
  8
3
 10
77.432369999999992
 20
105.70963
 30
0.0
 11
75.709630000000004
 21
107.43237000000001
 31
0.0
  0
LINE
  5
BF
  8
3
 10
80.232068999999996
 20
112.05393100000001
 30
0.0
 11
77.797324000000003
 21
114.488676
 31
0.0
  0
LINE
  5
C0
  8
3
 10
78.538409999999999
 20
111.46159
 30
0.0
 11
76.464466000000002
 21
113.535534
 31
0.0
  0
LINE
  5
C1
  8
3
 10
79.767931000000004
 20
107.94606899999999
 30
0.0
 11
82.202675999999997
 21
105.511324
 31
0.0
  0
LINE
  5
C2
  8
3
 10
84.290369999999996
 20
107.43237000000001
 30
0.0
 11
82.567630000000008
 21
105.70963
 31
0.0
  0
LINE
  5
C3
  8
3
 10
84.983073000000005
 20
110.411073
 30
0.0
 11
79.588926999999984
 21
105.016927
 31
0.0
  0
LINE
  5
C4
  8
3
 10
84.488675999999984
 20
112.202676
 30
0.0
 11
82.053931000000006
 21
109.767931
 31
0.0
  0
LINE
  5
C5
  8
3
 10
83.535533999999998
 20
113.535534
 30
0.0
 11
81.461590000000001
 21
111.46159
 31
0.0
  0
LINE
  5
C6
  8
3
 10
79.767931000000004
 20
112.05393100000001
 30
0.0
 11
82.202675999999997
 21
114.488676
 31
0.0
  0
LINE
  5
C7
  8
3
 10
80.411073000000002
 20
114.983073
 30
0.0
 11
75.016926999999995
 21
109.588927
 31
0.0
  0
LINE
  5
C8
  8
3
 10
77.432369999999992
 20
114.29037
 30
0.0
 11
75.709630000000004
 21
112.56762999999999
 31
0.0
  0
LINE
  5
C9
  8
3
 10
75.511324000000002
 20
107.797324
 30
0.0
 11
77.946068999999994
 21
110.232069
 31
0.0
  0
LINE
  5
CA
  8
3
 10
78.538409999999999
 20
108.53841
 30
0.0
 11
76.464466000000002
 21
106.464466
 31
0.0
  0
LINE
  5
CB
  8
3
 10
80.232068999999996
 20
107.94606899999999
 30
0.0
 11
77.797324000000003
 21
105.511324
 31
0.0
  0
CIRCLE
  5
CC
  8
0
 10
80.0
 20
110.0
 30
0.0
 40
6.5
  0
TEXT
  5
1E2
  8
0
 62
     3
 10
0.0
 20
0.0
 30
0.0
 40
5.0
  1
BUH-10050-S
  7
STANDARD1
  0
ENDSEC
  0
EOF
