  0
SECTION
  2
HEADER
  9
$ACADVER
  1
AC1009
  9
$INSBASE
 10
0.0
 20
0.0
 30
0.0
  9
$EXTMIN
 10
0.0
 20
-1.4802182810368341
 30
0.0
  9
$EXTMAX
 10
119.7419780002564
 20
62.715227122899847
 30
0.0
  9
$LIMMIN
 10
0.0
 20
0.0
  9
$LIMMAX
 10
187.5
 20
135.0
  9
$ORTHOMODE
 70
     1
  9
$REGENMODE
 70
     1
  9
$FILLMODE
 70
     1
  9
$QTEXTMODE
 70
     0
  9
$MIRRTEXT
 70
     0
  9
$DRAGMODE
 70
     2
  9
$LTSCALE
 40
5.0
  9
$OSMODE
 70
  3071
  9
$ATTMODE
 70
     1
  9
$TEXTSIZE
 40
4.0
  9
$TRACEWID
 40
0.05
  9
$TEXTSTYLE
  7
STANDARD
  9
$CLAYER
  8
0
  9
$CELTYPE
  6
BYLAYER
  9
$CECOLOR
 62
   256
  9
$DIMSCALE
 40
0.5
  9
$DIMASZ
 40
3.0
  9
$DIMEXO
 40
2.0
  9
$DIMDLI
 40
0.38
  9
$DIMRND
 40
0.0
  9
$DIMDLE
 40
0.0
  9
$DIMEXE
 40
2.0
  9
$DIMTP
 40
0.0
  9
$DIMTM
 40
0.0
  9
$DIMTXT
 40
3.0
  9
$DIMCEN
 40
0.0
  9
$DIMTSZ
 40
0.0
  9
$DIMTOL
 70
     0
  9
$DIMLIM
 70
     0
  9
$DIMTIH
 70
     0
  9
$DIMTOH
 70
     0
  9
$DIMSE1
 70
     0
  9
$DIMSE2
 70
     0
  9
$DIMTAD
 70
     1
  9
$DIMZIN
 70
     0
  9
$DIMBLK
  1

  9
$DIMASO
 70
     0
  9
$DIMSHO
 70
     0
  9
$DIMPOST
  1

  9
$DIMAPOST
  1

  9
$DIMALT
 70
     0
  9
$DIMALTD
 70
     2
  9
$DIMALTF
 40
25.399999999999999
  9
$DIMLFAC
 40
1.0
  9
$DIMTOFL
 70
     0
  9
$DIMTVP
 40
1.6000000000000001
  9
$DIMTIX
 70
     1
  9
$DIMSOXD
 70
     0
  9
$DIMSAH
 70
     0
  9
$DIMBLK1
  1

  9
$DIMBLK2
  1

  9
$DIMSTYLE
  2
STANDARD
  9
$DIMCLRD
 70
     0
  9
$DIMCLRE
 70
     0
  9
$DIMCLRT
 70
     0
  9
$DIMTFAC
 40
1.0
  9
$DIMGAP
 40
0.09
  9
$LUNITS
 70
     2
  9
$LUPREC
 70
     4
  9
$SKETCHINC
 40
0.1
  9
$FILLETRAD
 40
1.0
  9
$AUNITS
 70
     0
  9
$AUPREC
 70
     0
  9
$MENU
  1
E:\r13\win\SUPPORT\ACAD
  9
$ELEVATION
 40
0.0
  9
$PELEVATION
 40
0.0
  9
$THICKNESS
 40
0.0
  9
$LIMCHECK
 70
     0
  9
$BLIPMODE
 70
     0
  9
$CHAMFERA
 40
0.0
  9
$CHAMFERB
 40
0.0
  9
$SKPOLY
 70
     0
  9
$TDCREATE
 40
2449840.6143865739
  9
$TDUPDATE
 40
2456598.4055647799
  9
$TDINDWG
 40
0.2409845949
  9
$TDUSRTIMER
 40
0.2409845949
  9
$USRTIMER
 70
     1
  9
$ANGBASE
 50
0.0
  9
$ANGDIR
 70
     0
  9
$PDMODE
 70
     0
  9
$PDSIZE
 40
0.0
  9
$PLINEWID
 40
0.0
  9
$COORDS
 70
     1
  9
$SPLFRAME
 70
     0
  9
$SPLINETYPE
 70
     6
  9
$SPLINESEGS
 70
     8
  9
$ATTDIA
 70
     0
  9
$ATTREQ
 70
     1
  9
$HANDLING
 70
     1
  9
$HANDSEED
  5
15FE
  9
$SURFTAB1
 70
     6
  9
$SURFTAB2
 70
     6
  9
$SURFTYPE
 70
     6
  9
$SURFU
 70
     6
  9
$SURFV
 70
     6
  9
$UCSNAME
  2

  9
$UCSORG
 10
0.0
 20
0.0
 30
0.0
  9
$UCSXDIR
 10
1.0
 20
0.0
 30
0.0
  9
$UCSYDIR
 10
0.0
 20
1.0
 30
0.0
  9
$PUCSNAME
  2

  9
$PUCSORG
 10
0.0
 20
0.0
 30
0.0
  9
$PUCSXDIR
 10
1.0
 20
0.0
 30
0.0
  9
$PUCSYDIR
 10
0.0
 20
1.0
 30
0.0
  9
$USERI1
 70
     0
  9
$USERI2
 70
     1
  9
$USERI3
 70
     1
  9
$USERI4
 70
     0
  9
$USERI5
 70
     0
  9
$USERR1
 40
0.0
  9
$USERR2
 40
0.0
  9
$USERR3
 40
0.0
  9
$USERR4
 40
0.0
  9
$USERR5
 40
0.0
  9
$WORLDVIEW
 70
     1
  9
$SHADEDGE
 70
     3
  9
$SHADEDIF
 70
    70
  9
$TILEMODE
 70
     1
  9
$MAXACTVP
 70
    16
  9
$PLIMCHECK
 70
     0
  9
$PEXTMIN
 10
1.0000000000000000E+020
 20
1.0000000000000000E+020
 30
1.0000000000000000E+020
  9
$PEXTMAX
 10
-1.0000000000000000E+020
 20
-1.0000000000000000E+020
 30
-1.0000000000000000E+020
  9
$PLIMMIN
 10
0.0
 20
0.0
  9
$PLIMMAX
 10
12.0
 20
9.0
  9
$UNITMODE
 70
     0
  9
$VISRETAIN
 70
     0
  9
$PLINEGEN
 70
     0
  9
$PSLTSCALE
 70
     0
  0
ENDSEC
  0
SECTION
  2
TABLES
  0
TABLE
  2
VPORT
 70
     1
  0
VPORT
  2
*ACTIVE
 70
     0
 10
0.0
 20
0.0
 11
1.0
 21
1.0
 12
97.52905416604365
 22
66.75636307133405
 13
0.0
 23
0.0
 14
5.0
 24
5.0
 15
5.0
 25
5.0
 16
0.0
 26
0.0
 36
1.0
 17
0.0
 27
0.0
 37
0.0
 40
137.71137496815999
 41
1.831871345029239
 42
50.0
 43
0.0
 44
0.0
 50
0.0
 51
0.0
 71
     0
 72
   100
 73
     1
 74
     0
 75
     0
 76
     0
 77
     0
 78
     0
  0
ENDTAB
  0
TABLE
  2
LTYPE
 70
     4
  0
LTYPE
  2
CONTINUOUS
 70
     0
  3
Solid Line
 72
    65
 73
     0
 40
0.0
  0
LTYPE
  2
CENTER
 70
     0
  3
____ _ ____ _ ____ _ ____ _ ____ _ ____ _ ____
 72
    65
 73
     4
 40
2.0
 49
1.25
 49
-0.25
 49
0.25
 49
-0.25
  0
LTYPE
  2
HIDDEN
 70
     0
  3
_ _ _ _ _ _ _ _ _ _ _ _ _ _ _ _ _ _ _ _ _ _ _
 72
    65
 73
     2
 40
0.375
 49
0.25
 49
-0.125
  0
LTYPE
  2
PHANTOM2
 70
     0
  3
___ _ _ ___ _ _ ___ _ _ ___ _ _
 72
    65
 73
     6
 40
1.25
 49
0.625
 49
-0.125
 49
0.125
 49
-0.125
 49
0.125
 49
-0.125
  0
ENDTAB
  0
TABLE
  2
LAYER
 70
     4
  0
LAYER
  2
0
 70
     0
 62
     7
  6
CONTINUOUS
  0
LAYER
  2
1
 70
     0
 62
     1
  6
CENTER
  0
LAYER
  2
3
 70
     0
 62
     3
  6
CONTINUOUS
  0
LAYER
  2
2
 70
     0
 62
     2
  6
HIDDEN
  0
ENDTAB
  0
TABLE
  2
STYLE
 70
     2
  0
STYLE
  2
STANDARD
 70
     0
 40
0.0
 41
1.0
 50
0.0
 71
     0
 42
4.0
  3
TXT
  4
BIGFONT
  0
STYLE
  2
STANDARD1
 70
     0
 40
0.0
 41
1.0
 50
0.0
 71
     0
 42
3.0
  3
txt
  4

  0
ENDTAB
  0
TABLE
  2
VIEW
 70
     1
  0
VIEW
  2
ALL
 70
     0
 40
179.66152299999999
 10
141.903918
 20
89.830760999999995
 41
0.0
 11
0.0
 21
0.0
 31
1.0
 12
0.0
 22
0.0
 32
0.0
 42
0.0
 43
0.0
 44
0.0
 50
0.0
 71
     0
  0
ENDTAB
  0
TABLE
  2
UCS
 70
     0
  0
ENDTAB
  0
TABLE
  2
APPID
 70
     4
  0
APPID
  2
ACAD
 70
     0
  0
APPID
  2
DCO15
 70
     0
  0
APPID
  2
ACAD_MLEADERVER
 70
     0
  0
APPID
  2
ACAD_NAV_VCDISPLAY
 70
     0
  0
ENDTAB
  0
TABLE
  2
DIMSTYLE
 70
     1
  0
DIMSTYLE
  2
STANDARD
 70
     0
  3

  4

  5

  6

  7

 40
1.0
 41
0.18
 42
0.0625
 43
0.38
 44
0.18
 45
0.0
 46
0.0
 47
0.0
 48
0.0
140
0.18
141
0.09
142
0.0
143
25.399999999999999
144
1.0
145
0.0
146
1.0
147
0.09
 71
     0
 72
     0
 73
     1
 74
     1
 75
     0
 76
     0
 77
     0
 78
     0
170
     0
171
     2
172
     0
173
     0
174
     0
175
     0
176
     0
177
     0
178
     0
  0
ENDTAB
  0
ENDSEC
  0
SECTION
  2
BLOCKS
  0
BLOCK
  8
0
  2
$MODEL_SPACE
 70
     0
 10
0.0
 20
0.0
 30
0.0
  3
$MODEL_SPACE
  1

  0
ENDBLK
  5
1BD
  8
0
  0
BLOCK
 67
     1
  8
0
  2
$PAPER_SPACE
 70
     0
 10
0.0
 20
0.0
 30
0.0
  3
$PAPER_SPACE
  1

  0
ENDBLK
  5
1BB
 67
     1
  8
0
  0
ENDSEC
  0
SECTION
  2
ENTITIES
  0
CIRCLE
  5
13E4
  8
3
 10
106.7419780002563
 20
49.715227122899847
 30
0.0
 40
4.0800000000000116
  0
LINE
  5
13E5
  8
1
 10
106.7419780002563
 20
36.715227122899847
 30
0.0
 11
106.7419780002563
 21
62.715227122899847
 31
0.0
  0
LINE
  5
13E6
  8
1
 10
93.741978000256395
 20
49.715227122899847
 30
0.0
 11
119.7419780002564
 21
49.715227122899847
 31
0.0
  0
ARC
  5
13E7
  8
0
 10
75.741978000256381
 20
49.715227122899847
 30
0.0
 40
3.0
 50
289.47122063449069
 51
70.528779365509266
  0
LINE
  5
13E8
  8
1
 10
45.741978000256381
 20
49.715227122899847
 30
0.0
 11
83.741978000256395
 21
49.715227122899847
 31
0.0
  0
LINE
  5
13E9
  8
0
 10
59.91843970953154
 20
46.215227122900252
 30
0.0
 11
57.241978000256367
 21
46.215227122900231
 31
0.0
  0
ARC
  5
13EA
  8
0
 10
59.91843970953154
 20
45.715227122900252
 30
0.0
 40
0.5
 50
30.00000000000329
 51
90.000000000000028
  0
ARC
  5
13EB
  8
0
 10
57.241978000256367
 20
45.715227122900231
 30
0.0
 40
0.5
 50
90.000000000000256
 51
180.0
  0
ARC
  5
13EC
  8
0
 10
57.241978000256367
 20
53.715227122899861
 30
0.0
 40
0.5
 50
180.0
 51
269.99999999999977
  0
ARC
  5
13ED
  8
0
 10
59.91843970953154
 20
53.71522712289984
 30
0.0
 40
0.5
 50
270.0
 51
329.9999999999967
  0
LINE
  5
13EE
  8
0
 10
59.91843970953154
 20
53.215227122899833
 30
0.0
 11
57.241978000256367
 21
53.215227122899861
 31
0.0
  0
LINE
  5
13EF
  8
0
 10
60.273140247910852
 20
53.32958647684481
 30
0.0
 11
60.273140247910952
 21
46.100867768955283
 31
0.0
  0
LINE
  5
13F0
  8
0
 10
61.073140247910857
 20
54.715227122899847
 30
0.0
 11
61.073140247910906
 21
44.715227122899897
 31
0.0
  0
LINE
  5
13F1
  8
0
 10
61.073140247910906
 20
54.715227122899847
 30
0.0
 11
60.35145241142375
 21
53.465227122899798
 31
0.0
  0
LINE
  5
13F2
  8
0
 10
61.073140247910906
 20
44.715227122900068
 30
0.0
 11
60.351452411423729
 21
45.965227122900259
 31
0.0
  0
LINE
  5
13F3
  8
2
 10
54.741978000256381
 20
52.601978466497989
 30
0.0
 11
56.408644665566413
 21
49.715227122899648
 31
0.0
  0
LINE
  5
13F4
  8
2
 10
54.741978000256381
 20
46.8284757793013
 30
0.0
 11
56.408644665566392
 21
49.715227122899648
 31
0.0
  0
LINE
  5
13F5
  8
2
 10
54.741978000256317
 20
52.601978466498338
 30
0.0
 11
54.741978000256381
 21
46.8284757793013
 31
0.0
  0
LINE
  5
13F6
  8
2
 10
54.741978000256317
 20
52.601978466498338
 30
0.0
 11
50.741978000256331
 21
52.601978466498338
 31
0.0
  0
LINE
  5
13F7
  8
2
 10
54.741978000256317
 20
51.158602794698773
 30
0.0
 11
50.741978000256331
 21
51.158602794698773
 31
0.0
  0
LINE
  5
13F8
  8
2
 10
54.741978000256317
 20
48.271851451100872
 30
0.0
 11
50.741978000256331
 21
48.271851451100872
 31
0.0
  0
LINE
  5
13F9
  8
2
 10
54.741978000256317
 20
46.8284757793013
 30
0.0
 11
50.741978000256331
 21
46.8284757793013
 31
0.0
  0
LINE
  5
13FA
  8
1
 10
22.741978000256381
 20
36.715227122899847
 30
0.0
 11
22.741978000256381
 21
62.715227122899847
 31
0.0
  0
LINE
  5
13FB
  8
1
 10
9.7419780002563812
 20
49.715227122899847
 30
0.0
 11
35.741978000256381
 21
49.715227122899847
 31
0.0
  0
CIRCLE
  5
13FC
  8
0
 10
106.7419780002563
 20
49.715227122899847
 30
0.0
 40
3.0
  0
CIRCLE
  5
13FE
  8
0
 10
106.7419780002563
 20
49.715227122899847
 30
0.0
 40
5.0
  0
CIRCLE
  5
13FF
  8
0
 10
106.7419780002563
 20
49.715227122899847
 30
0.0
 40
7.4343145750507622
  0
CIRCLE
  5
1400
  8
0
 10
106.7419780002563
 20
49.715227122899847
 30
0.0
 40
8.0
  0
CIRCLE
  5
1478
  8
0
  6
CONTINUOUS
 62
     7
 10
22.741978000256381
 20
49.715227122899847
 30
0.0
 40
8.0
  0
CIRCLE
  5
1479
  8
0
  6
CONTINUOUS
 62
     7
 10
22.741978000256381
 20
49.715227122899847
 30
0.0
 40
7.4343145750507622
  0
LINE
  5
147A
  8
0
  6
CONTINUOUS
 62
     7
 10
25.241978000256381
 20
48.271851449925776
 30
0.0
 11
22.741978000256381
 21
46.82847577695172
 31
0.0
  0
LINE
  5
147B
  8
0
  6
CONTINUOUS
 62
     7
 10
22.741978000256381
 20
46.82847577695172
 30
0.0
 11
20.241978000256381
 21
48.271851449925776
 31
0.0
  0
LINE
  5
147C
  8
0
  6
CONTINUOUS
 62
     7
 10
20.241978000256381
 20
48.271851449925776
 30
0.0
 11
20.241978000256381
 21
51.158602795873911
 31
0.0
  0
LINE
  5
147D
  8
0
  6
CONTINUOUS
 62
     7
 10
20.241978000256381
 20
51.158602795873911
 30
0.0
 11
22.741978000256381
 21
52.601978468847967
 31
0.0
  0
LINE
  5
147E
  8
0
  6
CONTINUOUS
 62
     7
 10
22.741978000256381
 20
52.601978468847967
 30
0.0
 11
25.241978000256381
 21
51.158602795873911
 31
0.0
  0
LINE
  5
147F
  8
0
  6
CONTINUOUS
 62
     7
 10
25.241978000256381
 20
51.158602795873911
 30
0.0
 11
25.241978000256381
 21
48.271851449925776
 31
0.0
  0
LINE
  5
1480
  8
3
 10
60.541978000256393
 20
45.635227122899849
 30
0.0
 11
75.161978000256383
 21
45.635227122899849
 31
0.0
  0
LINE
  5
1481
  8
3
 10
60.541978000256393
 20
53.795227122899838
 30
0.0
 11
75.161978000256383
 21
53.795227122899838
 31
0.0
  0
LINE
  5
1482
  8
0
  6
CONTINUOUS
 62
     7
 10
50.741978000256381
 20
42.280912547849077
 30
0.0
 11
50.741978000256381
 21
57.14954169795061
 31
0.0
  0
LINE
  5
1483
  8
0
  6
CONTINUOUS
 62
     7
 10
51.307663425205618
 20
41.71522712289984
 30
0.0
 11
51.307663425205618
 21
57.715227122899847
 31
0.0
  0
LINE
  5
1484
  8
0
  6
CONTINUOUS
 62
     7
 10
56.176292575307137
 20
41.71522712289984
 30
0.0
 11
56.176292575307137
 21
57.715227122899847
 31
0.0
  0
LINE
  5
1485
  8
0
  6
CONTINUOUS
 62
     7
 10
56.74197800025631
 20
42.280912547849013
 30
0.0
 11
56.741978000256381
 21
57.14954169795061
 31
0.0
  0
LINE
  5
1486
  8
0
  6
CONTINUOUS
 62
     7
 10
74.241978000256381
 20
44.71522712289984
 30
0.0
 11
74.241978000256381
 21
54.715227122899847
 31
0.0
  0
LINE
  5
1487
  8
0
  6
CONTINUOUS
 62
     7
 10
75.69197800025637
 20
46.165227122899843
 30
0.0
 11
75.69197800025637
 21
53.26522712289983
 31
0.0
  0
LINE
  5
1488
  8
0
  6
CONTINUOUS
 62
     7
 10
76.741978000256395
 20
46.16522712289985
 30
0.0
 11
76.741978000256381
 21
53.265227122899837
 31
0.0
  0
LINE
  5
1489
  8
0
  6
CONTINUOUS
 62
     7
 10
50.741978000256381
 20
42.280912547849077
 30
0.0
 11
51.307663425205618
 21
41.71522712289984
 31
0.0
  0
LINE
  5
148A
  8
0
  6
CONTINUOUS
 62
     7
 10
51.307663425205618
 20
57.715227122899847
 30
0.0
 11
50.741978000256381
 21
57.14954169795061
 31
0.0
  0
LINE
  5
148B
  8
0
  6
CONTINUOUS
 62
     7
 10
51.307663425205618
 20
41.71522712289984
 30
0.0
 11
56.176292575307137
 21
41.71522712289984
 31
0.0
  0
LINE
  5
148C
  8
0
  6
CONTINUOUS
 62
     7
 10
56.176292575307137
 20
57.715227122899847
 30
0.0
 11
51.307663425205618
 21
57.715227122899847
 31
0.0
  0
LINE
  5
148D
  8
0
  6
CONTINUOUS
 62
     7
 10
56.176292575307137
 20
41.71522712289984
 30
0.0
 11
56.741978000256381
 21
42.280912547849077
 31
0.0
  0
LINE
  5
148E
  8
0
  6
CONTINUOUS
 62
     7
 10
56.741978000256381
 20
57.14954169795061
 30
0.0
 11
56.176292575307137
 21
57.715227122899847
 31
0.0
  0
LINE
  5
148F
  8
0
  6
CONTINUOUS
 62
     7
 10
61.073140247910906
 20
44.715227122899833
 30
0.0
 11
74.241978000256381
 21
44.71522712289984
 31
0.0
  0
LINE
  5
1490
  8
0
  6
CONTINUOUS
 62
     7
 10
74.241978000256381
 20
54.715227122899847
 30
0.0
 11
61.073140247910857
 21
54.715227122899847
 31
0.0
  0
LINE
  5
1491
  8
0
  6
CONTINUOUS
 62
     7
 10
74.241978000256381
 20
44.71522712289984
 30
0.0
 11
75.691978000256384
 21
46.16522712289985
 31
0.0
  0
LINE
  5
1492
  8
0
  6
CONTINUOUS
 62
     7
 10
75.691978000256384
 20
53.265227122899859
 30
0.0
 11
74.241978000256381
 21
54.715227122899847
 31
0.0
  0
LINE
  5
1493
  8
0
  6
CONTINUOUS
 62
     7
 10
75.69197800025637
 20
46.165227122899843
 30
0.0
 11
76.741978000256381
 21
46.16522712289985
 31
0.0
  0
LINE
  5
1494
  8
0
  6
CONTINUOUS
 62
     7
 10
76.741978000256381
 20
53.265227122899837
 30
0.0
 11
75.691978000256384
 21
53.265227122899837
 31
0.0
  0
CIRCLE
  5
14BA
  8
0
 10
106.7419780002563
 20
49.715227122899847
 30
0.0
 40
3.5499999999999989
  0
TEXT
  5
156D
  8
0
 62
     3
 10
0.0
 20
0.0
 30
0.0
 40
5.0
  1
BSUCA10
  7
STANDARD1
  0
ENDSEC
  0
EOF
