  0
SECTION
  2
HEADER
  9
$ACADVER
  1
AC1009
  9
$INSBASE
 10
0.0
 20
0.0
 30
0.0
  9
$EXTMIN
 10
0.0
 20
-1.4802182810368341
 30
0.0
  9
$EXTMAX
 10
154.84500600000001
 20
117.73063999999999
 30
0.0
  9
$LIMMIN
 10
0.0
 20
0.0
  9
$LIMMAX
 10
187.5
 20
135.0
  9
$ORTHOMODE
 70
     1
  9
$REGENMODE
 70
     1
  9
$FILLMODE
 70
     1
  9
$QTEXTMODE
 70
     0
  9
$MIRRTEXT
 70
     0
  9
$DRAGMODE
 70
     2
  9
$LTSCALE
 40
5.0
  9
$OSMODE
 70
  3071
  9
$ATTMODE
 70
     1
  9
$TEXTSIZE
 40
0.2
  9
$TRACEWID
 40
0.05
  9
$TEXTSTYLE
  7
STANDARD
  9
$CLAYER
  8
0
  9
$CELTYPE
  6
BYLAYER
  9
$CECOLOR
 62
   256
  9
$DIMSCALE
 40
0.5
  9
$DIMASZ
 40
3.0
  9
$DIMEXO
 40
2.0
  9
$DIMDLI
 40
10.0
  9
$DIMRND
 40
0.0
  9
$DIMDLE
 40
0.0
  9
$DIMEXE
 40
2.0
  9
$DIMTP
 40
0.0
  9
$DIMTM
 40
0.0
  9
$DIMTXT
 40
3.0
  9
$DIMCEN
 40
0.09
  9
$DIMTSZ
 40
0.0
  9
$DIMTOL
 70
     0
  9
$DIMLIM
 70
     0
  9
$DIMTIH
 70
     0
  9
$DIMTOH
 70
     0
  9
$DIMSE1
 70
     0
  9
$DIMSE2
 70
     0
  9
$DIMTAD
 70
     1
  9
$DIMZIN
 70
     0
  9
$DIMBLK
  1

  9
$DIMASO
 70
     0
  9
$DIMSHO
 70
     0
  9
$DIMPOST
  1

  9
$DIMAPOST
  1

  9
$DIMALT
 70
     0
  9
$DIMALTD
 70
     2
  9
$DIMALTF
 40
25.399999999999999
  9
$DIMLFAC
 40
1.0
  9
$DIMTOFL
 70
     1
  9
$DIMTVP
 40
1.6000000000000001
  9
$DIMTIX
 70
     1
  9
$DIMSOXD
 70
     0
  9
$DIMSAH
 70
     0
  9
$DIMBLK1
  1

  9
$DIMBLK2
  1

  9
$DIMSTYLE
  2
STANDARD
  9
$DIMCLRD
 70
     0
  9
$DIMCLRE
 70
     0
  9
$DIMCLRT
 70
     0
  9
$DIMTFAC
 40
1.0
  9
$DIMGAP
 40
0.09
  9
$LUNITS
 70
     2
  9
$LUPREC
 70
     4
  9
$SKETCHINC
 40
0.1
  9
$FILLETRAD
 40
0.0
  9
$AUNITS
 70
     0
  9
$AUPREC
 70
     0
  9
$MENU
  1
E:\r13\win\SUPPORT\ACAD
  9
$ELEVATION
 40
0.0
  9
$PELEVATION
 40
0.0
  9
$THICKNESS
 40
0.0
  9
$LIMCHECK
 70
     0
  9
$BLIPMODE
 70
     0
  9
$CHAMFERA
 40
0.0
  9
$CHAMFERB
 40
0.0
  9
$SKPOLY
 70
     0
  9
$TDCREATE
 40
2449840.618912037
  9
$TDUPDATE
 40
2456598.4054705328
  9
$TDINDWG
 40
0.0393213657
  9
$TDUSRTIMER
 40
0.0393213657
  9
$USRTIMER
 70
     1
  9
$ANGBASE
 50
0.0
  9
$ANGDIR
 70
     0
  9
$PDMODE
 70
     0
  9
$PDSIZE
 40
0.0
  9
$PLINEWID
 40
0.0
  9
$COORDS
 70
     1
  9
$SPLFRAME
 70
     0
  9
$SPLINETYPE
 70
     6
  9
$SPLINESEGS
 70
     8
  9
$ATTDIA
 70
     0
  9
$ATTREQ
 70
     1
  9
$HANDLING
 70
     1
  9
$HANDSEED
  5
5D1
  9
$SURFTAB1
 70
     6
  9
$SURFTAB2
 70
     6
  9
$SURFTYPE
 70
     6
  9
$SURFU
 70
     6
  9
$SURFV
 70
     6
  9
$UCSNAME
  2

  9
$UCSORG
 10
0.0
 20
0.0
 30
0.0
  9
$UCSXDIR
 10
1.0
 20
0.0
 30
0.0
  9
$UCSYDIR
 10
0.0
 20
1.0
 30
0.0
  9
$PUCSNAME
  2

  9
$PUCSORG
 10
0.0
 20
0.0
 30
0.0
  9
$PUCSXDIR
 10
1.0
 20
0.0
 30
0.0
  9
$PUCSYDIR
 10
0.0
 20
1.0
 30
0.0
  9
$USERI1
 70
     0
  9
$USERI2
 70
     1
  9
$USERI3
 70
     1
  9
$USERI4
 70
     0
  9
$USERI5
 70
     0
  9
$USERR1
 40
0.0
  9
$USERR2
 40
0.0
  9
$USERR3
 40
0.0
  9
$USERR4
 40
0.0
  9
$USERR5
 40
0.0
  9
$WORLDVIEW
 70
     1
  9
$SHADEDGE
 70
     3
  9
$SHADEDIF
 70
    70
  9
$TILEMODE
 70
     1
  9
$MAXACTVP
 70
    16
  9
$PLIMCHECK
 70
     0
  9
$PEXTMIN
 10
1.0000000000000000E+020
 20
1.0000000000000000E+020
 30
1.0000000000000000E+020
  9
$PEXTMAX
 10
-1.0000000000000000E+020
 20
-1.0000000000000000E+020
 30
-1.0000000000000000E+020
  9
$PLIMMIN
 10
0.0
 20
0.0
  9
$PLIMMAX
 10
12.0
 20
9.0
  9
$UNITMODE
 70
     0
  9
$VISRETAIN
 70
     0
  9
$PLINEGEN
 70
     0
  9
$PSLTSCALE
 70
     0
  0
ENDSEC
  0
SECTION
  2
TABLES
  0
TABLE
  2
VPORT
 70
     1
  0
VPORT
  2
*ACTIVE
 70
     0
 10
0.0
 20
0.0
 11
1.0
 21
1.0
 12
97.52905416604365
 22
66.75636307133405
 13
0.0
 23
0.0
 14
5.0
 24
5.0
 15
5.0
 25
5.0
 16
0.0
 26
0.0
 36
1.0
 17
0.0
 27
0.0
 37
0.0
 40
137.71137496815999
 41
1.831871345029239
 42
50.0
 43
0.0
 44
0.0
 50
0.0
 51
0.0
 71
     0
 72
   100
 73
     1
 74
     0
 75
     0
 76
     0
 77
     0
 78
     0
  0
ENDTAB
  0
TABLE
  2
LTYPE
 70
     4
  0
LTYPE
  2
CONTINUOUS
 70
     0
  3
Solid Line
 72
    65
 73
     0
 40
0.0
  0
LTYPE
  2
CENTER
 70
     0
  3
____ _ ____ _ ____ _ ____ _ ____ _ ____ _ ____
 72
    65
 73
     4
 40
2.0
 49
1.25
 49
-0.25
 49
0.25
 49
-0.25
  0
LTYPE
  2
HIDDEN
 70
     0
  3
_ _ _ _ _ _ _ _ _ _ _ _ _ _ _ _ _ _ _ _ _ _ _
 72
    65
 73
     2
 40
0.375
 49
0.25
 49
-0.125
  0
LTYPE
  2
PHANTOM2
 70
     0
  3
___ _ _ ___ _ _ ___ _ _ ___ _ _
 72
    65
 73
     6
 40
1.25
 49
0.625
 49
-0.125
 49
0.125
 49
-0.125
 49
0.125
 49
-0.125
  0
ENDTAB
  0
TABLE
  2
LAYER
 70
     4
  0
LAYER
  2
0
 70
     0
 62
     7
  6
CONTINUOUS
  0
LAYER
  2
1
 70
     0
 62
     1
  6
CENTER
  0
LAYER
  2
2
 70
     0
 62
     2
  6
HIDDEN
  0
LAYER
  2
3
 70
     0
 62
     3
  6
CONTINUOUS
  0
ENDTAB
  0
TABLE
  2
STYLE
 70
     2
  0
STYLE
  2
STANDARD
 70
     0
 40
0.0
 41
1.0
 50
0.0
 71
     0
 42
0.2
  3
TXT
  4
BIGFONT
  0
STYLE
  2
STANDARD1
 70
     0
 40
0.0
 41
1.0
 50
0.0
 71
     0
 42
3.0
  3
txt
  4

  0
ENDTAB
  0
TABLE
  2
VIEW
 70
     1
  0
VIEW
  2
ALL
 70
     0
 40
135.0
 10
110.49579799999999
 20
67.5
 41
0.0
 11
0.0
 21
0.0
 31
1.0
 12
0.0
 22
0.0
 32
0.0
 42
0.0
 43
0.0
 44
0.0
 50
0.0
 71
     0
  0
ENDTAB
  0
TABLE
  2
UCS
 70
     0
  0
ENDTAB
  0
TABLE
  2
APPID
 70
     4
  0
APPID
  2
ACAD
 70
     0
  0
APPID
  2
DCO15
 70
     0
  0
APPID
  2
ACAD_MLEADERVER
 70
     0
  0
APPID
  2
ACAD_NAV_VCDISPLAY
 70
     0
  0
ENDTAB
  0
TABLE
  2
DIMSTYLE
 70
     1
  0
DIMSTYLE
  2
STANDARD
 70
     0
  3

  4

  5

  6

  7

 40
1.0
 41
0.18
 42
0.0625
 43
0.38
 44
0.18
 45
0.0
 46
0.0
 47
0.0
 48
0.0
140
0.18
141
0.09
142
0.0
143
25.399999999999999
144
1.0
145
0.0
146
1.0
147
0.09
 71
     0
 72
     0
 73
     1
 74
     1
 75
     0
 76
     0
 77
     0
 78
     0
170
     0
171
     2
172
     0
173
     0
174
     0
175
     0
176
     0
177
     0
178
     0
  0
ENDTAB
  0
ENDSEC
  0
SECTION
  2
BLOCKS
  0
BLOCK
  8
0
  2
$MODEL_SPACE
 70
     0
 10
0.0
 20
0.0
 30
0.0
  3
$MODEL_SPACE
  1

  0
ENDBLK
  5
3D0
  8
0
  0
BLOCK
 67
     1
  8
0
  2
$PAPER_SPACE
 70
     0
 10
0.0
 20
0.0
 30
0.0
  3
$PAPER_SPACE
  1

  0
ENDBLK
  5
3CE
 67
     1
  8
0
  0
BLOCK
  8
0
  2
STDGX5
 70
     0
 10
0.0
 20
0.0
 30
0.0
  3
STDGX5
  1

  0
ENDBLK
  5
BB
  8
0
  0
ENDSEC
  0
SECTION
  2
ENTITIES
  0
LINE
  5
36
  8
1
 10
31.197673000000002
 20
78.730640000000008
 30
0.0
 11
44.197672999999988
 21
78.730640000000008
 31
0.0
  0
LINE
  5
37
  8
1
 10
79.498392999999993
 20
78.730640000000008
 30
0.0
 11
103.99839299999999
 21
78.730640000000008
 31
0.0
  0
LINE
  5
38
  8
1
 10
141.84500600000001
 20
78.730640000000008
 30
0.0
 11
154.84500600000001
 21
78.730640000000008
 31
0.0
  0
LINE
  5
39
  8
1
 10
37.697673000000002
 20
85.230640000000008
 30
0.0
 11
37.697673000000002
 21
72.230639999999994
 31
0.0
  0
LINE
  5
3A
  8
1
 10
148.34500600000001
 20
85.230640000000008
 30
0.0
 11
148.34500600000001
 21
72.230639999999994
 31
0.0
  0
CIRCLE
  5
3B
  8
0
 10
148.34500600000001
 20
78.730640000000008
 30
0.0
 40
4.0
  0
CIRCLE
  5
3C
  8
3
 10
148.34500600000001
 20
78.730640000000008
 30
0.0
 40
3.3235000000000001
  0
CIRCLE
  5
3D
  8
0
 10
37.697673000000002
 20
78.730640000000008
 30
0.0
 40
4.0
  0
CIRCLE
  5
3E
  8
3
 10
37.697673000000002
 20
78.730640000000008
 30
0.0
 40
3.3235000000000001
  0
LINE
  5
3F
  8
0
 10
98.848393000000016
 20
82.730640000000008
 30
0.0
 11
83.19839300000001
 21
82.730640000000008
 31
0.0
  0
LINE
  5
40
  8
3
 10
99.524892999999992
 20
82.054140000000004
 30
0.0
 11
82.521893000000006
 21
82.054140000000004
 31
0.0
  0
LINE
  5
41
  8
3
 10
99.524892999999992
 20
75.407139999999998
 30
0.0
 11
82.521893000000006
 21
75.407139999999998
 31
0.0
  0
LINE
  5
42
  8
0
 10
98.848393000000016
 20
74.730639999999994
 30
0.0
 11
83.19839300000001
 21
74.730639999999994
 31
0.0
  0
LINE
  5
45
  8
0
 10
99.998393000000007
 20
81.580640000000017
 30
0.0
 11
99.998393000000007
 21
75.88064
 31
0.0
  0
LINE
  5
4E
  8
0
 10
81.998393000000021
 20
81.530640000000005
 30
0.0
 11
81.998392999999993
 21
75.930639999999997
 31
0.0
  0
LINE
  5
4F
  8
0
 10
81.998392999999993
 20
81.530640000000005
 30
0.0
 11
83.19839300000001
 21
82.730640000000008
 31
0.0
  0
LINE
  5
50
  8
0
 10
81.998392999999993
 20
75.930639999999997
 30
0.0
 11
83.19839300000001
 21
74.730639999999994
 31
0.0
  0
LINE
  5
52
  8
0
 10
83.198393000000024
 20
82.730640000000037
 30
0.0
 11
83.19839300000001
 21
74.730639999999994
 31
0.0
  0
LINE
  5
55
  8
0
 10
99.998393000000007
 20
81.580640000000017
 30
0.0
 11
98.848393000000016
 21
82.730640000000008
 31
0.0
  0
LINE
  5
56
  8
0
 10
99.998393000000007
 20
75.88064
 30
0.0
 11
98.848393000000016
 21
74.730639999999994
 31
0.0
  0
LINE
  5
57
  8
0
 10
98.848393000000016
 20
74.730639999999994
 30
0.0
 11
98.848393000000016
 21
82.730640000000008
 31
0.0
  0
CIRCLE
  5
58
  8
0
 10
148.34500600000001
 20
78.730640000000008
 30
0.0
 40
2.8500000000000001
  0
LINE
  5
21B
  8
2
 10
85.998393000000021
 20
76.421238925121088
 30
0.0
 11
85.998393000000021
 21
81.0400410748789
 31
0.0
  0
LINE
  5
21C
  8
2
 10
81.998392999999965
 20
76.421238925121088
 30
0.0
 11
85.998393000000021
 21
76.421238925121088
 31
0.0
  0
LINE
  5
21D
  8
2
 10
81.998393000000021
 20
77.57593946256128
 30
0.0
 11
85.998393000000021
 21
77.57593946256128
 31
0.0
  0
LINE
  5
21F
  8
2
 10
81.998393000000021
 20
79.885340537438651
 30
0.0
 11
85.998393000000021
 21
79.885340537438651
 31
0.0
  0
LINE
  5
220
  8
2
 10
81.998392999999965
 20
81.0400410748789
 30
0.0
 11
85.998393000000021
 21
81.0400410748789
 31
0.0
  0
LINE
  5
221
  8
0
 10
35.697673001627273
 20
79.885340537439859
 30
0.0
 11
37.697673001627258
 21
81.040041075819389
 31
0.0
  0
LINE
  5
222
  8
0
 10
35.697673001627273
 20
77.575939462561394
 30
0.0
 11
35.697673001627273
 21
79.885340539319785
 31
0.0
  0
LINE
  5
223
  8
0
 10
37.69767299999927
 20
81.040041074878062
 30
0.0
 11
39.69767299999927
 21
79.885340536499214
 31
0.0
  0
LINE
  5
224
  8
0
 10
39.697672998371281
 20
79.885340537440086
 30
0.0
 11
39.697672998371281
 21
77.57593946068171
 31
0.0
  0
LINE
  5
225
  8
0
 10
39.697672998369448
 20
77.575939462560271
 30
0.0
 11
37.697672998371267
 21
76.421238924180741
 31
0.0
  0
LINE
  5
226
  8
0
 10
37.69767299999927
 20
76.421238925122069
 30
0.0
 11
35.69767299999927
 21
77.575939463500916
 31
0.0
  0
LINE
  5
227
  8
1
 10
79.498392999999993
 20
113.73063999999999
 30
0.0
 11
103.99839299999999
 21
113.73063999999999
 31
0.0
  0
LINE
  5
228
  8
0
 10
98.848393000000016
 20
117.73063999999999
 30
0.0
 11
83.19839300000001
 21
117.73063999999999
 31
0.0
  0
LINE
  5
229
  8
3
 10
99.524892999999992
 20
117.05414
 30
0.0
 11
82.521893000000006
 21
117.05414
 31
0.0
  0
LINE
  5
22A
  8
0
 10
98.848393000000016
 20
109.73063999999999
 30
0.0
 11
83.19839300000001
 21
109.73063999999999
 31
0.0
  0
LINE
  5
22B
  8
3
 10
99.524892999999992
 20
110.40714
 30
0.0
 11
82.521893000000006
 21
110.40714
 31
0.0
  0
LINE
  5
22D
  8
2
 10
85.998393000000021
 20
111.73063999999999
 30
0.0
 11
85.998393000000007
 21
115.73063999999999
 31
0.0
  0
LINE
  5
22E
  8
0
 10
83.198393000000024
 20
117.73063999999999
 30
0.0
 11
83.19839300000001
 21
109.73063999999999
 31
0.0
  0
LINE
  5
22F
  8
0
 10
81.998393000000021
 20
116.53064000000001
 30
0.0
 11
81.998392999999993
 21
110.93064
 31
0.0
  0
LINE
  5
230
  8
2
 10
81.998392999999965
 20
111.73063999999999
 30
0.0
 11
85.998393000000021
 21
111.73063999999999
 31
0.0
  0
LINE
  5
231
  8
0
 10
81.998392999999993
 20
110.93064
 30
0.0
 11
83.19839300000001
 21
109.73063999999999
 31
0.0
  0
LINE
  5
233
  8
2
 10
81.99839299999995
 20
115.73063999999999
 30
0.0
 11
85.998393000000007
 21
115.73063999999999
 31
0.0
  0
LINE
  5
234
  8
2
 10
81.998393000000021
 20
113.73063999999999
 30
0.0
 11
85.998393000000021
 21
113.73063999999999
 31
0.0
  0
LINE
  5
236
  8
0
 10
81.998392999999993
 20
116.53064000000001
 30
0.0
 11
83.19839300000001
 21
117.73063999999999
 31
0.0
  0
LINE
  5
238
  8
0
 10
99.998393000000007
 20
116.58064
 30
0.0
 11
99.998393000000007
 21
110.88064
 31
0.0
  0
LINE
  5
239
  8
0
 10
98.848393000000016
 20
109.73063999999999
 30
0.0
 11
98.848393000000016
 21
117.73063999999999
 31
0.0
  0
LINE
  5
23B
  8
0
 10
99.998393000000007
 20
110.88064
 30
0.0
 11
98.848393000000016
 21
109.73063999999999
 31
0.0
  0
LINE
  5
23C
  8
0
 10
99.998393000000007
 20
116.58064
 30
0.0
 11
98.848393000000016
 21
117.73063999999999
 31
0.0
  0
LINE
  5
23D
  8
1
 10
79.498392999999993
 20
43.730640000000008
 30
0.0
 11
103.99839299999999
 21
43.730640000000008
 31
0.0
  0
LINE
  5
23E
  8
0
 10
98.848393000000016
 20
47.730640000000001
 30
0.0
 11
83.19839300000001
 21
47.730640000000001
 31
0.0
  0
LINE
  5
23F
  8
3
 10
99.524892999999992
 20
47.054139999999997
 30
0.0
 11
82.521893000000006
 21
47.054139999999997
 31
0.0
  0
LINE
  5
240
  8
0
 10
98.848393000000016
 20
39.730640000000008
 30
0.0
 11
83.19839300000001
 21
39.730640000000008
 31
0.0
  0
LINE
  5
241
  8
3
 10
99.524892999999992
 20
40.407139999999998
 30
0.0
 11
82.521893000000006
 21
40.407139999999998
 31
0.0
  0
LINE
  5
244
  8
0
 10
83.198393000000024
 20
47.730640000000022
 30
0.0
 11
83.19839300000001
 21
39.730640000000008
 31
0.0
  0
LINE
  5
245
  8
0
 10
81.998393000000021
 20
46.530639999999998
 30
0.0
 11
81.998392999999993
 21
40.930639999999997
 31
0.0
  0
LINE
  5
247
  8
0
 10
81.998392999999993
 20
40.930639999999997
 30
0.0
 11
83.19839300000001
 21
39.730640000000008
 31
0.0
  0
LINE
  5
24C
  8
0
 10
81.998392999999993
 20
46.530639999999998
 30
0.0
 11
83.19839300000001
 21
47.730640000000001
 31
0.0
  0
LINE
  5
24E
  8
0
 10
99.998393000000007
 20
46.580640000000002
 30
0.0
 11
99.998393000000007
 21
40.88064
 31
0.0
  0
LINE
  5
24F
  8
0
 10
98.848393000000016
 20
39.730640000000008
 30
0.0
 11
98.848393000000016
 21
47.730640000000001
 31
0.0
  0
LINE
  5
251
  8
0
 10
99.998393000000007
 20
40.88064
 30
0.0
 11
98.848393000000016
 21
39.730640000000008
 31
0.0
  0
LINE
  5
252
  8
0
 10
99.998393000000007
 20
46.580640000000002
 30
0.0
 11
98.848393000000016
 21
47.730640000000001
 31
0.0
  0
INSERT
  5
389
  8
0
  2
STDGX5
 10
0.0
 20
0.0
 30
0.0
 41
0.5
 42
0.5
 43
0.5
  0
INSERT
  5
38A
  8
0
  2
STDGX5
 10
0.0
 20
0.0
 30
0.0
 41
0.5
 42
0.5
 43
0.5
  0
INSERT
  5
38B
  8
0
  2
STDGX5
 10
137.5
 20
0.0
 30
0.0
 41
0.5
 42
0.5
 43
0.5
  0
INSERT
  5
38C
  8
0
  2
STDGX5
 10
137.5
 20
0.0
 30
0.0
 41
0.5
 42
0.5
 43
0.5
  0
CIRCLE
  5
404
  8
0
 10
148.34500600000001
 20
78.730640000000008
 30
0.0
 40
2.5
  0
ARC
  5
405
  8
0
 10
98.998393000000007
 20
78.730640000000008
 30
0.0
 40
2.5
 50
293.57817847820218
 51
66.421821521797852
  0
ARC
  5
406
  8
2
 10
97.498393000000007
 20
78.730640000000008
 30
0.0
 40
2.5
 50
293.57817847820218
 51
66.421821521797852
  0
ARC
  5
40A
  8
2
 10
97.498393000000007
 20
113.73063999999999
 30
0.0
 40
2.5
 50
293.57817847820218
 51
66.421821521797852
  0
ARC
  5
40B
  8
0
 10
98.998393000000007
 20
113.73063999999999
 30
0.0
 40
2.5
 50
293.57817847820218
 51
66.421821521797852
  0
ARC
  5
40C
  8
2
 10
97.498393000000007
 20
43.730640000000008
 30
0.0
 40
2.5
 50
293.57817847820218
 51
66.421821521797852
  0
ARC
  5
40D
  8
0
 10
98.998393000000007
 20
43.730640000000008
 30
0.0
 40
2.5
 50
293.57817847820218
 51
66.421821521797852
  0
LINE
  5
4C5
  8
2
 10
85.998393000000021
 20
41.730639999999987
 30
0.0
 11
85.998393000000007
 21
45.730640000000008
 31
0.0
  0
LINE
  5
4C6
  8
2
 10
81.998392999999965
 20
41.730639999999987
 30
0.0
 11
85.998393000000021
 21
41.730639999999987
 31
0.0
  0
LINE
  5
4C7
  8
2
 10
81.99839299999995
 20
45.730639999999987
 30
0.0
 11
85.998393000000007
 21
45.730639999999987
 31
0.0
  0
LINE
  5
4C8
  8
2
 10
81.998393000000021
 20
43.730639999999987
 30
0.0
 11
85.998393000000021
 21
43.730639999999987
 31
0.0
  0
TEXT
  5
569
  8
0
 62
     3
 10
0.0
 20
0.0
 30
0.0
 40
5.0
  1
BSU8A
  7
STANDARD1
  0
ENDSEC
  0
EOF
