  0
SECTION
  2
HEADER
  9
$ACADVER
  1
AC1009
  9
$INSBASE
 10
0.0
 20
0.0
 30
0.0
  9
$EXTMIN
 10
0.0
 20
-1.4802182810368341
 30
0.0
  9
$EXTMAX
 10
63.338892000000001
 20
49.307853999999999
 30
0.0
  9
$LIMMIN
 10
0.0
 20
0.0
  9
$LIMMAX
 10
75.0
 20
54.0
  9
$ORTHOMODE
 70
     1
  9
$REGENMODE
 70
     1
  9
$FILLMODE
 70
     1
  9
$QTEXTMODE
 70
     0
  9
$MIRRTEXT
 70
     0
  9
$DRAGMODE
 70
     2
  9
$LTSCALE
 40
2.0
  9
$OSMODE
 70
  3071
  9
$ATTMODE
 70
     1
  9
$TEXTSIZE
 40
0.2
  9
$TRACEWID
 40
0.05
  9
$TEXTSTYLE
  7
STANDARD
  9
$CLAYER
  8
0
  9
$CELTYPE
  6
BYLAYER
  9
$CECOLOR
 62
   256
  9
$DIMSCALE
 40
0.2
  9
$DIMASZ
 40
3.0
  9
$DIMEXO
 40
2.0
  9
$DIMDLI
 40
10.0
  9
$DIMRND
 40
0.0
  9
$DIMDLE
 40
0.0
  9
$DIMEXE
 40
2.0
  9
$DIMTP
 40
0.0
  9
$DIMTM
 40
0.0
  9
$DIMTXT
 40
3.2000000000000002
  9
$DIMCEN
 40
0.09
  9
$DIMTSZ
 40
0.0
  9
$DIMTOL
 70
     0
  9
$DIMLIM
 70
     0
  9
$DIMTIH
 70
     0
  9
$DIMTOH
 70
     0
  9
$DIMSE1
 70
     0
  9
$DIMSE2
 70
     0
  9
$DIMTAD
 70
     1
  9
$DIMZIN
 70
     0
  9
$DIMBLK
  1

  9
$DIMASO
 70
     1
  9
$DIMSHO
 70
     0
  9
$DIMPOST
  1

  9
$DIMAPOST
  1

  9
$DIMALT
 70
     0
  9
$DIMALTD
 70
     2
  9
$DIMALTF
 40
25.399999999999999
  9
$DIMLFAC
 40
1.0
  9
$DIMTOFL
 70
     1
  9
$DIMTVP
 40
1.6000000000000001
  9
$DIMTIX
 70
     1
  9
$DIMSOXD
 70
     0
  9
$DIMSAH
 70
     0
  9
$DIMBLK1
  1

  9
$DIMBLK2
  1

  9
$DIMSTYLE
  2
STANDARD
  9
$DIMCLRD
 70
     0
  9
$DIMCLRE
 70
     0
  9
$DIMCLRT
 70
     0
  9
$DIMTFAC
 40
1.0
  9
$DIMGAP
 40
0.09
  9
$LUNITS
 70
     2
  9
$LUPREC
 70
     4
  9
$SKETCHINC
 40
0.1
  9
$FILLETRAD
 40
0.0
  9
$AUNITS
 70
     0
  9
$AUPREC
 70
     0
  9
$MENU
  1
E:\r13\win\SUPPORT\ACAD
  9
$ELEVATION
 40
0.0
  9
$PELEVATION
 40
0.0
  9
$THICKNESS
 40
0.0
  9
$LIMCHECK
 70
     0
  9
$BLIPMODE
 70
     0
  9
$CHAMFERA
 40
0.0
  9
$CHAMFERB
 40
0.0
  9
$SKPOLY
 70
     0
  9
$TDCREATE
 40
2449840.618888889
  9
$TDUPDATE
 40
2456598.4053248269
  9
$TDINDWG
 40
0.1120420602
  9
$TDUSRTIMER
 40
0.1120420602
  9
$USRTIMER
 70
     1
  9
$ANGBASE
 50
0.0
  9
$ANGDIR
 70
     0
  9
$PDMODE
 70
     0
  9
$PDSIZE
 40
0.0
  9
$PLINEWID
 40
0.0
  9
$COORDS
 70
     1
  9
$SPLFRAME
 70
     0
  9
$SPLINETYPE
 70
     6
  9
$SPLINESEGS
 70
     8
  9
$ATTDIA
 70
     0
  9
$ATTREQ
 70
     1
  9
$HANDLING
 70
     1
  9
$HANDSEED
  5
48C
  9
$SURFTAB1
 70
     6
  9
$SURFTAB2
 70
     6
  9
$SURFTYPE
 70
     6
  9
$SURFU
 70
     6
  9
$SURFV
 70
     6
  9
$UCSNAME
  2

  9
$UCSORG
 10
0.0
 20
0.0
 30
0.0
  9
$UCSXDIR
 10
1.0
 20
0.0
 30
0.0
  9
$UCSYDIR
 10
0.0
 20
1.0
 30
0.0
  9
$PUCSNAME
  2

  9
$PUCSORG
 10
0.0
 20
0.0
 30
0.0
  9
$PUCSXDIR
 10
1.0
 20
0.0
 30
0.0
  9
$PUCSYDIR
 10
0.0
 20
1.0
 30
0.0
  9
$USERI1
 70
     0
  9
$USERI2
 70
     1
  9
$USERI3
 70
     1
  9
$USERI4
 70
     0
  9
$USERI5
 70
     0
  9
$USERR1
 40
0.0
  9
$USERR2
 40
0.0
  9
$USERR3
 40
0.0
  9
$USERR4
 40
0.0
  9
$USERR5
 40
0.0
  9
$WORLDVIEW
 70
     1
  9
$SHADEDGE
 70
     3
  9
$SHADEDIF
 70
    70
  9
$TILEMODE
 70
     1
  9
$MAXACTVP
 70
    16
  9
$PLIMCHECK
 70
     0
  9
$PEXTMIN
 10
1.0000000000000000E+020
 20
1.0000000000000000E+020
 30
1.0000000000000000E+020
  9
$PEXTMAX
 10
-1.0000000000000000E+020
 20
-1.0000000000000000E+020
 30
-1.0000000000000000E+020
  9
$PLIMMIN
 10
0.0
 20
0.0
  9
$PLIMMAX
 10
12.0
 20
9.0
  9
$UNITMODE
 70
     0
  9
$VISRETAIN
 70
     0
  9
$PLINEGEN
 70
     0
  9
$PSLTSCALE
 70
     0
  0
ENDSEC
  0
SECTION
  2
TABLES
  0
TABLE
  2
VPORT
 70
     1
  0
VPORT
  2
*ACTIVE
 70
     0
 10
0.0
 20
0.0
 11
1.0
 21
1.0
 12
39.036165471588582
 22
26.259658875478959
 13
0.0
 23
0.0
 14
2.0
 24
2.0
 15
2.0
 25
2.0
 16
0.0
 26
0.0
 36
1.0
 17
0.0
 27
0.0
 37
0.0
 40
55.978266843203883
 41
1.831871345029239
 42
50.0
 43
0.0
 44
0.0
 50
0.0
 51
0.0
 71
     0
 72
   100
 73
     1
 74
     0
 75
     0
 76
     0
 77
     0
 78
     2
  0
ENDTAB
  0
TABLE
  2
LTYPE
 70
     4
  0
LTYPE
  2
CONTINUOUS
 70
     0
  3
Solid Line
 72
    65
 73
     0
 40
0.0
  0
LTYPE
  2
CENTER
 70
     0
  3
____ _ ____ _ ____ _ ____ _ ____ _ ____ _ ____
 72
    65
 73
     4
 40
2.0
 49
1.25
 49
-0.25
 49
0.25
 49
-0.25
  0
LTYPE
  2
HIDDEN
 70
     0
  3
_ _ _ _ _ _ _ _ _ _ _ _ _ _ _ _ _ _ _ _ _ _ _
 72
    65
 73
     2
 40
0.375
 49
0.25
 49
-0.125
  0
LTYPE
  2
PHANTOM2
 70
     0
  3
___ _ _ ___ _ _ ___ _ _ ___ _ _
 72
    65
 73
     6
 40
1.25
 49
0.625
 49
-0.125
 49
0.125
 49
-0.125
 49
0.125
 49
-0.125
  0
ENDTAB
  0
TABLE
  2
LAYER
 70
     4
  0
LAYER
  2
0
 70
     0
 62
     7
  6
CONTINUOUS
  0
LAYER
  2
1
 70
     0
 62
     1
  6
CENTER
  0
LAYER
  2
2
 70
     0
 62
     2
  6
HIDDEN
  0
LAYER
  2
3
 70
     0
 62
     3
  6
CONTINUOUS
  0
ENDTAB
  0
TABLE
  2
STYLE
 70
     2
  0
STYLE
  2
STANDARD
 70
     0
 40
0.0
 41
1.0
 50
0.0
 71
     0
 42
0.2
  3
TXT
  4
BIGFONT
  0
STYLE
  2
STANDARD1
 70
     0
 40
0.0
 41
1.0
 50
0.0
 71
     0
 42
3.0
  3
txt
  4

  0
ENDTAB
  0
TABLE
  2
VIEW
 70
     1
  0
VIEW
  2
ALL
 70
     0
 40
54.0
 10
44.198318999999998
 20
27.0
 41
0.0
 11
0.0
 21
0.0
 31
1.0
 12
0.0
 22
0.0
 32
0.0
 42
0.0
 43
0.0
 44
0.0
 50
0.0
 71
     0
  0
ENDTAB
  0
TABLE
  2
UCS
 70
     0
  0
ENDTAB
  0
TABLE
  2
APPID
 70
     3
  0
APPID
  2
ACAD
 70
     0
  0
APPID
  2
ACAD_MLEADERVER
 70
     0
  0
APPID
  2
ACAD_NAV_VCDISPLAY
 70
     0
  0
ENDTAB
  0
TABLE
  2
DIMSTYLE
 70
     1
  0
DIMSTYLE
  2
STANDARD
 70
     0
  3

  4

  5

  6

  7

 40
1.0
 41
0.18
 42
0.0625
 43
0.38
 44
0.18
 45
0.0
 46
0.0
 47
0.0
 48
0.0
140
0.18
141
0.09
142
0.0
143
25.399999999999999
144
1.0
145
0.0
146
1.0
147
0.09
 71
     0
 72
     0
 73
     1
 74
     1
 75
     0
 76
     0
 77
     0
 78
     0
170
     0
171
     2
172
     0
173
     0
174
     0
175
     0
176
     0
177
     0
178
     0
  0
ENDTAB
  0
ENDSEC
  0
SECTION
  2
BLOCKS
  0
BLOCK
  8
0
  2
$MODEL_SPACE
 70
     0
 10
0.0
 20
0.0
 30
0.0
  3
$MODEL_SPACE
  1

  0
ENDBLK
  5
2D4
  8
0
  0
BLOCK
 67
     1
  8
0
  2
$PAPER_SPACE
 70
     0
 10
0.0
 20
0.0
 30
0.0
  3
$PAPER_SPACE
  1

  0
ENDBLK
  5
2D2
 67
     1
  8
0
  0
BLOCK
  8
0
  2
STDGX5
 70
     0
 10
0.0
 20
0.0
 30
0.0
  3
STDGX5
  1

  0
ENDBLK
  5
1EE
  8
0
  0
ENDSEC
  0
SECTION
  2
ENTITIES
  0
LINE
  5
36
  8
1
 10
8.7386539999999986
 20
31.30785400000001
 30
0.0
 11
16.738654
 21
31.30785400000001
 31
0.0
  0
LINE
  5
37
  8
1
 10
28.119057999999999
 20
31.30785400000001
 30
0.0
 11
46.119058000000003
 21
31.30785400000001
 31
0.0
  0
LINE
  5
38
  8
1
 10
55.338892000000001
 20
31.30785400000001
 30
0.0
 11
63.338892000000001
 21
31.30785400000001
 31
0.0
  0
LINE
  5
39
  8
1
 10
59.338892000000001
 20
35.307853999999999
 30
0.0
 11
59.338892000000001
 21
27.307853999999999
 31
0.0
  0
LINE
  5
3A
  8
1
 10
12.738654
 20
35.307853999999999
 30
0.0
 11
12.738654
 21
27.307853999999999
 31
0.0
  0
CIRCLE
  5
3B
  8
0
 10
59.338892000000001
 20
31.30785400000001
 30
0.0
 40
3.0
  0
CIRCLE
  5
3C
  8
3
 10
59.338892000000001
 20
31.30785400000001
 30
0.0
 40
2.458499999999999
  0
CIRCLE
  5
3D
  8
0
 10
12.738654
 20
31.30785400000001
 30
0.0
 40
3.0
  0
CIRCLE
  5
3E
  8
3
 10
12.738654
 20
31.30785400000001
 30
0.0
 40
2.458499999999999
  0
LINE
  5
3F
  8
0
 10
43.219057999999997
 20
34.307853999999999
 30
0.0
 11
30.119057999999999
 21
34.307853999999999
 31
0.0
  0
LINE
  5
40
  8
3
 10
43.760558000000003
 20
33.766354
 30
0.0
 11
29.57755800000001
 21
33.766354
 31
0.0
  0
LINE
  5
41
  8
3
 10
43.760558000000003
 20
28.849354000000002
 30
0.0
 11
29.57755800000001
 21
28.849354000000002
 31
0.0
  0
LINE
  5
42
  8
0
 10
43.219057999999997
 20
28.307853999999999
 30
0.0
 11
30.119057999999999
 21
28.307853999999999
 31
0.0
  0
LINE
  5
4C
  8
0
 10
44.119058000000003
 20
33.407854
 30
0.0
 11
44.119058000000003
 21
29.207854000000001
 31
0.0
  0
LINE
  5
4D
  8
0
 10
29.11905800000001
 20
33.307854000000013
 30
0.0
 11
29.119057999999999
 21
29.307853999999999
 31
0.0
  0
LINE
  5
4E
  8
0
 10
30.119057999999999
 20
34.307853999999999
 30
0.0
 11
29.119057999999999
 21
33.307853999999999
 31
0.0
  0
LINE
  5
4F
  8
0
 10
29.119057999999999
 20
29.307853999999999
 30
0.0
 11
30.119057999999999
 21
28.307853999999999
 31
0.0
  0
CIRCLE
  5
50
  8
0
 10
59.338892000000001
 20
31.30785400000001
 30
0.0
 40
1.75
  0
LINE
  5
52
  8
0
 10
30.119057999999999
 20
34.307853999999992
 30
0.0
 11
30.119057999999999
 21
28.307853999999999
 31
0.0
  0
LINE
  5
55
  8
0
 10
44.119058000000003
 20
33.407854
 30
0.0
 11
43.219057999999997
 21
34.307853999999999
 31
0.0
  0
LINE
  5
56
  8
0
 10
44.119058000000003
 20
29.207854000000001
 30
0.0
 11
43.219057999999997
 21
28.307853999999999
 31
0.0
  0
LINE
  5
57
  8
0
 10
43.219057999999997
 20
34.307853999999999
 30
0.0
 11
43.219057999999997
 21
28.307853999999999
 31
0.0
  0
CIRCLE
  5
58
  8
0
 10
59.338892000000001
 20
31.30785400000001
 30
0.0
 40
2.1000000000000001
  0
ARC
  5
BA
  8
0
 10
43.369058000000003
 20
31.307853999999988
 30
0.0
 40
1.75
 50
295.37693352515231
 51
64.62306647484769
  0
ARC
  5
BD
  8
2
 10
42.369058000000003
 20
31.307853999999988
 30
0.0
 40
1.75
 50
295.37693352515231
 51
64.62306647484769
  0
LINE
  5
C3
  8
1
 10
28.119057999999999
 20
46.307853999999992
 30
0.0
 11
46.119058000000003
 21
46.307853999999992
 31
0.0
  0
LINE
  5
C4
  8
3
 10
43.760558000000003
 20
48.766354
 30
0.0
 11
29.57755800000001
 21
48.766354
 31
0.0
  0
LINE
  5
C5
  8
0
 10
43.219057999999997
 20
49.307853999999999
 30
0.0
 11
30.119057999999999
 21
49.307853999999999
 31
0.0
  0
LINE
  5
C6
  8
0
 10
43.219057999999997
 20
43.307853999999992
 30
0.0
 11
30.119057999999999
 21
43.307853999999992
 31
0.0
  0
LINE
  5
C7
  8
3
 10
43.760558000000003
 20
43.849353999999991
 30
0.0
 11
29.57755800000001
 21
43.849353999999991
 31
0.0
  0
LINE
  5
C8
  8
0
 10
30.119057999999999
 20
49.307853999999992
 30
0.0
 11
30.119057999999999
 21
43.307853999999992
 31
0.0
  0
LINE
  5
C9
  8
0
 10
29.11905800000001
 20
48.307853999999992
 30
0.0
 11
29.119057999999999
 21
44.307853999999999
 31
0.0
  0
LINE
  5
CA
  8
0
 10
29.119057999999999
 20
44.307853999999999
 30
0.0
 11
30.119057999999999
 21
43.307853999999992
 31
0.0
  0
LINE
  5
CB
  8
0
 10
30.119057999999999
 20
49.307853999999999
 30
0.0
 11
29.119057999999999
 21
48.307853999999992
 31
0.0
  0
LINE
  5
CC
  8
0
 10
44.119058000000003
 20
48.407853999999993
 30
0.0
 11
44.119058000000003
 21
44.207853999999998
 31
0.0
  0
LINE
  5
CD
  8
0
 10
43.219057999999997
 20
49.307853999999999
 30
0.0
 11
43.219057999999997
 21
43.307853999999992
 31
0.0
  0
LINE
  5
CE
  8
0
 10
44.119058000000003
 20
44.207853999999998
 30
0.0
 11
43.219057999999997
 21
43.307853999999992
 31
0.0
  0
ARC
  5
CF
  8
2
 10
42.369058000000003
 20
46.307853999999992
 30
0.0
 40
1.75
 50
295.37693352515231
 51
64.62306647484769
  0
ARC
  5
D0
  8
0
 10
43.369058000000003
 20
46.307853999999992
 30
0.0
 40
1.75
 50
295.37693352515231
 51
64.62306647484769
  0
LINE
  5
D1
  8
0
 10
44.119058000000003
 20
48.407853999999993
 30
0.0
 11
43.219057999999997
 21
49.307853999999999
 31
0.0
  0
LINE
  5
D3
  8
1
 10
28.119057999999999
 20
16.307853999999999
 30
0.0
 11
46.119058000000003
 21
16.307853999999999
 31
0.0
  0
LINE
  5
D4
  8
3
 10
43.760558000000003
 20
18.766354
 30
0.0
 11
29.57755800000001
 21
18.766354
 31
0.0
  0
LINE
  5
D5
  8
0
 10
43.219057999999997
 20
19.307853999999999
 30
0.0
 11
30.119057999999999
 21
19.307853999999999
 31
0.0
  0
LINE
  5
D6
  8
0
 10
43.219057999999997
 20
13.30785400000001
 30
0.0
 11
30.119057999999999
 21
13.30785400000001
 31
0.0
  0
LINE
  5
D7
  8
3
 10
43.760558000000003
 20
13.849354
 30
0.0
 11
29.57755800000001
 21
13.849354
 31
0.0
  0
LINE
  5
D8
  8
0
 10
30.119057999999999
 20
19.307853999999988
 30
0.0
 11
30.119057999999999
 21
13.30785400000001
 31
0.0
  0
LINE
  5
D9
  8
0
 10
29.11905800000001
 20
18.307853999999999
 30
0.0
 11
29.119057999999999
 21
14.307854000000001
 31
0.0
  0
LINE
  5
DA
  8
0
 10
29.119057999999999
 20
14.307854000000001
 30
0.0
 11
30.119057999999999
 21
13.30785400000001
 31
0.0
  0
LINE
  5
DB
  8
0
 10
30.119057999999999
 20
19.307853999999999
 30
0.0
 11
29.119057999999999
 21
18.307853999999999
 31
0.0
  0
LINE
  5
DC
  8
0
 10
44.119058000000003
 20
18.407854
 30
0.0
 11
44.119058000000003
 21
14.207853999999999
 31
0.0
  0
LINE
  5
DD
  8
0
 10
43.219057999999997
 20
19.307853999999999
 30
0.0
 11
43.219057999999997
 21
13.30785400000001
 31
0.0
  0
LINE
  5
DE
  8
0
 10
44.119058000000003
 20
14.207853999999999
 30
0.0
 11
43.219057999999997
 21
13.30785400000001
 31
0.0
  0
ARC
  5
DF
  8
2
 10
42.369058000000003
 20
16.307853999999999
 30
0.0
 40
1.75
 50
295.37693352515231
 51
64.62306647484769
  0
ARC
  5
E0
  8
0
 10
43.369058000000003
 20
16.307853999999999
 30
0.0
 40
1.75
 50
295.37693352515231
 51
64.62306647484769
  0
LINE
  5
E1
  8
0
 10
44.119058000000003
 20
18.407854
 30
0.0
 11
43.219057999999997
 21
19.307853999999999
 31
0.0
  0
LINE
  5
1D1
  8
0
 10
14.238653998779119
 20
32.173879403080079
 30
0.0
 11
14.238653998779119
 21
30.441828595511229
 31
0.0
  0
LINE
  5
1D2
  8
0
 10
12.738653999999659
 20
33.03990480615839
 30
0.0
 11
14.238653999999659
 21
32.173879402374311
 31
0.0
  0
LINE
  5
1D3
  8
0
 10
11.238654001221111
 20
30.441828596920949
 30
0.0
 11
11.238654001221111
 21
32.173879404489803
 31
0.0
  0
LINE
  5
1D4
  8
0
 10
11.238654001221111
 20
32.173879403079852
 30
0.0
 11
12.738654001221111
 21
33.039904806864392
 31
0.0
  0
LINE
  5
1D5
  8
0
 10
14.2386539987773
 20
30.44182859692004
 30
0.0
 11
12.738653998779119
 21
29.57580319313551
 31
0.0
  0
LINE
  5
1D6
  8
0
 10
12.738653999999659
 20
29.575803193841502
 30
0.0
 11
11.238653999999659
 21
30.44182859762558
 31
0.0
  0
LINE
  5
1D7
  8
2
 10
29.11905800000001
 20
30.44182859692123
 30
0.0
 11
32.11905800000001
 21
30.44182859692123
 31
0.0
  0
LINE
  5
1D8
  8
2
 10
29.11905800000001
 20
32.173879403079113
 30
0.0
 11
32.11905800000001
 21
32.173879403079113
 31
0.0
  0
LINE
  5
1D9
  8
2
 10
29.11905800000007
 20
33.03990480615839
 30
0.0
 11
32.11905800000001
 21
33.03990480615839
 31
0.0
  0
LINE
  5
1DA
  8
2
 10
29.11905800000001
 20
29.57580319384094
 30
0.0
 11
32.11905800000001
 21
29.57580319384094
 31
0.0
  0
LINE
  5
1DB
  8
2
 10
32.11905800000001
 20
33.03990480615839
 30
0.0
 11
32.11905800000001
 21
29.57580319384094
 31
0.0
  0
LINE
  5
1DE
  8
2
 10
32.11905800000001
 20
47.807853999999999
 30
0.0
 11
32.11905800000001
 21
44.807853999999999
 31
0.0
  0
LINE
  5
1DF
  8
2
 10
29.119057999999999
 20
44.807853999999999
 30
0.0
 11
32.11905800000001
 21
44.807853999999999
 31
0.0
  0
LINE
  5
1E3
  8
2
 10
29.119058000000059
 20
47.807853999999999
 30
0.0
 11
32.119058000000003
 21
47.807853999999999
 31
0.0
  0
LINE
  5
1E4
  8
2
 10
29.119057999999999
 20
46.307853999999992
 30
0.0
 11
32.11905800000001
 21
46.307853999999992
 31
0.0
  0
INSERT
  5
28A
  8
0
  2
STDGX5
 10
0.0
 20
0.0
 30
0.0
 41
0.2
 42
0.2
 43
0.2
  0
INSERT
  5
28B
  8
0
  2
STDGX5
 10
0.0
 20
0.0
 30
0.0
 41
0.2
 42
0.2
 43
0.2
  0
INSERT
  5
28C
  8
0
  2
STDGX5
 10
55.0
 20
0.0
 30
0.0
 41
0.2
 42
0.2
 43
0.2
  0
INSERT
  5
28D
  8
0
  2
STDGX5
 10
55.0
 20
0.0
 30
0.0
 41
0.2
 42
0.2
 43
0.2
  0
LINE
  5
3C5
  8
2
 10
32.11905800000001
 20
17.807853999999999
 30
0.0
 11
32.11905800000001
 21
14.807854000000001
 31
0.0
  0
LINE
  5
3C6
  8
2
 10
29.119057999999999
 20
14.807854000000001
 30
0.0
 11
32.11905800000001
 21
14.807854000000001
 31
0.0
  0
LINE
  5
3C7
  8
2
 10
29.119058000000059
 20
17.807853999999999
 30
0.0
 11
32.119058000000003
 21
17.807853999999999
 31
0.0
  0
LINE
  5
3C8
  8
2
 10
29.119057999999999
 20
16.307853999999999
 30
0.0
 11
32.11905800000001
 21
16.307853999999999
 31
0.0
  0
TEXT
  5
426
  8
0
 62
     3
 10
0.0
 20
0.0
 30
0.0
 40
5.0
  1
BSU6A
  7
STANDARD1
  0
ENDSEC
  0
EOF
