  0
SECTION
  2
HEADER
  9
$ACADVER
  1
AC1009
  9
$INSBASE
 10
0.0
 20
0.0
 30
0.0
  9
$EXTMIN
 10
0.0
 20
-1.4802182810368341
 30
0.0
  9
$EXTMAX
 10
52.106293878577873
 20
37.990634282326411
 30
0.0
  9
$LIMMIN
 10
0.0
 20
0.0
  9
$LIMMAX
 10
75.0
 20
54.0
  9
$ORTHOMODE
 70
     0
  9
$REGENMODE
 70
     1
  9
$FILLMODE
 70
     1
  9
$QTEXTMODE
 70
     0
  9
$MIRRTEXT
 70
     0
  9
$DRAGMODE
 70
     2
  9
$LTSCALE
 40
2.0
  9
$OSMODE
 70
  3071
  9
$ATTMODE
 70
     1
  9
$TEXTSIZE
 40
0.2
  9
$TRACEWID
 40
0.05
  9
$TEXTSTYLE
  7
STANDARD
  9
$CLAYER
  8
0
  9
$CELTYPE
  6
BYLAYER
  9
$CECOLOR
 62
   256
  9
$DIMSCALE
 40
0.2
  9
$DIMASZ
 40
3.0
  9
$DIMEXO
 40
2.0
  9
$DIMDLI
 40
10.0
  9
$DIMRND
 40
0.0
  9
$DIMDLE
 40
0.0
  9
$DIMEXE
 40
2.0
  9
$DIMTP
 40
0.0
  9
$DIMTM
 40
0.0
  9
$DIMTXT
 40
3.0
  9
$DIMCEN
 40
0.09
  9
$DIMTSZ
 40
0.0
  9
$DIMTOL
 70
     0
  9
$DIMLIM
 70
     0
  9
$DIMTIH
 70
     0
  9
$DIMTOH
 70
     0
  9
$DIMSE1
 70
     0
  9
$DIMSE2
 70
     0
  9
$DIMTAD
 70
     1
  9
$DIMZIN
 70
     0
  9
$DIMBLK
  1

  9
$DIMASO
 70
     0
  9
$DIMSHO
 70
     0
  9
$DIMPOST
  1

  9
$DIMAPOST
  1

  9
$DIMALT
 70
     0
  9
$DIMALTD
 70
     2
  9
$DIMALTF
 40
25.399999999999999
  9
$DIMLFAC
 40
1.0
  9
$DIMTOFL
 70
     1
  9
$DIMTVP
 40
1.6000000000000001
  9
$DIMTIX
 70
     1
  9
$DIMSOXD
 70
     0
  9
$DIMSAH
 70
     0
  9
$DIMBLK1
  1

  9
$DIMBLK2
  1

  9
$DIMSTYLE
  2
STANDARD
  9
$DIMCLRD
 70
     0
  9
$DIMCLRE
 70
     0
  9
$DIMCLRT
 70
     0
  9
$DIMTFAC
 40
1.0
  9
$DIMGAP
 40
0.09
  9
$LUNITS
 70
     2
  9
$LUPREC
 70
     4
  9
$SKETCHINC
 40
0.1
  9
$FILLETRAD
 40
0.0
  9
$AUNITS
 70
     0
  9
$AUPREC
 70
     0
  9
$MENU
  1
E:\r13\win\SUPPORT\ACAD
  9
$ELEVATION
 40
0.0
  9
$PELEVATION
 40
0.0
  9
$THICKNESS
 40
0.0
  9
$LIMCHECK
 70
     0
  9
$BLIPMODE
 70
     0
  9
$CHAMFERA
 40
0.0
  9
$CHAMFERB
 40
0.0
  9
$SKPOLY
 70
     0
  9
$TDCREATE
 40
2449840.618888889
  9
$TDUPDATE
 40
2456598.404952338
  9
$TDINDWG
 40
0.1322973264
  9
$TDUSRTIMER
 40
0.1322973264
  9
$USRTIMER
 70
     1
  9
$ANGBASE
 50
0.0
  9
$ANGDIR
 70
     0
  9
$PDMODE
 70
     0
  9
$PDSIZE
 40
0.0
  9
$PLINEWID
 40
0.0
  9
$COORDS
 70
     1
  9
$SPLFRAME
 70
     0
  9
$SPLINETYPE
 70
     6
  9
$SPLINESEGS
 70
     8
  9
$ATTDIA
 70
     0
  9
$ATTREQ
 70
     1
  9
$HANDLING
 70
     1
  9
$HANDSEED
  5
5EE
  9
$SURFTAB1
 70
     6
  9
$SURFTAB2
 70
     6
  9
$SURFTYPE
 70
     6
  9
$SURFU
 70
     6
  9
$SURFV
 70
     6
  9
$UCSNAME
  2

  9
$UCSORG
 10
0.0
 20
0.0
 30
0.0
  9
$UCSXDIR
 10
1.0
 20
0.0
 30
0.0
  9
$UCSYDIR
 10
0.0
 20
1.0
 30
0.0
  9
$PUCSNAME
  2

  9
$PUCSORG
 10
0.0
 20
0.0
 30
0.0
  9
$PUCSXDIR
 10
1.0
 20
0.0
 30
0.0
  9
$PUCSYDIR
 10
0.0
 20
1.0
 30
0.0
  9
$USERI1
 70
     0
  9
$USERI2
 70
     1
  9
$USERI3
 70
     1
  9
$USERI4
 70
     0
  9
$USERI5
 70
     0
  9
$USERR1
 40
0.0
  9
$USERR2
 40
0.0
  9
$USERR3
 40
0.0
  9
$USERR4
 40
0.0
  9
$USERR5
 40
0.0
  9
$WORLDVIEW
 70
     1
  9
$SHADEDGE
 70
     3
  9
$SHADEDIF
 70
    70
  9
$TILEMODE
 70
     1
  9
$MAXACTVP
 70
    16
  9
$PLIMCHECK
 70
     0
  9
$PEXTMIN
 10
1.0000000000000000E+020
 20
1.0000000000000000E+020
 30
1.0000000000000000E+020
  9
$PEXTMAX
 10
-1.0000000000000000E+020
 20
-1.0000000000000000E+020
 30
-1.0000000000000000E+020
  9
$PLIMMIN
 10
0.0
 20
0.0
  9
$PLIMMAX
 10
12.0
 20
9.0
  9
$UNITMODE
 70
     0
  9
$VISRETAIN
 70
     0
  9
$PLINEGEN
 70
     0
  9
$PSLTSCALE
 70
     0
  0
ENDSEC
  0
SECTION
  2
TABLES
  0
TABLE
  2
VPORT
 70
     1
  0
VPORT
  2
*ACTIVE
 70
     0
 10
0.0
 20
0.0
 11
1.0
 21
1.0
 12
39.036165471588582
 22
26.259658875478959
 13
0.0
 23
0.0
 14
2.0
 24
2.0
 15
2.0
 25
2.0
 16
0.0
 26
0.0
 36
1.0
 17
0.0
 27
0.0
 37
0.0
 40
55.978266843203883
 41
1.831871345029239
 42
50.0
 43
0.0
 44
0.0
 50
0.0
 51
0.0
 71
     0
 72
   100
 73
     1
 74
     0
 75
     0
 76
     0
 77
     0
 78
     2
  0
ENDTAB
  0
TABLE
  2
LTYPE
 70
     4
  0
LTYPE
  2
CONTINUOUS
 70
     0
  3
Solid Line
 72
    65
 73
     0
 40
0.0
  0
LTYPE
  2
CENTER
 70
     0
  3
____ _ ____ _ ____ _ ____ _ ____ _ ____ _ ____
 72
    65
 73
     4
 40
2.0
 49
1.25
 49
-0.25
 49
0.25
 49
-0.25
  0
LTYPE
  2
HIDDEN
 70
     0
  3
_ _ _ _ _ _ _ _ _ _ _ _ _ _ _ _ _ _ _ _ _ _ _
 72
    65
 73
     2
 40
0.375
 49
0.25
 49
-0.125
  0
LTYPE
  2
PHANTOM2
 70
     0
  3
___ _ _ ___ _ _ ___ _ _ ___ _ _
 72
    65
 73
     6
 40
1.25
 49
0.625
 49
-0.125
 49
0.125
 49
-0.125
 49
0.125
 49
-0.125
  0
ENDTAB
  0
TABLE
  2
LAYER
 70
     4
  0
LAYER
  2
0
 70
     0
 62
     7
  6
CONTINUOUS
  0
LAYER
  2
1
 70
     0
 62
     1
  6
CENTER
  0
LAYER
  2
2
 70
     0
 62
     2
  6
HIDDEN
  0
LAYER
  2
3
 70
     0
 62
     3
  6
CONTINUOUS
  0
ENDTAB
  0
TABLE
  2
STYLE
 70
     2
  0
STYLE
  2
STANDARD
 70
     0
 40
0.0
 41
1.0
 50
0.0
 71
     0
 42
0.2
  3
TXT
  4
BIGFONT
  0
STYLE
  2
STANDARD1
 70
     0
 40
0.0
 41
1.0
 50
0.0
 71
     0
 42
3.0
  3
txt
  4

  0
ENDTAB
  0
TABLE
  2
VIEW
 70
     1
  0
VIEW
  2
ALL
 70
     0
 40
54.0
 10
44.198318999999998
 20
27.0
 41
0.0
 11
0.0
 21
0.0
 31
1.0
 12
0.0
 22
0.0
 32
0.0
 42
0.0
 43
0.0
 44
0.0
 50
0.0
 71
     0
  0
ENDTAB
  0
TABLE
  2
UCS
 70
     0
  0
ENDTAB
  0
TABLE
  2
APPID
 70
     4
  0
APPID
  2
ACAD
 70
     0
  0
APPID
  2
DCO15
 70
     0
  0
APPID
  2
ACAD_MLEADERVER
 70
     0
  0
APPID
  2
ACAD_NAV_VCDISPLAY
 70
     0
  0
ENDTAB
  0
TABLE
  2
DIMSTYLE
 70
     1
  0
DIMSTYLE
  2
STANDARD
 70
     0
  3

  4

  5

  6

  7

 40
1.0
 41
0.18
 42
0.0625
 43
0.38
 44
0.18
 45
0.0
 46
0.0
 47
0.0
 48
0.0
140
0.18
141
0.09
142
0.0
143
25.399999999999999
144
1.0
145
0.0
146
1.0
147
0.09
 71
     0
 72
     0
 73
     1
 74
     1
 75
     0
 76
     0
 77
     0
 78
     0
170
     0
171
     2
172
     0
173
     0
174
     0
175
     0
176
     0
177
     0
178
     0
  0
ENDTAB
  0
ENDSEC
  0
SECTION
  2
BLOCKS
  0
BLOCK
  8
0
  2
$MODEL_SPACE
 70
     0
 10
0.0
 20
0.0
 30
0.0
  3
$MODEL_SPACE
  1

  0
ENDBLK
  5
2D4
  8
0
  0
BLOCK
 67
     1
  8
0
  2
$PAPER_SPACE
 70
     0
 10
0.0
 20
0.0
 30
0.0
  3
$PAPER_SPACE
  1

  0
ENDBLK
  5
2D2
 67
     1
  8
0
  0
BLOCK
  8
0
  2
STDGX5
 70
     0
 10
0.0
 20
0.0
 30
0.0
  3
STDGX5
  1

  0
ENDBLK
  5
1EE
  8
0
  0
ENDSEC
  0
SECTION
  2
ENTITIES
  0
INSERT
  5
28A
  8
0
  2
STDGX5
 10
0.0
 20
0.0
 30
0.0
 41
0.2
 42
0.2
 43
0.2
  0
INSERT
  5
28B
  8
0
  2
STDGX5
 10
0.0
 20
0.0
 30
0.0
 41
0.2
 42
0.2
 43
0.2
  0
INSERT
  5
28C
  8
0
  2
STDGX5
 10
55.0
 20
0.0
 30
0.0
 41
0.2
 42
0.2
 43
0.2
  0
INSERT
  5
28D
  8
0
  2
STDGX5
 10
55.0
 20
0.0
 30
0.0
 41
0.2
 42
0.2
 43
0.2
  0
LINE
  5
345
  8
3
 10
29.01706387857789
 20
22.8857342823264
 30
0.0
 11
37.508063878577872
 21
22.8857342823264
 31
0.0
  0
LINE
  5
346
  8
3
 10
29.01706387857789
 20
25.34473428232641
 30
0.0
 11
37.508063878577893
 21
25.34473428232641
 31
0.0
  0
LINE
  5
347
  8
0
 10
29.287563878577881
 20
22.615234282326401
 30
0.0
 11
37.237563878577859
 21
22.615234282326401
 31
0.0
  0
LINE
  5
348
  8
0
 10
29.287563878577881
 20
25.615234282326409
 30
0.0
 11
37.237563878577888
 21
25.615234282326409
 31
0.0
  0
CIRCLE
  5
349
  8
3
 10
15.72591187857787
 20
24.115234282326409
 30
0.0
 40
1.2295
  0
CIRCLE
  5
34A
  8
3
 10
49.606293878577873
 20
24.115234282326409
 30
0.0
 40
1.2295
  0
CIRCLE
  5
34B
  8
0
 10
15.72591187857787
 20
24.115234282326409
 30
0.0
 40
1.5
  0
CIRCLE
  5
34C
  8
0
 10
49.606293878577873
 20
24.115234282326409
 30
0.0
 40
1.5
  0
LINE
  5
34D
  8
1
 10
49.606293878577873
 20
26.615234282326409
 30
0.0
 11
49.606293878577873
 21
21.615234282326409
 31
0.0
  0
LINE
  5
34E
  8
1
 10
15.72591187857787
 20
26.615234282326409
 30
0.0
 11
15.72591187857787
 21
21.615234282326409
 31
0.0
  0
LINE
  5
34F
  8
1
 10
47.106293878577873
 20
24.115234282326409
 30
0.0
 11
52.106293878577873
 21
24.115234282326409
 31
0.0
  0
LINE
  5
350
  8
1
 10
27.787563878577888
 20
24.115234282326409
 30
0.0
 11
39.287563878577878
 21
24.115234282326409
 31
0.0
  0
LINE
  5
351
  8
1
 10
13.22591187857787
 20
24.115234282326409
 30
0.0
 11
18.225911878577872
 21
24.115234282326409
 31
0.0
  0
LINE
  5
354
  8
0
 10
28.787563878577899
 20
25.115234282326409
 30
0.0
 11
28.787563878577888
 21
23.115234282326409
 31
0.0
  0
LINE
  5
355
  8
0
 10
29.287563878577881
 20
25.615234282326409
 30
0.0
 11
28.787563878577888
 21
25.115234282326409
 31
0.0
  0
LINE
  5
356
  8
0
 10
28.787563878577888
 20
23.115234282326409
 30
0.0
 11
29.287563878577881
 21
22.615234282326401
 31
0.0
  0
CIRCLE
  5
357
  8
0
 10
49.606293878577873
 20
24.115234282326409
 30
0.0
 40
0.95
  0
CIRCLE
  5
358
  8
0
 10
49.606293878577873
 20
24.115234282326409
 30
0.0
 40
0.75
  0
LINE
  5
359
  8
0
 10
37.787563878577892
 20
25.065234282326411
 30
0.0
 11
37.787563878577892
 21
23.165234282326399
 31
0.0
  0
LINE
  5
35C
  8
0
 10
37.787563878577892
 20
25.065234282326411
 30
0.0
 11
37.237563878577873
 21
25.615234282326409
 31
0.0
  0
LINE
  5
35D
  8
0
 10
37.787563878577892
 20
23.165234282326399
 30
0.0
 11
37.237563878577873
 21
22.615234282326401
 31
0.0
  0
LINE
  5
35F
  8
0
 10
37.237563878577873
 20
25.615234282326409
 30
0.0
 11
37.237563878577873
 21
22.615234282326401
 31
0.0
  0
LINE
  5
360
  8
0
 10
29.287563878577881
 20
25.615234282326409
 30
0.0
 11
29.287563878577881
 21
22.615234282326401
 31
0.0
  0
ARC
  5
361
  8
0
 10
37.537563878577892
 20
24.115234282326409
 30
0.0
 40
0.75
 50
289.4712209999999
 51
70.528779000000114
  0
ARC
  5
364
  8
2
 10
37.037563878577892
 20
24.115234282326409
 30
0.0
 40
0.75
 50
289.4712209999999
 51
70.528779000000114
  0
LINE
  5
3DB
  8
0
 10
15.725911878577991
 20
24.981259685405629
 30
0.0
 11
16.475911878577989
 21
24.548246983513589
 31
0.0
  0
LINE
  5
3DC
  8
0
 10
14.975911879188709
 20
24.54824698386636
 30
0.0
 11
15.725911879188709
 21
24.981259685758619
 31
0.0
  0
LINE
  5
3DD
  8
0
 10
14.975911879188709
 20
23.682221580786909
 30
0.0
 11
14.975911879188709
 21
24.548246984571328
 31
0.0
  0
LINE
  5
3DE
  8
0
 10
15.725911878577991
 20
23.249208879247188
 30
0.0
 11
14.975911878577991
 21
23.682221581139231
 31
0.0
  0
LINE
  5
3DF
  8
0
 10
16.475911877966809
 20
23.682221580786461
 30
0.0
 11
15.72591187796772
 21
23.249208878894191
 31
0.0
  0
LINE
  5
3E0
  8
0
 10
16.475911877967722
 20
24.54824698386647
 30
0.0
 11
16.475911877967722
 21
23.68222158008205
 31
0.0
  0
LINE
  5
3E5
  8
2
 10
28.787563878577888
 20
24.548246983865958
 30
0.0
 11
30.287563878577888
 21
24.548246983865901
 31
0.0
  0
LINE
  5
3E6
  8
2
 10
28.787563878577888
 20
24.981259685405799
 30
0.0
 11
30.287563878577888
 21
24.981259685405799
 31
0.0
  0
LINE
  5
3E7
  8
2
 10
28.78756387857786
 20
23.682221580786852
 30
0.0
 11
30.287563878577888
 21
23.682221580786852
 31
0.0
  0
LINE
  5
3E8
  8
2
 10
28.787563878577888
 20
23.2492088792469
 30
0.0
 11
30.287563878577888
 21
23.24920887924684
 31
0.0
  0
LINE
  5
3E9
  8
2
 10
30.28756387857792
 20
24.981259685405799
 30
0.0
 11
30.28756387857792
 21
23.24920887924684
 31
0.0
  0
LINE
  5
422
  8
1
 10
27.787563878577888
 20
36.490634282326397
 30
0.0
 11
39.287563878577878
 21
36.490634282326397
 31
0.0
  0
LINE
  5
423
  8
0
 10
29.287563878577881
 20
34.990634282326397
 30
0.0
 11
37.237563878577859
 21
34.990634282326397
 31
0.0
  0
LINE
  5
424
  8
3
 10
29.01706387857789
 20
35.261134282326402
 30
0.0
 11
37.508063878577872
 21
35.261134282326402
 31
0.0
  0
LINE
  5
425
  8
3
 10
29.01706387857789
 20
37.720134282326413
 30
0.0
 11
37.508063878577893
 21
37.720134282326413
 31
0.0
  0
LINE
  5
426
  8
0
 10
29.287563878577881
 20
37.990634282326411
 30
0.0
 11
37.237563878577888
 21
37.990634282326411
 31
0.0
  0
LINE
  5
427
  8
2
 10
28.787563878577888
 20
35.740634282326411
 30
0.0
 11
30.287563878577888
 21
35.740634282326347
 31
0.0
  0
LINE
  5
428
  8
2
 10
28.787563878577888
 20
37.240634282326411
 30
0.0
 11
30.287563878577888
 21
37.240634282326411
 31
0.0
  0
LINE
  5
429
  8
2
 10
28.787563878577881
 20
36.490634282326411
 30
0.0
 11
30.287563878577881
 21
36.490634282326347
 31
0.0
  0
LINE
  5
42B
  8
0
 10
29.287563878577881
 20
37.990634282326411
 30
0.0
 11
29.287563878577881
 21
34.990634282326397
 31
0.0
  0
LINE
  5
42C
  8
0
 10
28.787563878577899
 20
37.490634282326411
 30
0.0
 11
28.787563878577888
 21
35.490634282326411
 31
0.0
  0
LINE
  5
42D
  8
0
 10
28.787563878577888
 20
35.490634282326411
 30
0.0
 11
29.287563878577881
 21
34.990634282326397
 31
0.0
  0
LINE
  5
42E
  8
0
 10
29.287563878577881
 20
37.990634282326411
 30
0.0
 11
28.787563878577888
 21
37.490634282326397
 31
0.0
  0
LINE
  5
42F
  8
2
 10
30.28756387857791
 20
37.240634282326411
 30
0.0
 11
30.28756387857792
 21
35.740634282326347
 31
0.0
  0
ARC
  5
432
  8
0
 10
37.537563878577892
 20
36.490634282326397
 30
0.0
 40
0.75
 50
289.4712209999999
 51
70.528779000000114
  0
LINE
  5
433
  8
0
 10
37.787563878577892
 20
37.440634282326407
 30
0.0
 11
37.787563878577892
 21
35.540634282326401
 31
0.0
  0
LINE
  5
434
  8
0
 10
37.237563878577873
 20
37.990634282326411
 30
0.0
 11
37.237563878577873
 21
34.990634282326397
 31
0.0
  0
ARC
  5
435
  8
2
 10
37.037563878577892
 20
36.490634282326397
 30
0.0
 40
0.75
 50
289.4712209999999
 51
70.528779000000114
  0
LINE
  5
436
  8
0
 10
37.787563878577892
 20
35.540634282326401
 30
0.0
 11
37.237563878577873
 21
34.990634282326397
 31
0.0
  0
LINE
  5
437
  8
0
 10
37.787563878577892
 20
37.440634282326407
 30
0.0
 11
37.237563878577873
 21
37.990634282326411
 31
0.0
  0
LINE
  5
448
  8
1
 10
27.787563878577888
 20
12.131871282326401
 30
0.0
 11
39.287563878577878
 21
12.131871282326401
 31
0.0
  0
LINE
  5
449
  8
0
 10
29.287563878577881
 20
13.631871282326401
 30
0.0
 11
37.237563878577888
 21
13.631871282326401
 31
0.0
  0
LINE
  5
44A
  8
3
 10
29.01706387857789
 20
13.361371282326401
 30
0.0
 11
37.508063878577893
 21
13.361371282326401
 31
0.0
  0
LINE
  5
44B
  8
3
 10
29.01706387857789
 20
10.902371282326399
 30
0.0
 11
37.508063878577872
 21
10.902371282326399
 31
0.0
  0
LINE
  5
44C
  8
0
 10
29.287563878577881
 20
10.631871282326401
 30
0.0
 11
37.237563878577859
 21
10.631871282326401
 31
0.0
  0
LINE
  5
44D
  8
0
 10
28.787563878577888
 20
11.131871282326401
 30
0.0
 11
29.287563878577881
 21
10.631871282326401
 31
0.0
  0
LINE
  5
44E
  8
0
 10
29.287563878577881
 20
13.631871282326401
 30
0.0
 11
29.287563878577881
 21
10.631871282326401
 31
0.0
  0
LINE
  5
453
  8
0
 10
29.287563878577881
 20
13.631871282326401
 30
0.0
 11
28.787563878577888
 21
13.131871282326401
 31
0.0
  0
LINE
  5
454
  8
0
 10
28.787563878577899
 20
13.13187128232641
 30
0.0
 11
28.787563878577888
 21
11.131871282326401
 31
0.0
  0
LINE
  5
458
  8
0
 10
37.787563878577892
 20
11.1818712823264
 30
0.0
 11
37.237563878577873
 21
10.631871282326401
 31
0.0
  0
LINE
  5
459
  8
0
 10
37.237563878577873
 20
13.631871282326401
 30
0.0
 11
37.237563878577873
 21
10.631871282326401
 31
0.0
  0
LINE
  5
45A
  8
0
 10
37.787563878577892
 20
13.0818712823264
 30
0.0
 11
37.237563878577873
 21
13.631871282326401
 31
0.0
  0
ARC
  5
45B
  8
2
 10
37.037563878577892
 20
12.131871282326401
 30
0.0
 40
0.75
 50
289.4712209999999
 51
70.528779000000114
  0
LINE
  5
45C
  8
0
 10
37.787563878577892
 20
13.0818712823264
 30
0.0
 11
37.787563878577892
 21
11.1818712823264
 31
0.0
  0
ARC
  5
45D
  8
0
 10
37.537563878577892
 20
12.131871282326401
 30
0.0
 40
0.75
 50
289.4712209999999
 51
70.528779000000114
  0
LINE
  5
525
  8
2
 10
28.787563878577888
 20
11.38187128232641
 30
0.0
 11
30.287563878577888
 21
11.381871282326349
 31
0.0
  0
LINE
  5
526
  8
2
 10
28.787563878577888
 20
12.88187128232641
 30
0.0
 11
30.287563878577888
 21
12.88187128232641
 31
0.0
  0
LINE
  5
527
  8
2
 10
28.787563878577881
 20
12.13187128232641
 30
0.0
 11
30.287563878577881
 21
12.13187128232636
 31
0.0
  0
LINE
  5
528
  8
2
 10
30.28756387857791
 20
12.88187128232641
 30
0.0
 11
30.28756387857792
 21
11.381871282326349
 31
0.0
  0
TEXT
  5
586
  8
0
 62
     3
 10
0.0
 20
0.0
 30
0.0
 40
5.0
  1
BSU3A
  7
STANDARD1
  0
ENDSEC
  0
EOF
