  0
SECTION
  2
HEADER
  9
$ACADVER
  1
AC1009
  9
$INSBASE
 10
0.0
 20
0.0
 30
0.0
  9
$EXTMIN
 10
0.0
 20
-1.4802182810368341
 30
0.0
  9
$EXTMAX
 10
158.62243599999999
 20
127.47304699999999
 30
0.0
  9
$LIMMIN
 10
0.0
 20
0.0
  9
$LIMMAX
 10
187.5
 20
135.0
  9
$ORTHOMODE
 70
     1
  9
$REGENMODE
 70
     1
  9
$FILLMODE
 70
     1
  9
$QTEXTMODE
 70
     0
  9
$MIRRTEXT
 70
     0
  9
$DRAGMODE
 70
     2
  9
$LTSCALE
 40
5.0
  9
$OSMODE
 70
  3071
  9
$ATTMODE
 70
     1
  9
$TEXTSIZE
 40
0.2
  9
$TRACEWID
 40
0.05
  9
$TEXTSTYLE
  7
STANDARD
  9
$CLAYER
  8
0
  9
$CELTYPE
  6
BYLAYER
  9
$CECOLOR
 62
   256
  9
$DIMSCALE
 40
0.5
  9
$DIMASZ
 40
3.0
  9
$DIMEXO
 40
2.0
  9
$DIMDLI
 40
10.0
  9
$DIMRND
 40
0.0
  9
$DIMDLE
 40
0.0
  9
$DIMEXE
 40
2.0
  9
$DIMTP
 40
0.0
  9
$DIMTM
 40
0.0
  9
$DIMTXT
 40
3.2000000000000002
  9
$DIMCEN
 40
0.09
  9
$DIMTSZ
 40
0.0
  9
$DIMTOL
 70
     0
  9
$DIMLIM
 70
     0
  9
$DIMTIH
 70
     0
  9
$DIMTOH
 70
     0
  9
$DIMSE1
 70
     0
  9
$DIMSE2
 70
     0
  9
$DIMTAD
 70
     1
  9
$DIMZIN
 70
     0
  9
$DIMBLK
  1

  9
$DIMASO
 70
     1
  9
$DIMSHO
 70
     0
  9
$DIMPOST
  1

  9
$DIMAPOST
  1

  9
$DIMALT
 70
     0
  9
$DIMALTD
 70
     2
  9
$DIMALTF
 40
25.399999999999999
  9
$DIMLFAC
 40
1.0
  9
$DIMTOFL
 70
     1
  9
$DIMTVP
 40
1.6000000000000001
  9
$DIMTIX
 70
     1
  9
$DIMSOXD
 70
     0
  9
$DIMSAH
 70
     0
  9
$DIMBLK1
  1

  9
$DIMBLK2
  1

  9
$DIMSTYLE
  2
STANDARD
  9
$DIMCLRD
 70
     0
  9
$DIMCLRE
 70
     0
  9
$DIMCLRT
 70
     0
  9
$DIMTFAC
 40
1.0
  9
$DIMGAP
 40
0.09
  9
$LUNITS
 70
     2
  9
$LUPREC
 70
     4
  9
$SKETCHINC
 40
0.1
  9
$FILLETRAD
 40
0.0
  9
$AUNITS
 70
     0
  9
$AUPREC
 70
     0
  9
$MENU
  1
E:\r13\win\SUPPORT\ACAD
  9
$ELEVATION
 40
0.0
  9
$PELEVATION
 40
0.0
  9
$THICKNESS
 40
0.0
  9
$LIMCHECK
 70
     0
  9
$BLIPMODE
 70
     0
  9
$CHAMFERA
 40
0.0
  9
$CHAMFERB
 40
0.0
  9
$SKPOLY
 70
     0
  9
$TDCREATE
 40
2449840.618969908
  9
$TDUPDATE
 40
2456598.4047208559
  9
$TDINDWG
 40
0.012119537
  9
$TDUSRTIMER
 40
0.012119537
  9
$USRTIMER
 70
     1
  9
$ANGBASE
 50
0.0
  9
$ANGDIR
 70
     0
  9
$PDMODE
 70
     0
  9
$PDSIZE
 40
0.0
  9
$PLINEWID
 40
0.0
  9
$COORDS
 70
     1
  9
$SPLFRAME
 70
     0
  9
$SPLINETYPE
 70
     6
  9
$SPLINESEGS
 70
     8
  9
$ATTDIA
 70
     0
  9
$ATTREQ
 70
     1
  9
$HANDLING
 70
     1
  9
$HANDSEED
  5
512
  9
$SURFTAB1
 70
     6
  9
$SURFTAB2
 70
     6
  9
$SURFTYPE
 70
     6
  9
$SURFU
 70
     6
  9
$SURFV
 70
     6
  9
$UCSNAME
  2

  9
$UCSORG
 10
0.0
 20
0.0
 30
0.0
  9
$UCSXDIR
 10
1.0
 20
0.0
 30
0.0
  9
$UCSYDIR
 10
0.0
 20
1.0
 30
0.0
  9
$PUCSNAME
  2

  9
$PUCSORG
 10
0.0
 20
0.0
 30
0.0
  9
$PUCSXDIR
 10
1.0
 20
0.0
 30
0.0
  9
$PUCSYDIR
 10
0.0
 20
1.0
 30
0.0
  9
$USERI1
 70
     0
  9
$USERI2
 70
     1
  9
$USERI3
 70
     1
  9
$USERI4
 70
     0
  9
$USERI5
 70
     0
  9
$USERR1
 40
0.0
  9
$USERR2
 40
0.0
  9
$USERR3
 40
0.0
  9
$USERR4
 40
0.0
  9
$USERR5
 40
0.0
  9
$WORLDVIEW
 70
     1
  9
$SHADEDGE
 70
     3
  9
$SHADEDIF
 70
    70
  9
$TILEMODE
 70
     1
  9
$MAXACTVP
 70
    16
  9
$PLIMCHECK
 70
     0
  9
$PEXTMIN
 10
1.0000000000000000E+020
 20
1.0000000000000000E+020
 30
1.0000000000000000E+020
  9
$PEXTMAX
 10
-1.0000000000000000E+020
 20
-1.0000000000000000E+020
 30
-1.0000000000000000E+020
  9
$PLIMMIN
 10
0.0
 20
0.0
  9
$PLIMMAX
 10
12.0
 20
9.0
  9
$UNITMODE
 70
     0
  9
$VISRETAIN
 70
     0
  9
$PLINEGEN
 70
     0
  9
$PSLTSCALE
 70
     0
  0
ENDSEC
  0
SECTION
  2
TABLES
  0
TABLE
  2
VPORT
 70
     1
  0
VPORT
  2
*ACTIVE
 70
     0
 10
0.0
 20
0.0
 11
1.0
 21
1.0
 12
97.52905416604365
 22
66.75636307133405
 13
0.0
 23
0.0
 14
5.0
 24
5.0
 15
5.0
 25
5.0
 16
0.0
 26
0.0
 36
1.0
 17
0.0
 27
0.0
 37
0.0
 40
137.71137496815999
 41
1.831871345029239
 42
50.0
 43
0.0
 44
0.0
 50
0.0
 51
0.0
 71
     0
 72
   100
 73
     1
 74
     0
 75
     0
 76
     0
 77
     0
 78
     2
  0
ENDTAB
  0
TABLE
  2
LTYPE
 70
     4
  0
LTYPE
  2
CONTINUOUS
 70
     0
  3
Solid Line
 72
    65
 73
     0
 40
0.0
  0
LTYPE
  2
CENTER
 70
     0
  3
____ _ ____ _ ____ _ ____ _ ____ _ ____ _ ____
 72
    65
 73
     4
 40
2.0
 49
1.25
 49
-0.25
 49
0.25
 49
-0.25
  0
LTYPE
  2
HIDDEN
 70
     0
  3
_ _ _ _ _ _ _ _ _ _ _ _ _ _ _ _ _ _ _ _ _ _ _
 72
    65
 73
     2
 40
0.375
 49
0.25
 49
-0.125
  0
LTYPE
  2
PHANTOM2
 70
     0
  3
___ _ _ ___ _ _ ___ _ _ ___ _ _
 72
    65
 73
     6
 40
1.25
 49
0.625
 49
-0.125
 49
0.125
 49
-0.125
 49
0.125
 49
-0.125
  0
ENDTAB
  0
TABLE
  2
LAYER
 70
     4
  0
LAYER
  2
0
 70
     0
 62
     7
  6
CONTINUOUS
  0
LAYER
  2
1
 70
     0
 62
     1
  6
CENTER
  0
LAYER
  2
2
 70
     0
 62
     2
  6
HIDDEN
  0
LAYER
  2
3
 70
     0
 62
     3
  6
CONTINUOUS
  0
ENDTAB
  0
TABLE
  2
STYLE
 70
     2
  0
STYLE
  2
STANDARD
 70
     0
 40
0.0
 41
1.0
 50
0.0
 71
     0
 42
0.2
  3
TXT
  4
BIGFONT
  0
STYLE
  2
STANDARD1
 70
     0
 40
0.0
 41
1.0
 50
0.0
 71
     0
 42
3.0
  3
txt
  4

  0
ENDTAB
  0
TABLE
  2
VIEW
 70
     1
  0
VIEW
  2
ALL
 70
     0
 40
135.0
 10
110.49579799999999
 20
67.5
 41
0.0
 11
0.0
 21
0.0
 31
1.0
 12
0.0
 22
0.0
 32
0.0
 42
0.0
 43
0.0
 44
0.0
 50
0.0
 71
     0
  0
ENDTAB
  0
TABLE
  2
UCS
 70
     0
  0
ENDTAB
  0
TABLE
  2
APPID
 70
     3
  0
APPID
  2
ACAD
 70
     0
  0
APPID
  2
ACAD_MLEADERVER
 70
     0
  0
APPID
  2
ACAD_NAV_VCDISPLAY
 70
     0
  0
ENDTAB
  0
TABLE
  2
DIMSTYLE
 70
     1
  0
DIMSTYLE
  2
STANDARD
 70
     0
  3

  4

  5

  6

  7

 40
1.0
 41
0.18
 42
0.0625
 43
0.38
 44
0.18
 45
0.0
 46
0.0
 47
0.0
 48
0.0
140
0.18
141
0.09
142
0.0
143
25.399999999999999
144
1.0
145
0.0
146
1.0
147
0.09
 71
     0
 72
     0
 73
     1
 74
     1
 75
     0
 76
     0
 77
     0
 78
     0
170
     0
171
     2
172
     0
173
     0
174
     0
175
     0
176
     0
177
     0
178
     0
  0
ENDTAB
  0
ENDSEC
  0
SECTION
  2
BLOCKS
  0
BLOCK
  8
0
  2
$MODEL_SPACE
 70
     0
 10
0.0
 20
0.0
 30
0.0
  3
$MODEL_SPACE
  1

  0
ENDBLK
  5
313
  8
0
  0
BLOCK
 67
     1
  8
0
  2
$PAPER_SPACE
 70
     0
 10
0.0
 20
0.0
 30
0.0
  3
$PAPER_SPACE
  1

  0
ENDBLK
  5
311
 67
     1
  8
0
  0
BLOCK
  8
0
  2
STDGX5
 70
     0
 10
0.0
 20
0.0
 30
0.0
  3
STDGX5
  1

  0
ENDBLK
  5
1FD
  8
0
  0
ENDSEC
  0
SECTION
  2
ENTITIES
  0
LINE
  5
36
  8
1
 10
27.405303
 20
79.473046999999994
 30
0.0
 11
48.405303000000011
 21
79.473046999999994
 31
0.0
  0
LINE
  5
37
  8
1
 10
75.869831000000005
 20
79.473046999999994
 30
0.0
 11
117.369831
 21
79.473046999999994
 31
0.0
  0
LINE
  5
38
  8
1
 10
137.62243599999999
 20
79.473046999999994
 30
0.0
 11
158.62243599999999
 21
79.473046999999994
 31
0.0
  0
LINE
  5
39
  8
1
 10
37.905303000000004
 20
89.973046999999994
 30
0.0
 11
37.905303000000004
 21
68.973046999999994
 31
0.0
  0
LINE
  5
3A
  8
1
 10
148.12243599999999
 20
89.973046999999994
 30
0.0
 11
148.12243599999999
 21
68.973046999999994
 31
0.0
  0
CIRCLE
  5
3B
  8
0
 10
37.905303000000004
 20
79.473046999999994
 30
0.0
 40
8.0
  0
CIRCLE
  5
3C
  8
3
 10
37.905303000000004
 20
79.473046999999994
 30
0.0
 40
6.9175000000000004
  0
CIRCLE
  5
3D
  8
0
 10
148.12243599999999
 20
79.473046999999994
 30
0.0
 40
8.0
  0
CIRCLE
  5
3E
  8
3
 10
148.12243599999999
 20
79.473046999999994
 30
0.0
 40
6.9175000000000004
  0
LINE
  5
3F
  8
0
 10
108.919831
 20
87.473046999999994
 30
0.0
 11
79.869831000000005
 21
87.473046999999994
 31
0.0
  0
LINE
  5
40
  8
3
 10
110.002331
 20
86.390546999999998
 30
0.0
 11
78.787331000000009
 21
86.390546999999998
 31
0.0
  0
LINE
  5
41
  8
3
 10
110.002331
 20
72.55554699999999
 30
0.0
 11
78.787331000000009
 21
72.55554699999999
 31
0.0
  0
LINE
  5
42
  8
0
 10
108.919831
 20
71.473046999999994
 30
0.0
 11
79.869831000000005
 21
71.473046999999994
 31
0.0
  0
LINE
  5
48
  8
0
 10
111.369831
 20
85.023046999999991
 30
0.0
 11
111.369831
 21
73.923046999999997
 31
0.0
  0
LINE
  5
4C
  8
0
 10
78.369831000000005
 20
85.973046999999994
 30
0.0
 11
78.369831000000005
 21
72.973046999999994
 31
0.0
  0
LINE
  5
4E
  8
0
 10
78.369831000000005
 20
72.973046999999994
 30
0.0
 11
79.869831000000005
 21
71.473046999999994
 31
0.0
  0
LINE
  5
4F
  8
0
 10
78.369831000000005
 20
85.973046999999994
 30
0.0
 11
79.869831000000005
 21
87.473046999999994
 31
0.0
  0
LINE
  5
50
  8
0
 10
79.869831000000005
 20
71.473046999999994
 30
0.0
 11
79.869831000000005
 21
87.473046999999994
 31
0.0
  0
CIRCLE
  5
52
  8
0
 10
148.12243599999999
 20
79.473046999999994
 30
0.0
 40
5.0
  0
LINE
  5
55
  8
0
 10
111.369831
 20
85.023046999999991
 30
0.0
 11
108.919831
 21
87.473046999999994
 31
0.0
  0
LINE
  5
56
  8
0
 10
111.369831
 20
73.923046999999997
 30
0.0
 11
108.919831
 21
71.473046999999994
 31
0.0
  0
LINE
  5
57
  8
0
 10
108.919831
 20
71.473046999999994
 30
0.0
 11
108.919831
 21
87.473046999999994
 31
0.0
  0
CIRCLE
  5
58
  8
0
 10
148.12243599999999
 20
79.473046999999994
 30
0.0
 40
5.5499999999999989
  0
ARC
  5
BD
  8
0
 10
109.869831
 20
79.473046999999994
 30
0.0
 40
5.0
 50
287.45760312372232
 51
72.542396876277763
  0
LINE
  5
1AB
  8
0
 10
33.905303003254289
 20
81.782448074879468
 30
0.0
 11
37.905303003254289
 21
84.091849151638527
 31
0.0
  0
LINE
  5
1AC
  8
0
 10
37.905302999998298
 20
74.854244850243873
 30
0.0
 11
33.905302999998298
 21
77.163645927001582
 31
0.0
  0
LINE
  5
1AD
  8
0
 10
33.905303003254289
 20
77.163645925122566
 30
0.0
 11
33.905303003254289
 21
81.782448078639305
 31
0.0
  0
LINE
  5
1AE
  8
0
 10
41.905302996738662
 20
77.163645925120292
 30
0.0
 11
37.905302996742307
 21
74.854244848361233
 31
0.0
  0
LINE
  5
1AF
  8
0
 10
41.905302996742307
 20
81.782448074879923
 30
0.0
 11
41.905302996742307
 21
77.16364592136317
 31
0.0
  0
LINE
  5
1B0
  8
0
 10
37.905302999998298
 20
84.091849149755873
 30
0.0
 11
41.905302999998298
 21
81.782448072998164
 31
0.0
  0
LINE
  5
1B2
  8
2
 10
84.369831000000005
 20
74.854244850242921
 30
0.0
 11
84.369831000000005
 21
84.091849149757067
 31
0.0
  0
LINE
  5
1B3
  8
2
 10
78.369831000000005
 20
74.854244850242864
 30
0.0
 11
84.369831000000005
 21
74.854244850242921
 31
0.0
  0
LINE
  5
1B5
  8
2
 10
78.369831000000005
 20
77.163645925122509
 30
0.0
 11
84.369831000000005
 21
77.163645925122509
 31
0.0
  0
LINE
  5
1B6
  8
2
 10
78.369831000000005
 20
84.091849149757124
 30
0.0
 11
84.369831000000005
 21
84.091849149757067
 31
0.0
  0
LINE
  5
1B7
  8
2
 10
78.369831000000005
 20
81.782448074877479
 30
0.0
 11
84.369831000000005
 21
81.782448074877479
 31
0.0
  0
LINE
  5
1D1
  8
0
 10
111.369831
 20
125.02304700000001
 30
0.0
 11
108.919831
 21
127.47304699999999
 31
0.0
  0
LINE
  5
1D2
  8
0
 10
108.919831
 20
111.47304699999999
 30
0.0
 11
108.919831
 21
127.47304699999999
 31
0.0
  0
LINE
  5
1D3
  8
0
 10
78.369831000000005
 20
125.97304699999999
 30
0.0
 11
79.869831000000005
 21
127.47304699999999
 31
0.0
  0
LINE
  5
1D4
  8
0
 10
79.869831000000005
 20
111.47304699999999
 30
0.0
 11
79.869831000000005
 21
127.47304699999999
 31
0.0
  0
LINE
  5
1D5
  8
0
 10
108.919831
 20
111.47304699999999
 30
0.0
 11
79.869831000000005
 21
111.47304699999999
 31
0.0
  0
LINE
  5
1D6
  8
3
 10
110.002331
 20
112.555547
 30
0.0
 11
78.787331000000009
 21
112.555547
 31
0.0
  0
LINE
  5
1D7
  8
1
 10
75.869831000000005
 20
119.47304699999999
 30
0.0
 11
117.369831
 21
119.47304699999999
 31
0.0
  0
LINE
  5
1D8
  8
2
 10
84.369831000000005
 20
115.47304699999999
 30
0.0
 11
84.369831000000005
 21
123.47304699999989
 31
0.0
  0
LINE
  5
1DA
  8
0
 10
78.369831000000005
 20
125.97304699999999
 30
0.0
 11
78.369831000000005
 21
112.97304699999999
 31
0.0
  0
LINE
  5
1DB
  8
2
 10
78.369831000000019
 20
115.47304699999999
 30
0.0
 11
84.369831000000019
 21
115.47304699999999
 31
0.0
  0
LINE
  5
1DC
  8
0
 10
78.369831000000005
 20
112.97304699999999
 30
0.0
 11
79.869831000000005
 21
111.47304699999999
 31
0.0
  0
LINE
  5
1DF
  8
2
 10
78.369831000000019
 20
119.47304699999999
 30
0.0
 11
84.369831000000019
 21
119.47304699999999
 31
0.0
  0
LINE
  5
1E0
  8
2
 10
78.369831000000005
 20
123.47304699999999
 30
0.0
 11
84.369831000000005
 21
123.47304699999989
 31
0.0
  0
LINE
  5
1E1
  8
0
 10
111.369831
 20
125.02304700000001
 30
0.0
 11
111.369831
 21
113.923047
 31
0.0
  0
ARC
  5
1E2
  8
0
 10
109.869831
 20
119.47304699999999
 30
0.0
 40
5.0
 50
287.45760312372232
 51
72.542396876277763
  0
LINE
  5
1E3
  8
0
 10
111.369831
 20
113.923047
 30
0.0
 11
108.919831
 21
111.47304699999999
 31
0.0
  0
LINE
  5
1E4
  8
3
 10
110.002331
 20
126.390547
 30
0.0
 11
78.787331000000009
 21
126.390547
 31
0.0
  0
LINE
  5
1E5
  8
0
 10
108.919831
 20
127.47304699999999
 30
0.0
 11
79.869831000000005
 21
127.47304699999999
 31
0.0
  0
LINE
  5
1E6
  8
0
 10
111.369831
 20
45.023046999999977
 30
0.0
 11
108.919831
 21
47.473046999999987
 31
0.0
  0
LINE
  5
1E7
  8
0
 10
108.919831
 20
31.47304699999999
 30
0.0
 11
108.919831
 21
47.473046999999987
 31
0.0
  0
LINE
  5
1E8
  8
0
 10
78.369831000000005
 20
45.973046999999987
 30
0.0
 11
79.869831000000005
 21
47.473046999999987
 31
0.0
  0
LINE
  5
1E9
  8
0
 10
79.869831000000005
 20
31.47304699999999
 30
0.0
 11
79.869831000000005
 21
47.473046999999987
 31
0.0
  0
LINE
  5
1EA
  8
0
 10
108.919831
 20
31.47304699999999
 30
0.0
 11
79.869831000000005
 21
31.47304699999999
 31
0.0
  0
LINE
  5
1EB
  8
3
 10
110.002331
 20
32.55554699999999
 30
0.0
 11
78.787331000000009
 21
32.55554699999999
 31
0.0
  0
LINE
  5
1EC
  8
1
 10
75.869831000000005
 20
39.473047000000001
 30
0.0
 11
117.369831
 21
39.473047000000001
 31
0.0
  0
LINE
  5
1EF
  8
0
 10
78.369831000000005
 20
45.973046999999987
 30
0.0
 11
78.369831000000005
 21
32.973047000000001
 31
0.0
  0
LINE
  5
1F1
  8
0
 10
78.369831000000005
 20
32.973047000000001
 30
0.0
 11
79.869831000000005
 21
31.47304699999999
 31
0.0
  0
LINE
  5
1F6
  8
0
 10
111.369831
 20
45.023046999999977
 30
0.0
 11
111.369831
 21
33.923046999999997
 31
0.0
  0
ARC
  5
1F7
  8
0
 10
109.869831
 20
39.473047000000001
 30
0.0
 40
5.0
 50
287.45760312372232
 51
72.542396876277763
  0
LINE
  5
1F8
  8
0
 10
111.369831
 20
33.923046999999997
 30
0.0
 11
108.919831
 21
31.47304699999999
 31
0.0
  0
LINE
  5
1F9
  8
3
 10
110.002331
 20
46.390546999999991
 30
0.0
 11
78.787331000000009
 21
46.390546999999991
 31
0.0
  0
LINE
  5
1FA
  8
0
 10
108.919831
 20
47.473046999999987
 30
0.0
 11
79.869831000000005
 21
47.473046999999987
 31
0.0
  0
INSERT
  5
299
  8
0
  2
STDGX5
 10
0.0
 20
0.0
 30
0.0
 41
0.5
 42
0.5
 43
0.5
  0
INSERT
  5
29A
  8
0
  2
STDGX5
 10
0.0
 20
0.0
 30
0.0
 41
0.5
 42
0.5
 43
0.5
  0
INSERT
  5
29B
  8
0
  2
STDGX5
 10
137.5
 20
0.0
 30
0.0
 41
0.5
 42
0.5
 43
0.5
  0
INSERT
  5
29C
  8
0
  2
STDGX5
 10
137.5
 20
0.0
 30
0.0
 41
0.5
 42
0.5
 43
0.5
  0
LINE
  5
404
  8
2
 10
84.369831000000005
 20
35.473047000000037
 30
0.0
 11
84.369831000000005
 21
43.473046999999923
 31
0.0
  0
LINE
  5
405
  8
2
 10
78.369831000000019
 20
35.473047000000001
 30
0.0
 11
84.369831000000019
 21
35.473047000000051
 31
0.0
  0
LINE
  5
406
  8
2
 10
78.369831000000019
 20
39.473047000000001
 30
0.0
 11
84.369831000000019
 21
39.473047000000001
 31
0.0
  0
LINE
  5
407
  8
2
 10
78.369831000000005
 20
43.473046999999987
 30
0.0
 11
84.369831000000005
 21
43.473046999999937
 31
0.0
  0
ARC
  5
44B
  8
2
 10
106.369831
 20
119.47304699999999
 30
0.0
 40
5.0
 50
287.45760312372232
 51
72.542396876277763
  0
ARC
  5
44D
  8
2
 10
106.369831
 20
39.473047000000001
 30
0.0
 40
5.0
 50
287.45760312372232
 51
72.542396876277749
  0
ARC
  5
44E
  8
2
 10
106.369831
 20
79.473046999999994
 30
0.0
 40
5.0
 50
287.45760312372232
 51
72.542396876277721
  0
TEXT
  5
4AC
  8
0
 62
     3
 10
0.0
 20
0.0
 30
0.0
 40
5.0
  1
BSU16A
  7
STANDARD1
  0
ENDSEC
  0
EOF
