  0
SECTION
  2
HEADER
  9
$ACADVER
  1
AC1009
  9
$INSBASE
 10
0.0
 20
0.0
 30
0.0
  9
$EXTMIN
 10
0.0
 20
-1.4802182810368341
 30
0.0
  9
$EXTMAX
 10
65.078136009432797
 20
41.699536251559493
 30
0.0
  9
$LIMMIN
 10
0.0
 20
0.0
  9
$LIMMAX
 10
187.5
 20
135.0
  9
$ORTHOMODE
 70
     1
  9
$REGENMODE
 70
     1
  9
$FILLMODE
 70
     1
  9
$QTEXTMODE
 70
     0
  9
$MIRRTEXT
 70
     0
  9
$DRAGMODE
 70
     2
  9
$LTSCALE
 40
2.0
  9
$OSMODE
 70
    37
  9
$ATTMODE
 70
     1
  9
$TEXTSIZE
 40
4.0
  9
$TRACEWID
 40
0.05
  9
$TEXTSTYLE
  7
STANDARD
  9
$CLAYER
  8
0
  9
$CELTYPE
  6
BYLAYER
  9
$CECOLOR
 62
   256
  9
$DIMSCALE
 40
0.5
  9
$DIMASZ
 40
3.0
  9
$DIMEXO
 40
2.0
  9
$DIMDLI
 40
0.38
  9
$DIMRND
 40
0.0
  9
$DIMDLE
 40
0.0
  9
$DIMEXE
 40
2.0
  9
$DIMTP
 40
0.0
  9
$DIMTM
 40
0.0
  9
$DIMTXT
 40
3.0
  9
$DIMCEN
 40
0.0
  9
$DIMTSZ
 40
0.0
  9
$DIMTOL
 70
     0
  9
$DIMLIM
 70
     0
  9
$DIMTIH
 70
     0
  9
$DIMTOH
 70
     0
  9
$DIMSE1
 70
     0
  9
$DIMSE2
 70
     0
  9
$DIMTAD
 70
     1
  9
$DIMZIN
 70
     0
  9
$DIMBLK
  1

  9
$DIMASO
 70
     0
  9
$DIMSHO
 70
     0
  9
$DIMPOST
  1

  9
$DIMAPOST
  1

  9
$DIMALT
 70
     0
  9
$DIMALTD
 70
     2
  9
$DIMALTF
 40
25.399999999999999
  9
$DIMLFAC
 40
1.0
  9
$DIMTOFL
 70
     0
  9
$DIMTVP
 40
1.6000000000000001
  9
$DIMTIX
 70
     1
  9
$DIMSOXD
 70
     0
  9
$DIMSAH
 70
     0
  9
$DIMBLK1
  1

  9
$DIMBLK2
  1

  9
$DIMSTYLE
  2
STANDARD
  9
$DIMCLRD
 70
     0
  9
$DIMCLRE
 70
     0
  9
$DIMCLRT
 70
     0
  9
$DIMTFAC
 40
1.0
  9
$DIMGAP
 40
0.09
  9
$LUNITS
 70
     2
  9
$LUPREC
 70
     4
  9
$SKETCHINC
 40
0.1
  9
$FILLETRAD
 40
1.0
  9
$AUNITS
 70
     0
  9
$AUPREC
 70
     0
  9
$MENU
  1
E:\r13\win\SUPPORT\ACAD
  9
$ELEVATION
 40
0.0
  9
$PELEVATION
 40
0.0
  9
$THICKNESS
 40
0.0
  9
$LIMCHECK
 70
     0
  9
$BLIPMODE
 70
     0
  9
$CHAMFERA
 40
0.0
  9
$CHAMFERB
 40
0.0
  9
$SKPOLY
 70
     0
  9
$TDCREATE
 40
2449840.6143865739
  9
$TDUPDATE
 40
2457172.498837708
  9
$TDINDWG
 40
0.2633019907
  9
$TDUSRTIMER
 40
0.2633019907
  9
$USRTIMER
 70
     1
  9
$ANGBASE
 50
0.0
  9
$ANGDIR
 70
     0
  9
$PDMODE
 70
     0
  9
$PDSIZE
 40
0.0
  9
$PLINEWID
 40
0.0
  9
$COORDS
 70
     1
  9
$SPLFRAME
 70
     0
  9
$SPLINETYPE
 70
     6
  9
$SPLINESEGS
 70
     8
  9
$ATTDIA
 70
     0
  9
$ATTREQ
 70
     1
  9
$HANDLING
 70
     1
  9
$HANDSEED
  5
1783
  9
$SURFTAB1
 70
     6
  9
$SURFTAB2
 70
     6
  9
$SURFTYPE
 70
     6
  9
$SURFU
 70
     6
  9
$SURFV
 70
     6
  9
$UCSNAME
  2

  9
$UCSORG
 10
0.0
 20
0.0
 30
0.0
  9
$UCSXDIR
 10
1.0
 20
0.0
 30
0.0
  9
$UCSYDIR
 10
0.0
 20
1.0
 30
0.0
  9
$PUCSNAME
  2

  9
$PUCSORG
 10
0.0
 20
0.0
 30
0.0
  9
$PUCSXDIR
 10
1.0
 20
0.0
 30
0.0
  9
$PUCSYDIR
 10
0.0
 20
1.0
 30
0.0
  9
$USERI1
 70
     0
  9
$USERI2
 70
     1
  9
$USERI3
 70
     1
  9
$USERI4
 70
     0
  9
$USERI5
 70
     0
  9
$USERR1
 40
0.0
  9
$USERR2
 40
0.0
  9
$USERR3
 40
0.0
  9
$USERR4
 40
0.0
  9
$USERR5
 40
0.0
  9
$WORLDVIEW
 70
     1
  9
$SHADEDGE
 70
     3
  9
$SHADEDIF
 70
    70
  9
$TILEMODE
 70
     1
  9
$MAXACTVP
 70
    16
  9
$PLIMCHECK
 70
     0
  9
$PEXTMIN
 10
1.0000000000000000E+020
 20
1.0000000000000000E+020
 30
1.0000000000000000E+020
  9
$PEXTMAX
 10
-1.0000000000000000E+020
 20
-1.0000000000000000E+020
 30
-1.0000000000000000E+020
  9
$PLIMMIN
 10
0.0
 20
0.0
  9
$PLIMMAX
 10
12.0
 20
9.0
  9
$UNITMODE
 70
     0
  9
$VISRETAIN
 70
     0
  9
$PLINEGEN
 70
     0
  9
$PSLTSCALE
 70
     0
  0
ENDSEC
  0
SECTION
  2
TABLES
  0
TABLE
  2
VPORT
 70
     1
  0
VPORT
  2
*ACTIVE
 70
     0
 10
0.0
 20
0.0
 11
1.0
 21
1.0
 12
45.939246916332252
 22
20.111379015167081
 13
0.0
 23
0.0
 14
5.0
 24
5.0
 15
5.0
 25
5.0
 16
0.0
 26
0.0
 36
1.0
 17
0.0
 27
0.0
 37
0.0
 40
43.57039706629763
 41
2.6019575856443709
 42
50.0
 43
0.0
 44
0.0
 50
0.0
 51
0.0
 71
     0
 72
   100
 73
     1
 74
     0
 75
     0
 76
     0
 77
     0
 78
     0
  0
ENDTAB
  0
TABLE
  2
LTYPE
 70
     4
  0
LTYPE
  2
CONTINUOUS
 70
     0
  3
Solid Line
 72
    65
 73
     0
 40
0.0
  0
LTYPE
  2
CENTER
 70
     0
  3
____ _ ____ _ ____ _ ____ _ ____ _ ____ _ ____
 72
    65
 73
     4
 40
2.0
 49
1.25
 49
-0.25
 49
0.25
 49
-0.25
  0
LTYPE
  2
HIDDEN
 70
     0
  3
_ _ _ _ _ _ _ _ _ _ _ _ _ _ _ _ _ _ _ _ _ _ _
 72
    65
 73
     2
 40
0.375
 49
0.25
 49
-0.125
  0
LTYPE
  2
PHANTOM2
 70
     0
  3
___ _ _ ___ _ _ ___ _ _ ___ _ _
 72
    65
 73
     6
 40
1.25
 49
0.625
 49
-0.125
 49
0.125
 49
-0.125
 49
0.125
 49
-0.125
  0
ENDTAB
  0
TABLE
  2
LAYER
 70
     4
  0
LAYER
  2
0
 70
     0
 62
     7
  6
CONTINUOUS
  0
LAYER
  2
1
 70
     0
 62
     1
  6
CENTER
  0
LAYER
  2
3
 70
     0
 62
     3
  6
CONTINUOUS
  0
LAYER
  2
2
 70
     0
 62
     2
  6
HIDDEN
  0
ENDTAB
  0
TABLE
  2
STYLE
 70
     2
  0
STYLE
  2
STANDARD
 70
     0
 40
0.0
 41
1.0
 50
0.0
 71
     0
 42
4.0
  3
TXT
  4
BIGFONT
  0
STYLE
  2
STANDARD1
 70
     0
 40
0.0
 41
1.0
 50
0.0
 71
     0
 42
3.0
  3
txt
  4

  0
ENDTAB
  0
TABLE
  2
VIEW
 70
     1
  0
VIEW
  2
ALL
 70
     0
 40
179.66152299999999
 10
141.903918
 20
89.830760999999995
 41
0.0
 11
0.0
 21
0.0
 31
1.0
 12
0.0
 22
0.0
 32
0.0
 42
0.0
 43
0.0
 44
0.0
 50
0.0
 71
     0
  0
ENDTAB
  0
TABLE
  2
UCS
 70
     0
  0
ENDTAB
  0
TABLE
  2
APPID
 70
     5
  0
APPID
  2
ACAD
 70
     0
  0
APPID
  2
DCO15
 70
     0
  0
APPID
  2
ACAD_MLEADERVER
 70
     0
  0
APPID
  2
ACAD_EXEMPT_FROM_CAD_STANDARDS
 70
     0
  0
APPID
  2
ACAD_NAV_VCDISPLAY
 70
     0
  0
ENDTAB
  0
TABLE
  2
DIMSTYLE
 70
     1
  0
DIMSTYLE
  2
STANDARD
 70
     0
  3

  4

  5

  6

  7

 40
1.0
 41
0.18
 42
0.0625
 43
0.38
 44
0.18
 45
0.0
 46
0.0
 47
0.0
 48
0.0
140
0.18
141
0.09
142
0.0
143
25.399999999999999
144
1.0
145
0.0
146
1.0
147
0.09
 71
     0
 72
     0
 73
     1
 74
     1
 75
     0
 76
     0
 77
     0
 78
     0
170
     0
171
     2
172
     0
173
     0
174
     0
175
     0
176
     0
177
     0
178
     0
  0
ENDTAB
  0
ENDSEC
  0
SECTION
  2
BLOCKS
  0
BLOCK
  8
0
  2
$MODEL_SPACE
 70
     0
 10
0.0
 20
0.0
 30
0.0
  3
$MODEL_SPACE
  1

  0
ENDBLK
  5
1BD
  8
0
  0
BLOCK
 67
     1
  8
0
  2
$PAPER_SPACE
 70
     0
 10
0.0
 20
0.0
 30
0.0
  3
$PAPER_SPACE
  1

  0
ENDBLK
  5
1BB
 67
     1
  8
0
  0
ENDSEC
  0
SECTION
  2
ENTITIES
  0
TEXT
  5
1462
  8
0
 62
     3
 10
0.0
 20
0.0
 30
0.0
 40
5.0
  1
BSRC6X16-SUS
  7
STANDARD1
  0
LINE
  5
1596
  8
0
 10
40.264636009432792
 20
33.699536251534497
 30
0.0
 11
40.878136009432801
 21
34.313036251534498
 31
0.0
  0
LINE
  5
1597
  8
0
 10
40.878136009432801
 20
39.086036251634503
 30
0.0
 11
40.264636009432792
 21
39.699536251534497
 31
0.0
  0
LINE
  5
1598
  8
0
 10
27.0781360094328
 20
39.699536251634498
 30
0.0
 11
26.27813600943281
 21
38.899536251634501
 31
0.0
  0
LINE
  5
1599
  8
0
 10
26.27813600943281
 20
34.499536251534501
 30
0.0
 11
27.0781360094328
 21
33.699536251534497
 31
0.0
  0
LINE
  5
159A
  8
0
 10
27.0781360094328
 20
33.699536251534497
 30
0.0
 11
40.264636009432792
 21
33.699536251534497
 31
0.0
  0
LINE
  5
159B
  8
0
 10
40.264636009432792
 20
39.699536251534497
 30
0.0
 11
27.0781360094328
 21
39.699536251534497
 31
0.0
  0
LINE
  5
159C
  8
0
 10
40.878136009432801
 20
34.349536251534502
 30
0.0
 11
41.878136009432808
 21
34.349536251534502
 31
0.0
  0
LINE
  5
159D
  8
0
 10
41.878136009432808
 20
39.049536251534491
 30
0.0
 11
40.878136009432801
 21
39.049536251534491
 31
0.0
  0
ARC
  5
159E
  8
0
 10
41.078136009432797
 20
36.699536251534497
 30
0.0
 40
1.999999999999988
 50
293.57817847820019
 51
66.421821521799814
  0
LINE
  5
15A0
  8
0
 10
40.878136009432801
 20
34.313036251534498
 30
0.0
 11
40.878136009432801
 21
39.086036251634503
 31
0.0
  0
LINE
  5
15A1
  8
0
 10
40.264636009432792
 20
33.699536251534497
 30
0.0
 11
40.264636009432792
 21
39.699536251534497
 31
0.0
  0
LINE
  5
15A2
  8
0
 10
27.0781360094328
 20
39.699536251534497
 30
0.0
 11
27.0781360094328
 21
33.699536251534497
 31
0.0
  0
LINE
  5
15A3
  8
0
 10
26.27813600943281
 20
38.899536251634501
 30
0.0
 11
26.27813600943281
 21
34.499536251534501
 31
0.0
  0
LINE
  5
15A5
  8
0
 10
41.878136009432808
 20
34.349536251534502
 30
0.0
 11
41.878136009432808
 21
39.049536251534491
 31
0.0
  0
LINE
  5
15AC
  8
2
 10
29.778136009432821
 20
37.565561655334491
 30
0.0
 11
26.27813600943281
 21
37.565561655334491
 31
0.0
  0
LINE
  5
15AE
  8
2
 10
29.778136009432821
 20
35.833510847734487
 30
0.0
 11
26.27813600943281
 21
35.833510847734487
 31
0.0
  0
LINE
  5
15B1
  8
2
 10
29.778136009432821
 20
38.431587059134507
 30
0.0
 11
29.778136009432821
 21
34.967485444034502
 31
0.0
  0
LINE
  5
15B3
  8
2
 10
29.778136009432821
 20
38.4315870591345
 30
0.0
 11
26.27813600943281
 21
38.4315870591345
 31
0.0
  0
LINE
  5
15B4
  8
2
 10
26.27813600943281
 20
34.967485444034502
 30
0.0
 11
29.778136009432821
 21
34.967485444034502
 31
0.0
  0
LINE
  5
15BF
  8
2
 10
29.778136009432821
 20
35.199536251534497
 30
0.0
 11
31.036785456532812
 21
36.699536251334493
 31
0.0
  0
LINE
  5
15C0
  8
2
 10
31.036785456532812
 20
36.699536251734493
 30
0.0
 11
29.778136009432821
 21
38.199536251534497
 31
0.0
  0
LINE
  5
15C4
  8
0
 10
40.264636009432792
 20
17.88160963162078
 30
0.0
 11
40.878136009432801
 21
18.495109631620782
 31
0.0
  0
LINE
  5
15C5
  8
0
 10
40.878136009432801
 20
23.26810963172079
 30
0.0
 11
40.264636009432792
 21
23.88160963162079
 31
0.0
  0
LINE
  5
15C6
  8
0
 10
27.078136009432789
 20
23.881609631720789
 30
0.0
 11
26.27813600943281
 21
23.081609631720791
 31
0.0
  0
LINE
  5
15C7
  8
0
 10
26.27813600943281
 20
18.681609631620791
 30
0.0
 11
27.078136009432789
 21
17.88160963162078
 31
0.0
  0
LINE
  5
15C8
  8
0
 10
27.078136009432789
 20
17.88160963162078
 30
0.0
 11
40.264636009432792
 21
17.88160963162078
 31
0.0
  0
LINE
  5
15C9
  8
0
 10
40.264636009432792
 20
23.88160963162079
 30
0.0
 11
27.078136009432789
 21
23.88160963162079
 31
0.0
  0
LINE
  5
15CA
  8
0
 10
40.878136009432801
 20
18.531609631620789
 30
0.0
 11
41.878136009432808
 21
18.531609631620789
 31
0.0
  0
LINE
  5
15CB
  8
0
 10
41.878136009432808
 20
23.231609631620788
 30
0.0
 11
40.878136009432801
 21
23.231609631620788
 31
0.0
  0
ARC
  5
15CC
  8
0
 10
41.078136009432797
 20
20.88160963162078
 30
0.0
 40
1.999999999999988
 50
293.57817847820019
 51
66.421821521799814
  0
LINE
  5
15CD
  8
0
 10
40.878136009432801
 20
18.495109631620782
 30
0.0
 11
40.878136009432801
 21
23.26810963172079
 31
0.0
  0
LINE
  5
15CE
  8
0
 10
40.264636009432792
 20
17.88160963162078
 30
0.0
 11
40.264636009432792
 21
23.88160963162079
 31
0.0
  0
LINE
  5
15CF
  8
0
 10
27.078136009432789
 20
23.88160963162079
 30
0.0
 11
27.078136009432789
 21
17.88160963162078
 31
0.0
  0
LINE
  5
15D0
  8
0
 10
26.27813600943281
 20
23.081609631720791
 30
0.0
 11
26.27813600943281
 21
18.681609631620791
 31
0.0
  0
LINE
  5
15D1
  8
0
 10
41.878136009432808
 20
18.531609631620789
 30
0.0
 11
41.878136009432808
 21
23.231609631620788
 31
0.0
  0
LINE
  5
15DA
  8
2
 10
26.27813600943281
 20
20.88160963162078
 30
0.0
 11
29.77813600943281
 21
20.88160963162078
 31
0.0
  0
LINE
  5
15DC
  8
2
 10
29.77813600943281
 20
22.38160963162078
 30
0.0
 11
29.77813600943281
 21
19.38160963162078
 31
0.0
  0
LINE
  5
15DD
  8
2
 10
26.27813600943281
 20
19.38160963162078
 30
0.0
 11
29.77813600943281
 21
19.38160963162078
 31
0.0
  0
LINE
  5
15DE
  8
2
 10
29.77813600943281
 20
22.38160963162078
 30
0.0
 11
26.27813600943281
 21
22.38160963162078
 31
0.0
  0
LINE
  5
15EA
  8
2
 10
29.77813600943281
 20
19.38160963162078
 30
0.0
 11
31.03678545643282
 21
20.88160963142078
 31
0.0
  0
LINE
  5
15EB
  8
2
 10
31.036785456532812
 20
20.881609631820769
 30
0.0
 11
29.77813600943281
 21
22.38160963162078
 31
0.0
  0
CIRCLE
  5
15F0
  8
0
 10
60.078136009432789
 20
36.6995362515595
 30
0.0
 40
2.349999999999993
  0
CIRCLE
  5
15F2
  8
0
 10
60.078136009432789
 20
36.6995362515595
 30
0.0
 40
3.0
  0
CIRCLE
  5
1609
  8
0
 10
9.2781360094327994
 20
36.6995362515595
 30
0.0
 40
3.0
  0
CIRCLE
  5
160A
  8
0
 10
9.2781360094327994
 20
36.6995362515595
 30
0.0
 40
2.2000000000730311
  0
LINE
  5
160B
  8
0
 10
9.2781360094327994
 20
38.431587059159497
 30
0.0
 11
7.7781360094327994
 21
37.565561655359488
 31
0.0
  0
LINE
  5
160C
  8
0
 10
7.7781360094327994
 20
37.565561655359488
 30
0.0
 11
7.7781360094327994
 21
35.833510847759477
 31
0.0
  0
LINE
  5
160D
  8
0
 10
7.7781360094327994
 20
35.833510847759477
 30
0.0
 11
9.2781360094327994
 21
34.967485444059491
 31
0.0
  0
LINE
  5
160E
  8
0
 10
9.2781360094327994
 20
34.967485444059491
 30
0.0
 11
10.778136009432799
 21
35.833510847759477
 31
0.0
  0
LINE
  5
160F
  8
0
 10
10.778136009432799
 20
35.833510847759477
 30
0.0
 11
10.778136009432799
 21
37.565561655359488
 31
0.0
  0
LINE
  5
1610
  8
0
 10
10.778136009432799
 20
37.565561655359488
 30
0.0
 11
9.2781360094327994
 21
38.431587059159497
 31
0.0
  0
CIRCLE
  5
1625
  8
0
 10
60.078136009432789
 20
36.6995362515595
 30
0.0
 40
1.8330302779823171
  0
ARC
  5
1626
  8
2
 10
41.078136009432797
 20
36.699536251534497
 30
0.0
 40
1.999999999999986
 50
66.421821521797682
 51
293.57817847820229
  0
ARC
  5
1627
  8
2
 10
41.078136009432797
 20
20.88160963162079
 30
0.0
 40
1.999999999999986
 50
66.421821521797682
 51
293.57817847820229
  0
CIRCLE
  5
1628
  8
3
 10
9.2781360094327994
 20
36.6995362515595
 30
0.0
 40
2.4584999999984229
  0
CIRCLE
  5
1629
  8
3
 10
60.078136009432789
 20
36.6995362515595
 30
0.0
 40
2.4584999999984229
  0
LINE
  5
162A
  8
3
 10
26.53663600938107
 20
34.241036251586422
 30
0.0
 11
40.806136009484732
 21
34.241036251586422
 31
0.0
  0
LINE
  5
162B
  8
3
 10
26.53663600938124
 20
39.158036251582928
 30
0.0
 11
40.806136009472638
 21
39.158036251582921
 31
0.0
  0
LINE
  5
162C
  8
3
 10
26.536636009381059
 20
18.423109631672709
 30
0.0
 11
40.806136009484732
 21
18.423109631672709
 31
0.0
  0
LINE
  5
162D
  8
3
 10
26.53663600938124
 20
23.340109631669211
 30
0.0
 11
40.806136009472631
 21
23.3401096316692
 31
0.0
  0
LINE
  5
1637
  8
1
 10
4.2781360094327994
 20
36.6995362515595
 30
0.0
 11
14.278136009432799
 21
36.6995362515595
 31
0.0
  0
LINE
  5
1638
  8
1
 10
9.2781360094327994
 20
41.699536251559493
 30
0.0
 11
9.2781360094327976
 21
31.6995362515595
 31
0.0
  0
LINE
  5
1639
  8
1
 10
24.27813600943281
 20
36.699536251584512
 30
0.0
 11
45.078136009432782
 21
36.699536251534497
 31
0.0
  0
LINE
  5
163A
  8
1
 10
41.078136009432797
 20
40.699536251534482
 30
0.0
 11
41.078136009432797
 21
32.699536251534511
 31
0.0
  0
LINE
  5
163B
  8
1
 10
55.078136009432789
 20
36.6995362515595
 30
0.0
 11
65.078136009432797
 21
36.6995362515595
 31
0.0
  0
LINE
  5
163C
  8
1
 10
60.078136009432789
 20
41.699536251559493
 30
0.0
 11
60.078136009432789
 21
31.6995362515595
 31
0.0
  0
LINE
  5
163D
  8
1
 10
24.27813600943281
 20
20.88160963162078
 30
0.0
 11
45.078136009432782
 21
20.881609631570772
 31
0.0
  0
LINE
  5
163E
  8
1
 10
41.078136009432797
 20
24.881609631570761
 30
0.0
 11
41.078136009432797
 21
16.88160963157079
 31
0.0
  0
ENDSEC
  0
EOF
