  0
SECTION
  2
HEADER
  9
$ACADVER
  1
AC1009
  9
$INSBASE
 10
0.0
 20
0.0
 30
0.0
  9
$EXTMIN
 10
0.0
 20
-2.960436562073669
 30
0.0
  9
$EXTMAX
 10
320.0
 20
235.0
 30
0.0
  9
$LIMMIN
 10
0.0
 20
0.0
  9
$LIMMAX
 10
375.0
 20
270.0
  9
$ORTHOMODE
 70
     1
  9
$REGENMODE
 70
     1
  9
$FILLMODE
 70
     1
  9
$QTEXTMODE
 70
     0
  9
$MIRRTEXT
 70
     0
  9
$DRAGMODE
 70
     2
  9
$LTSCALE
 40
10.0
  9
$OSMODE
 70
  3071
  9
$ATTMODE
 70
     1
  9
$TEXTSIZE
 40
0.2
  9
$TRACEWID
 40
0.05
  9
$TEXTSTYLE
  7
STANDARD
  9
$CLAYER
  8
0
  9
$CELTYPE
  6
BYLAYER
  9
$CECOLOR
 62
   256
  9
$DIMSCALE
 40
1.0
  9
$DIMASZ
 40
3.0
  9
$DIMEXO
 40
2.0
  9
$DIMDLI
 40
0.38
  9
$DIMRND
 40
0.0
  9
$DIMDLE
 40
0.0
  9
$DIMEXE
 40
2.0
  9
$DIMTP
 40
0.0
  9
$DIMTM
 40
0.0
  9
$DIMTXT
 40
3.2000000000000002
  9
$DIMCEN
 40
0.0
  9
$DIMTSZ
 40
0.0
  9
$DIMTOL
 70
     0
  9
$DIMLIM
 70
     0
  9
$DIMTIH
 70
     0
  9
$DIMTOH
 70
     0
  9
$DIMSE1
 70
     0
  9
$DIMSE2
 70
     0
  9
$DIMTAD
 70
     1
  9
$DIMZIN
 70
     0
  9
$DIMBLK
  1

  9
$DIMASO
 70
     0
  9
$DIMSHO
 70
     0
  9
$DIMPOST
  1

  9
$DIMAPOST
  1

  9
$DIMALT
 70
     0
  9
$DIMALTD
 70
     2
  9
$DIMALTF
 40
25.399999999999999
  9
$DIMLFAC
 40
1.0
  9
$DIMTOFL
 70
     0
  9
$DIMTVP
 40
1.6000000000000001
  9
$DIMTIX
 70
     1
  9
$DIMSOXD
 70
     0
  9
$DIMSAH
 70
     0
  9
$DIMBLK1
  1

  9
$DIMBLK2
  1

  9
$DIMSTYLE
  2
STANDARD
  9
$DIMCLRD
 70
     0
  9
$DIMCLRE
 70
     0
  9
$DIMCLRT
 70
     0
  9
$DIMTFAC
 40
1.0
  9
$DIMGAP
 40
0.09
  9
$LUNITS
 70
     2
  9
$LUPREC
 70
     1
  9
$SKETCHINC
 40
0.1
  9
$FILLETRAD
 40
0.0
  9
$AUNITS
 70
     0
  9
$AUPREC
 70
     0
  9
$MENU
  1
E:\r13\win\SUPPORT\ACAD
  9
$ELEVATION
 40
0.0
  9
$PELEVATION
 40
0.0
  9
$THICKNESS
 40
0.0
  9
$LIMCHECK
 70
     0
  9
$BLIPMODE
 70
     0
  9
$CHAMFERA
 40
0.0
  9
$CHAMFERB
 40
0.0
  9
$SKPOLY
 70
     0
  9
$TDCREATE
 40
2449840.6029976858
  9
$TDUPDATE
 40
2456598.4615112962
  9
$TDINDWG
 40
0.0008956019
  9
$TDUSRTIMER
 40
0.0008956019
  9
$USRTIMER
 70
     1
  9
$ANGBASE
 50
0.0
  9
$ANGDIR
 70
     0
  9
$PDMODE
 70
     0
  9
$PDSIZE
 40
0.0
  9
$PLINEWID
 40
0.0
  9
$COORDS
 70
     1
  9
$SPLFRAME
 70
     0
  9
$SPLINETYPE
 70
     6
  9
$SPLINESEGS
 70
     8
  9
$ATTDIA
 70
     0
  9
$ATTREQ
 70
     1
  9
$HANDLING
 70
     1
  9
$HANDSEED
  5
276
  9
$SURFTAB1
 70
     6
  9
$SURFTAB2
 70
     6
  9
$SURFTYPE
 70
     6
  9
$SURFU
 70
     6
  9
$SURFV
 70
     6
  9
$UCSNAME
  2

  9
$UCSORG
 10
0.0
 20
0.0
 30
0.0
  9
$UCSXDIR
 10
1.0
 20
0.0
 30
0.0
  9
$UCSYDIR
 10
0.0
 20
1.0
 30
0.0
  9
$PUCSNAME
  2

  9
$PUCSORG
 10
0.0
 20
0.0
 30
0.0
  9
$PUCSXDIR
 10
1.0
 20
0.0
 30
0.0
  9
$PUCSYDIR
 10
0.0
 20
1.0
 30
0.0
  9
$USERI1
 70
     0
  9
$USERI2
 70
     1
  9
$USERI3
 70
     0
  9
$USERI4
 70
     0
  9
$USERI5
 70
     0
  9
$USERR1
 40
0.0
  9
$USERR2
 40
0.0
  9
$USERR3
 40
0.0
  9
$USERR4
 40
0.0
  9
$USERR5
 40
0.0
  9
$WORLDVIEW
 70
     1
  9
$SHADEDGE
 70
     3
  9
$SHADEDIF
 70
    70
  9
$TILEMODE
 70
     1
  9
$MAXACTVP
 70
    16
  9
$PLIMCHECK
 70
     0
  9
$PEXTMIN
 10
1.0000000000000000E+020
 20
1.0000000000000000E+020
 30
1.0000000000000000E+020
  9
$PEXTMAX
 10
-1.0000000000000000E+020
 20
-1.0000000000000000E+020
 30
-1.0000000000000000E+020
  9
$PLIMMIN
 10
0.0
 20
0.0
  9
$PLIMMAX
 10
12.0
 20
9.0
  9
$UNITMODE
 70
     0
  9
$VISRETAIN
 70
     0
  9
$PLINEGEN
 70
     0
  9
$PSLTSCALE
 70
     0
  0
ENDSEC
  0
SECTION
  2
TABLES
  0
TABLE
  2
VPORT
 70
     1
  0
VPORT
  2
*ACTIVE
 70
     0
 10
0.0
 20
0.0
 11
1.0
 21
1.0
 12
195.0581083320873
 22
133.5127261426681
 13
0.0
 23
0.0
 14
10.0
 24
10.0
 15
10.0
 25
10.0
 16
0.0
 26
0.0
 36
1.0
 17
0.0
 27
0.0
 37
0.0
 40
275.42274993631997
 41
1.831871345029239
 42
50.0
 43
0.0
 44
0.0
 50
0.0
 51
0.0
 71
     0
 72
   100
 73
     1
 74
     0
 75
     0
 76
     0
 77
     0
 78
     1
  0
ENDTAB
  0
TABLE
  2
LTYPE
 70
     4
  0
LTYPE
  2
CONTINUOUS
 70
     0
  3
Solid Line
 72
    65
 73
     0
 40
0.0
  0
LTYPE
  2
CENTER
 70
     0
  3
____ _ ____ _ ____ _ ____ _ ____ _ ____ _ ____
 72
    65
 73
     4
 40
2.0
 49
1.25
 49
-0.25
 49
0.25
 49
-0.25
  0
LTYPE
  2
HIDDEN
 70
     0
  3
_ _ _ _ _ _ _ _ _ _ _ _ _ _ _ _ _ _ _ _ _ _ _
 72
    65
 73
     2
 40
0.375
 49
0.25
 49
-0.125
  0
LTYPE
  2
PHANTOM2
 70
     0
  3
___ _ _ ___ _ _ ___ _ _ ___ _ _
 72
    65
 73
     6
 40
1.25
 49
0.625
 49
-0.125
 49
0.125
 49
-0.125
 49
0.125
 49
-0.125
  0
ENDTAB
  0
TABLE
  2
LAYER
 70
     4
  0
LAYER
  2
0
 70
     0
 62
     7
  6
CONTINUOUS
  0
LAYER
  2
1
 70
     0
 62
     1
  6
CENTER
  0
LAYER
  2
2
 70
     0
 62
     2
  6
HIDDEN
  0
LAYER
  2
3
 70
     0
 62
     3
  6
CONTINUOUS
  0
ENDTAB
  0
TABLE
  2
STYLE
 70
     2
  0
STYLE
  2
STANDARD
 70
     0
 40
0.0
 41
1.0
 50
0.0
 71
     0
 42
0.2
  3
TXT
  4
BIGFONT
  0
STYLE
  2
STANDARD1
 70
     0
 40
0.0
 41
1.0
 50
0.0
 71
     0
 42
3.0
  3
txt
  4

  0
ENDTAB
  0
TABLE
  2
VIEW
 70
     1
  0
VIEW
  2
ALL
 70
     0
 40
270.0
 10
220.99159700000001
 20
135.0
 41
0.0
 11
0.0
 21
0.0
 31
1.0
 12
0.0
 22
0.0
 32
0.0
 42
0.0
 43
0.0
 44
0.0
 50
0.0
 71
     0
  0
ENDTAB
  0
TABLE
  2
UCS
 70
     0
  0
ENDTAB
  0
TABLE
  2
APPID
 70
     3
  0
APPID
  2
ACAD
 70
     0
  0
APPID
  2
ACAD_MLEADERVER
 70
     0
  0
APPID
  2
ACAD_NAV_VCDISPLAY
 70
     0
  0
ENDTAB
  0
TABLE
  2
DIMSTYLE
 70
     1
  0
DIMSTYLE
  2
STANDARD
 70
     0
  3

  4

  5

  6

  7

 40
1.0
 41
0.18
 42
0.0625
 43
0.38
 44
0.18
 45
0.0
 46
0.0
 47
0.0
 48
0.0
140
0.18
141
0.09
142
0.0
143
25.399999999999999
144
1.0
145
0.0
146
1.0
147
0.09
 71
     0
 72
     0
 73
     1
 74
     1
 75
     0
 76
     0
 77
     0
 78
     0
170
     0
171
     2
172
     0
173
     0
174
     0
175
     0
176
     0
177
     0
178
     0
  0
ENDTAB
  0
ENDSEC
  0
SECTION
  2
BLOCKS
  0
BLOCK
  8
0
  2
$MODEL_SPACE
 70
     0
 10
0.0
 20
0.0
 30
0.0
  3
$MODEL_SPACE
  1

  0
ENDBLK
  5
12A
  8
0
  0
BLOCK
 67
     1
  8
0
  2
$PAPER_SPACE
 70
     0
 10
0.0
 20
0.0
 30
0.0
  3
$PAPER_SPACE
  1

  0
ENDBLK
  5
128
 67
     1
  8
0
  0
ENDSEC
  0
SECTION
  2
ENTITIES
  0
LINE
  5
36
  8
0
 10
178.86189999999999
 20
152.295511
 30
0.0
 11
189.86189999999999
 21
152.295511
 31
0.0
  0
LINE
  5
37
  8
0
 10
178.86189999999999
 20
141.30973900000001
 30
0.0
 11
189.86189999999999
 21
141.30973900000001
 31
0.0
  0
LINE
  5
38
  8
0
 10
178.86189999999999
 20
107.704489
 30
0.0
 11
189.86189999999999
 21
107.704489
 31
0.0
  0
LINE
  5
39
  8
0
 10
178.86189999999999
 20
118.69026100000001
 30
0.0
 11
189.86189999999999
 21
118.69026100000001
 31
0.0
  0
LINE
  5
3A
  8
0
 10
158.86189999999999
 20
106.0
 30
0.0
 11
158.86189999999999
 21
117.0
 31
0.0
  0
LINE
  5
3B
  8
0
 10
159.86189999999999
 20
105.0
 30
0.0
 11
187.86189999999999
 21
105.0
 31
0.0
  0
LINE
  5
3C
  8
0
 10
159.86189999999999
 20
118.0
 30
0.0
 11
174.86189999999999
 21
118.0
 31
0.0
  0
LINE
  5
3D
  8
0
 10
211.86189999999999
 20
115.43181800000001
 30
0.0
 11
192.725852
 21
114.127088
 31
0.0
  0
ARC
  5
3E
  8
0
 10
192.86189999999999
 20
112.13172
 30
0.0
 40
2.0
 50
93.900493999999995
 51
180.0
  0
ARC
  5
3F
  8
0
 10
187.86189999999999
 20
108.0
 30
0.0
 40
3.0
 50
270.0
 51
0.0
  0
ARC
  5
40
  8
0
 10
159.86189999999999
 20
106.0
 30
0.0
 40
1.0
 50
180.0
 51
270.0
  0
ARC
  5
41
  8
0
 10
159.86189999999999
 20
117.0
 30
0.0
 40
1.0
 50
90.0
 51
180.0
  0
ARC
  5
42
  8
0
 10
174.86189999999999
 20
121.0
 30
0.0
 40
3.0
 50
270.0
 51
0.0
  0
LINE
  5
43
  8
0
 10
211.86189999999999
 20
115.43181800000001
 30
0.0
 11
212.86189999999999
 21
116.43181800000001
 31
0.0
  0
LINE
  5
44
  8
0
 10
211.86189999999999
 20
144.56818200000001
 30
0.0
 11
212.86189999999999
 21
143.56818200000001
 31
0.0
  0
LINE
  5
45
  8
0
 10
211.86189999999999
 20
144.56818200000001
 30
0.0
 11
211.86189999999999
 21
115.43181800000001
 31
0.0
  0
ARC
  5
46
  8
0
 10
174.86189999999999
 20
139.0
 30
0.0
 40
3.0
 50
0.0
 51
90.0
  0
ARC
  5
47
  8
0
 10
174.86189999999999
 20
120.5
 30
0.0
 40
3.0
 50
0.0
 51
90.0
  0
ARC
  5
48
  8
0
 10
174.86189999999999
 20
139.5
 30
0.0
 40
3.0
 50
270.0
 51
0.0
  0
ARC
  5
49
  8
0
 10
159.86189999999999
 20
124.5
 30
0.0
 40
1.0
 50
180.0
 51
270.0
  0
ARC
  5
4A
  8
0
 10
159.86189999999999
 20
135.5
 30
0.0
 40
1.0
 50
90.0
 51
180.0
  0
ARC
  5
4B
  8
0
 10
159.86189999999999
 20
143.0
 30
0.0
 40
1.0
 50
180.0
 51
270.0
  0
ARC
  5
4C
  8
0
 10
159.86189999999999
 20
154.0
 30
0.0
 40
1.0
 50
90.0
 51
180.0
  0
ARC
  5
4D
  8
0
 10
187.86189999999999
 20
152.0
 30
0.0
 40
3.0
 50
0.0
 51
90.0
  0
ARC
  5
4E
  8
0
 10
192.86189999999999
 20
147.86828
 30
0.0
 40
2.0
 50
180.0
 51
266.09950600000002
  0
LINE
  5
4F
  8
0
 10
211.86189999999999
 20
144.56818200000001
 30
0.0
 11
192.725852
 21
145.87291200000001
 31
0.0
  0
LINE
  5
50
  8
0
 10
158.86189999999999
 20
135.5
 30
0.0
 11
158.86189999999999
 21
124.5
 31
0.0
  0
LINE
  5
51
  8
0
 10
159.86189999999999
 20
123.5
 30
0.0
 11
174.86189999999999
 21
123.5
 31
0.0
  0
LINE
  5
52
  8
0
 10
159.86189999999999
 20
136.5
 30
0.0
 11
174.86189999999999
 21
136.5
 31
0.0
  0
LINE
  5
53
  8
0
 10
159.86189999999999
 20
142.0
 30
0.0
 11
174.86189999999999
 21
142.0
 31
0.0
  0
LINE
  5
54
  8
0
 10
159.86189999999999
 20
155.0
 30
0.0
 11
187.86189999999999
 21
155.0
 31
0.0
  0
LINE
  5
55
  8
0
 10
212.86189999999999
 20
143.56818200000001
 30
0.0
 11
212.86189999999999
 21
116.43181800000001
 31
0.0
  0
LINE
  5
56
  8
0
 10
190.86189999999999
 20
152.0
 30
0.0
 11
190.86189999999999
 21
108.0
 31
0.0
  0
LINE
  5
57
  8
0
 10
177.86189999999999
 20
153.66927999999999
 30
0.0
 11
177.86189999999999
 21
106.33072
 31
0.0
  0
LINE
  5
58
  8
0
 10
158.86189999999999
 20
154.0
 30
0.0
 11
158.86189999999999
 21
143.0
 31
0.0
  0
LINE
  5
59
  8
1
 10
153.86189999999999
 20
130.0
 30
0.0
 11
217.86189999999999
 21
130.0
 31
0.0
  0
CIRCLE
  5
5A
  8
0
 10
80.0
 20
111.5
 30
0.0
 40
6.5
  0
CIRCLE
  5
5B
  8
0
 10
61.5
 20
130.0
 30
0.0
 40
6.5
  0
CIRCLE
  5
5C
  8
0
 10
80.0
 20
148.5
 30
0.0
 40
6.5
  0
ARC
  5
5D
  8
0
 10
80.0
 20
130.0
 30
0.0
 40
25.0
 50
163.301041
 51
196.69896
  0
ARC
  5
5E
  8
0
 10
51.715729000000003
 20
101.715729
 30
0.0
 40
18.0
 50
28.683050999999999
 51
61.316949000000001
  0
ARC
  5
5F
  8
0
 10
64.674757
 20
125.40251000000001
 30
0.0
 40
9.0
 50
196.69896
 51
241.31694899999999
  0
ARC
  5
60
  8
0
 10
75.402509999999992
 20
114.674757
 30
0.0
 40
9.0
 50
208.68305100000001
 51
253.30104
  0
ARC
  5
61
  8
0
 10
80.0
 20
130.0
 30
0.0
 40
25.0
 50
73.301040999999984
 51
106.69896
  0
ARC
  5
62
  8
0
 10
51.715729000000003
 20
158.28427099999999
 30
0.0
 40
18.0
 50
298.68305099999998
 51
331.31694900000002
  0
ARC
  5
63
  8
0
 10
75.402509999999992
 20
145.325243
 30
0.0
 40
9.0
 50
106.69896
 51
151.31694899999999
  0
ARC
  5
64
  8
0
 10
64.674757
 20
134.59748999999999
 30
0.0
 40
9.0
 50
118.68305100000001
 51
163.30104
  0
ARC
  5
65
  8
0
 10
80.0
 20
130.0
 30
0.0
 40
25.0
 50
343.30104299999999
 51
16.69896
  0
ARC
  5
66
  8
0
 10
108.284271
 20
158.28427099999999
 30
0.0
 40
18.0
 50
208.68305100000001
 51
241.31694899999999
  0
ARC
  5
67
  8
0
 10
95.325243
 20
134.59748999999999
 30
0.0
 40
9.0
 50
16.69896
 51
61.316949000000001
  0
ARC
  5
68
  8
0
 10
84.597489999999993
 20
145.325243
 30
0.0
 40
9.0
 50
28.683050999999999
 51
73.30104
  0
ARC
  5
69
  8
0
 10
95.325243
 20
125.40251000000001
 30
0.0
 40
9.0
 50
298.68305099999998
 51
343.30104
  0
ARC
  5
6A
  8
0
 10
84.597489999999993
 20
114.674757
 30
0.0
 40
9.0
 50
286.69896
 51
331.31695100000002
  0
ARC
  5
6B
  8
0
 10
108.284271
 20
101.715729
 30
0.0
 40
18.0
 50
118.683063
 51
151.316948
  0
CIRCLE
  5
6C
  8
0
 10
98.500000000000014
 20
130.0
 30
0.0
 40
6.5
  0
ARC
  5
6D
  8
0
 10
80.0
 20
130.0
 30
0.0
 40
25.0
 50
253.301041
 51
286.698961
  0
LINE
  5
6E
  8
1
 10
50.0
 20
130.0
 30
0.0
 11
110.0
 21
130.0
 31
0.0
  0
LINE
  5
6F
  8
1
 10
80.0
 20
160.0
 30
0.0
 11
80.0
 21
100.0
 31
0.0
  0
CIRCLE
  5
70
  8
0
 10
80.0
 20
130.0
 30
0.0
 40
6.9175000000000004
  0
CIRCLE
  5
71
  8
3
 10
80.0
 20
130.0
 30
0.0
 40
8.0
  0
LINE
  5
72
  8
2
 10
178.77940000000001
 20
138.0
 30
0.0
 11
211.9444
 21
138.0
 31
0.0
  0
LINE
  5
73
  8
2
 10
179.86189999999999
 20
136.91749999999999
 30
0.0
 11
210.86189999999999
 21
136.91749999999999
 31
0.0
  0
LINE
  5
74
  8
2
 10
210.86189999999999
 20
136.91749999999999
 30
0.0
 11
212.86189999999999
 21
138.91749999999999
 31
0.0
  0
LINE
  5
75
  8
2
 10
179.86189999999999
 20
136.91749999999999
 30
0.0
 11
177.86189999999999
 21
138.91749999999999
 31
0.0
  0
LINE
  5
76
  8
2
 10
179.86189999999999
 20
123.0825
 30
0.0
 11
177.86189999999999
 21
121.0825
 31
0.0
  0
LINE
  5
77
  8
2
 10
210.86189999999999
 20
123.0825
 30
0.0
 11
212.86189999999999
 21
121.0825
 31
0.0
  0
LINE
  5
78
  8
2
 10
210.86189999999999
 20
136.91749999999999
 30
0.0
 11
210.86189999999999
 21
123.0825
 31
0.0
  0
LINE
  5
79
  8
2
 10
179.86189999999999
 20
136.91749999999999
 30
0.0
 11
179.86189999999999
 21
123.0825
 31
0.0
  0
LINE
  5
7A
  8
2
 10
179.86189999999999
 20
123.0825
 30
0.0
 11
210.86189999999999
 21
123.0825
 31
0.0
  0
LINE
  5
7B
  8
2
 10
178.77940000000001
 20
122.0
 30
0.0
 11
211.9444
 21
122.0
 31
0.0
  0
CIRCLE
  5
7C
  8
3
 10
290.0
 20
130.0
 30
0.0
 40
8.0
  0
CIRCLE
  5
7D
  8
0
 10
290.0
 20
130.0
 30
0.0
 40
6.9175000000000004
  0
LINE
  5
7E
  8
1
 10
290.0
 20
160.0
 30
0.0
 11
290.0
 21
100.0
 31
0.0
  0
LINE
  5
7F
  8
1
 10
260.0
 20
130.0
 30
0.0
 11
320.0
 21
130.0
 31
0.0
  0
ARC
  5
80
  8
0
 10
290.0
 20
130.0
 30
0.0
 40
25.0
 50
253.301041
 51
286.698961
  0
ARC
  5
81
  8
0
 10
318.28427099999999
 20
101.715729
 30
0.0
 40
18.0
 50
118.683063
 51
151.316948
  0
ARC
  5
82
  8
0
 10
294.59748999999999
 20
114.674757
 30
0.0
 40
9.0
 50
286.69896
 51
331.31695100000002
  0
ARC
  5
83
  8
0
 10
305.325243
 20
125.40251000000001
 30
0.0
 40
9.0
 50
298.68305099999998
 51
343.30104
  0
ARC
  5
84
  8
0
 10
294.59748999999999
 20
145.325243
 30
0.0
 40
9.0
 50
28.683050999999999
 51
73.30104
  0
ARC
  5
85
  8
0
 10
305.325243
 20
134.59748999999999
 30
0.0
 40
9.0
 50
16.69896
 51
61.316949000000001
  0
ARC
  5
86
  8
0
 10
318.28427099999999
 20
158.28427099999999
 30
0.0
 40
18.0
 50
208.68305100000001
 51
241.31694899999999
  0
ARC
  5
87
  8
0
 10
290.0
 20
130.0
 30
0.0
 40
25.0
 50
343.30104299999999
 51
16.69896
  0
ARC
  5
88
  8
0
 10
274.674757
 20
134.59748999999999
 30
0.0
 40
9.0
 50
118.68305100000001
 51
163.30104
  0
ARC
  5
89
  8
0
 10
285.40251000000001
 20
145.325243
 30
0.0
 40
9.0
 50
106.69896
 51
151.31694899999999
  0
ARC
  5
8A
  8
0
 10
261.71572900000001
 20
158.28427099999999
 30
0.0
 40
18.0
 50
298.68305099999998
 51
331.31694900000002
  0
ARC
  5
8B
  8
0
 10
290.0
 20
130.0
 30
0.0
 40
25.0
 50
73.301040999999984
 51
106.69896
  0
ARC
  5
8C
  8
0
 10
285.40251000000001
 20
114.674757
 30
0.0
 40
9.0
 50
208.68305100000001
 51
253.30104
  0
ARC
  5
8D
  8
0
 10
274.674757
 20
125.40251000000001
 30
0.0
 40
9.0
 50
196.69896
 51
241.31694899999999
  0
ARC
  5
8E
  8
0
 10
261.71572900000001
 20
101.715729
 30
0.0
 40
18.0
 50
28.683050999999999
 51
61.316949000000001
  0
ARC
  5
8F
  8
0
 10
290.0
 20
130.0
 30
0.0
 40
25.0
 50
163.301041
 51
196.69896
  0
LINE
  5
90
  8
2
 10
178.77940000000001
 20
202.0
 30
0.0
 11
211.9444
 21
202.0
 31
0.0
  0
LINE
  5
91
  8
2
 10
179.86189999999999
 20
203.08250000000001
 30
0.0
 11
210.86189999999999
 21
203.08250000000001
 31
0.0
  0
LINE
  5
92
  8
2
 10
179.86189999999999
 20
216.91749999999999
 30
0.0
 11
179.86189999999999
 21
203.08250000000001
 31
0.0
  0
LINE
  5
93
  8
2
 10
210.86189999999999
 20
216.91749999999999
 30
0.0
 11
210.86189999999999
 21
203.08250000000001
 31
0.0
  0
LINE
  5
94
  8
2
 10
210.86189999999999
 20
203.08250000000001
 30
0.0
 11
212.86189999999999
 21
201.08250000000001
 31
0.0
  0
LINE
  5
95
  8
2
 10
179.86189999999999
 20
203.08250000000001
 30
0.0
 11
177.86189999999999
 21
201.08250000000001
 31
0.0
  0
LINE
  5
96
  8
2
 10
179.86189999999999
 20
216.91749999999999
 30
0.0
 11
177.86189999999999
 21
218.91749999999999
 31
0.0
  0
LINE
  5
97
  8
2
 10
210.86189999999999
 20
216.91749999999999
 30
0.0
 11
212.86189999999999
 21
218.91749999999999
 31
0.0
  0
LINE
  5
98
  8
2
 10
179.86189999999999
 20
216.91749999999999
 30
0.0
 11
210.86189999999999
 21
216.91749999999999
 31
0.0
  0
LINE
  5
99
  8
2
 10
178.77940000000001
 20
218.0
 30
0.0
 11
211.9444
 21
218.0
 31
0.0
  0
LINE
  5
9A
  8
1
 10
153.86189999999999
 20
210.0
 30
0.0
 11
217.86189999999999
 21
210.0
 31
0.0
  0
LINE
  5
9B
  8
0
 10
158.86189999999999
 20
234.0
 30
0.0
 11
158.86189999999999
 21
223.0
 31
0.0
  0
LINE
  5
9C
  8
0
 10
177.86189999999999
 20
233.66927999999999
 30
0.0
 11
177.86189999999999
 21
186.33072000000001
 31
0.0
  0
LINE
  5
9D
  8
0
 10
190.86189999999999
 20
232.0
 30
0.0
 11
190.86189999999999
 21
188.0
 31
0.0
  0
LINE
  5
9E
  8
0
 10
212.86189999999999
 20
223.56818200000001
 30
0.0
 11
212.86189999999999
 21
196.43181799999999
 31
0.0
  0
LINE
  5
9F
  8
0
 10
159.86189999999999
 20
235.0
 30
0.0
 11
187.86189999999999
 21
235.0
 31
0.0
  0
LINE
  5
A0
  8
0
 10
159.86189999999999
 20
222.0
 30
0.0
 11
174.86189999999999
 21
222.0
 31
0.0
  0
LINE
  5
A1
  8
0
 10
159.86189999999999
 20
216.5
 30
0.0
 11
174.86189999999999
 21
216.5
 31
0.0
  0
LINE
  5
A2
  8
0
 10
159.86189999999999
 20
203.5
 30
0.0
 11
174.86189999999999
 21
203.5
 31
0.0
  0
LINE
  5
A3
  8
0
 10
158.86189999999999
 20
215.5
 30
0.0
 11
158.86189999999999
 21
204.5
 31
0.0
  0
LINE
  5
A4
  8
0
 10
211.86189999999999
 20
224.56818200000001
 30
0.0
 11
192.725852
 21
225.87291200000001
 31
0.0
  0
ARC
  5
A5
  8
0
 10
192.86189999999999
 20
227.86828
 30
0.0
 40
2.0
 50
180.0
 51
266.09950600000002
  0
ARC
  5
A6
  8
0
 10
187.86189999999999
 20
232.0
 30
0.0
 40
3.0
 50
0.0
 51
90.0
  0
ARC
  5
A7
  8
0
 10
159.86189999999999
 20
234.0
 30
0.0
 40
1.0
 50
90.0
 51
180.0
  0
ARC
  5
A8
  8
0
 10
159.86189999999999
 20
223.0
 30
0.0
 40
1.0
 50
180.0
 51
270.0
  0
ARC
  5
A9
  8
0
 10
159.86189999999999
 20
215.5
 30
0.0
 40
1.0
 50
90.0
 51
180.0
  0
ARC
  5
AA
  8
0
 10
159.86189999999999
 20
204.5
 30
0.0
 40
1.0
 50
180.0
 51
270.0
  0
ARC
  5
AB
  8
0
 10
174.86189999999999
 20
219.5
 30
0.0
 40
3.0
 50
270.0
 51
0.0
  0
ARC
  5
AC
  8
0
 10
174.86189999999999
 20
200.5
 30
0.0
 40
3.0
 50
0.0
 51
90.0
  0
ARC
  5
AD
  8
0
 10
174.86189999999999
 20
219.0
 30
0.0
 40
3.0
 50
0.0
 51
90.0
  0
LINE
  5
AE
  8
0
 10
211.86189999999999
 20
224.56818200000001
 30
0.0
 11
211.86189999999999
 21
195.43181799999999
 31
0.0
  0
LINE
  5
AF
  8
0
 10
211.86189999999999
 20
224.56818200000001
 30
0.0
 11
212.86189999999999
 21
223.56818200000001
 31
0.0
  0
LINE
  5
B0
  8
0
 10
211.86189999999999
 20
195.43181799999999
 30
0.0
 11
212.86189999999999
 21
196.43181799999999
 31
0.0
  0
ARC
  5
B1
  8
0
 10
174.86189999999999
 20
201.0
 30
0.0
 40
3.0
 50
270.0
 51
0.0
  0
ARC
  5
B2
  8
0
 10
159.86189999999999
 20
197.0
 30
0.0
 40
1.0
 50
90.0
 51
180.0
  0
ARC
  5
B3
  8
0
 10
159.86189999999999
 20
186.0
 30
0.0
 40
1.0
 50
180.0
 51
270.0
  0
ARC
  5
B4
  8
0
 10
187.86189999999999
 20
188.0
 30
0.0
 40
3.0
 50
270.0
 51
0.0
  0
ARC
  5
B5
  8
0
 10
192.86189999999999
 20
192.13172
 30
0.0
 40
2.0
 50
93.900493999999995
 51
180.0
  0
LINE
  5
B6
  8
0
 10
211.86189999999999
 20
195.43181799999999
 30
0.0
 11
192.725852
 21
194.12708799999999
 31
0.0
  0
LINE
  5
B7
  8
0
 10
159.86189999999999
 20
198.0
 30
0.0
 11
174.86189999999999
 21
198.0
 31
0.0
  0
LINE
  5
B8
  8
0
 10
159.86189999999999
 20
185.0
 30
0.0
 11
187.86189999999999
 21
185.0
 31
0.0
  0
LINE
  5
B9
  8
0
 10
158.86189999999999
 20
186.0
 30
0.0
 11
158.86189999999999
 21
197.0
 31
0.0
  0
LINE
  5
BA
  8
0
 10
178.86189999999999
 20
198.69026099999999
 30
0.0
 11
189.86189999999999
 21
198.69026099999999
 31
0.0
  0
LINE
  5
BB
  8
0
 10
178.86189999999999
 20
187.704489
 30
0.0
 11
189.86189999999999
 21
187.704489
 31
0.0
  0
LINE
  5
BC
  8
0
 10
178.86189999999999
 20
221.30973900000001
 30
0.0
 11
189.86189999999999
 21
221.30973900000001
 31
0.0
  0
LINE
  5
BD
  8
0
 10
178.86189999999999
 20
232.295511
 30
0.0
 11
189.86189999999999
 21
232.295511
 31
0.0
  0
LINE
  5
BE
  8
2
 10
178.77940000000001
 20
42.0
 30
0.0
 11
211.9444
 21
42.0
 31
0.0
  0
LINE
  5
BF
  8
2
 10
179.86189999999999
 20
43.082500000000003
 30
0.0
 11
210.86189999999999
 21
43.082500000000003
 31
0.0
  0
LINE
  5
C0
  8
2
 10
179.86189999999999
 20
56.91749999999999
 30
0.0
 11
179.86189999999999
 21
43.082500000000003
 31
0.0
  0
LINE
  5
C1
  8
2
 10
210.86189999999999
 20
56.91749999999999
 30
0.0
 11
210.86189999999999
 21
43.082500000000003
 31
0.0
  0
LINE
  5
C2
  8
2
 10
210.86189999999999
 20
43.082500000000003
 30
0.0
 11
212.86189999999999
 21
41.082500000000003
 31
0.0
  0
LINE
  5
C3
  8
2
 10
179.86189999999999
 20
43.082500000000003
 30
0.0
 11
177.86189999999999
 21
41.082500000000003
 31
0.0
  0
LINE
  5
C4
  8
2
 10
179.86189999999999
 20
56.91749999999999
 30
0.0
 11
177.86189999999999
 21
58.917499999999997
 31
0.0
  0
LINE
  5
C5
  8
2
 10
210.86189999999999
 20
56.91749999999999
 30
0.0
 11
212.86189999999999
 21
58.917499999999997
 31
0.0
  0
LINE
  5
C6
  8
2
 10
179.86189999999999
 20
56.91749999999999
 30
0.0
 11
210.86189999999999
 21
56.91749999999999
 31
0.0
  0
LINE
  5
C7
  8
2
 10
178.77940000000001
 20
58.0
 30
0.0
 11
211.9444
 21
58.0
 31
0.0
  0
LINE
  5
C8
  8
1
 10
153.86189999999999
 20
50.0
 30
0.0
 11
217.86189999999999
 21
50.0
 31
0.0
  0
LINE
  5
C9
  8
0
 10
158.86189999999999
 20
74.0
 30
0.0
 11
158.86189999999999
 21
63.0
 31
0.0
  0
LINE
  5
CA
  8
0
 10
177.86189999999999
 20
73.669280000000001
 30
0.0
 11
177.86189999999999
 21
26.330719999999999
 31
0.0
  0
LINE
  5
CB
  8
0
 10
190.86189999999999
 20
72.0
 30
0.0
 11
190.86189999999999
 21
28.0
 31
0.0
  0
LINE
  5
CC
  8
0
 10
212.86189999999999
 20
63.568181999999993
 30
0.0
 11
212.86189999999999
 21
36.431818
 31
0.0
  0
LINE
  5
CD
  8
0
 10
159.86189999999999
 20
75.0
 30
0.0
 11
187.86189999999999
 21
75.0
 31
0.0
  0
LINE
  5
CE
  8
0
 10
159.86189999999999
 20
62.0
 30
0.0
 11
174.86189999999999
 21
62.0
 31
0.0
  0
LINE
  5
CF
  8
0
 10
159.86189999999999
 20
56.5
 30
0.0
 11
174.86189999999999
 21
56.5
 31
0.0
  0
LINE
  5
D0
  8
0
 10
159.86189999999999
 20
43.5
 30
0.0
 11
174.86189999999999
 21
43.5
 31
0.0
  0
LINE
  5
D1
  8
0
 10
158.86189999999999
 20
55.5
 30
0.0
 11
158.86189999999999
 21
44.5
 31
0.0
  0
LINE
  5
D2
  8
0
 10
211.86189999999999
 20
64.568181999999993
 30
0.0
 11
192.725852
 21
65.872911999999999
 31
0.0
  0
ARC
  5
D3
  8
0
 10
192.86189999999999
 20
67.868279999999984
 30
0.0
 40
2.0
 50
180.0
 51
266.09950600000002
  0
ARC
  5
D4
  8
0
 10
187.86189999999999
 20
72.0
 30
0.0
 40
3.0
 50
0.0
 51
90.0
  0
ARC
  5
D5
  8
0
 10
159.86189999999999
 20
74.0
 30
0.0
 40
1.0
 50
90.0
 51
180.0
  0
ARC
  5
D6
  8
0
 10
159.86189999999999
 20
63.0
 30
0.0
 40
1.0
 50
180.0
 51
270.0
  0
ARC
  5
D7
  8
0
 10
159.86189999999999
 20
55.5
 30
0.0
 40
1.0
 50
90.0
 51
180.0
  0
ARC
  5
D8
  8
0
 10
159.86189999999999
 20
44.5
 30
0.0
 40
1.0
 50
180.0
 51
270.0
  0
ARC
  5
D9
  8
0
 10
174.86189999999999
 20
59.5
 30
0.0
 40
3.0
 50
270.0
 51
0.0
  0
ARC
  5
DA
  8
0
 10
174.86189999999999
 20
40.499999999999993
 30
0.0
 40
3.0
 50
0.0
 51
90.0
  0
ARC
  5
DB
  8
0
 10
174.86189999999999
 20
59.0
 30
0.0
 40
3.0
 50
0.0
 51
90.0
  0
LINE
  5
DC
  8
0
 10
211.86189999999999
 20
64.568181999999993
 30
0.0
 11
211.86189999999999
 21
35.431818
 31
0.0
  0
LINE
  5
DD
  8
0
 10
211.86189999999999
 20
64.568181999999993
 30
0.0
 11
212.86189999999999
 21
63.568181999999993
 31
0.0
  0
LINE
  5
DE
  8
0
 10
211.86189999999999
 20
35.431818
 30
0.0
 11
212.86189999999999
 21
36.431818
 31
0.0
  0
ARC
  5
DF
  8
0
 10
174.86189999999999
 20
41.0
 30
0.0
 40
3.0
 50
270.0
 51
0.0
  0
ARC
  5
E0
  8
0
 10
159.86189999999999
 20
37.0
 30
0.0
 40
1.0
 50
90.0
 51
180.0
  0
ARC
  5
E1
  8
0
 10
159.86189999999999
 20
26.0
 30
0.0
 40
1.0
 50
180.0
 51
270.0
  0
ARC
  5
E2
  8
0
 10
187.86189999999999
 20
28.0
 30
0.0
 40
3.0
 50
270.0
 51
0.0
  0
ARC
  5
E3
  8
0
 10
192.86189999999999
 20
32.131720000000001
 30
0.0
 40
2.0
 50
93.900493999999995
 51
180.0
  0
LINE
  5
E4
  8
0
 10
211.86189999999999
 20
35.431818
 30
0.0
 11
192.725852
 21
34.127088000000001
 31
0.0
  0
LINE
  5
E5
  8
0
 10
159.86189999999999
 20
38.0
 30
0.0
 11
174.86189999999999
 21
38.0
 31
0.0
  0
LINE
  5
E6
  8
0
 10
159.86189999999999
 20
25.0
 30
0.0
 11
187.86189999999999
 21
25.0
 31
0.0
  0
LINE
  5
E7
  8
0
 10
158.86189999999999
 20
26.0
 30
0.0
 11
158.86189999999999
 21
37.0
 31
0.0
  0
LINE
  5
E8
  8
0
 10
178.86189999999999
 20
38.690261
 30
0.0
 11
189.86189999999999
 21
38.690261
 31
0.0
  0
LINE
  5
E9
  8
0
 10
178.86189999999999
 20
27.704488999999999
 30
0.0
 11
189.86189999999999
 21
27.704488999999999
 31
0.0
  0
LINE
  5
EA
  8
0
 10
178.86189999999999
 20
61.309739
 30
0.0
 11
189.86189999999999
 21
61.309739
 31
0.0
  0
LINE
  5
EB
  8
0
 10
178.86189999999999
 20
72.295511000000005
 30
0.0
 11
189.86189999999999
 21
72.295511000000005
 31
0.0
  0
CIRCLE
  5
EC
  8
0
 10
290.0
 20
130.0
 30
0.0
 40
14.568182
  0
CIRCLE
  5
ED
  8
0
 10
290.0
 20
130.0
 30
0.0
 40
13.568182
  0
TEXT
  5
1E5
  8
0
 62
     3
 10
0.0
 20
0.0
 30
0.0
 40
10.0
  1
BK50X16T
  7
STANDARD1
  0
ENDSEC
  0
EOF
