  0
SECTION
  2
HEADER
  9
$ACADVER
  1
AC1009
  9
$INSBASE
 10
0.0
 20
0.0
 30
0.0
  9
$EXTMIN
 10
0.0
 20
-2.960436562073669
 30
0.0
  9
$EXTMAX
 10
142.1999999989435
 20
132.71835599999989
 30
0.0
  9
$LIMMIN
 10
0.0
 20
0.0
  9
$LIMMAX
 10
192.5
 20
135.0
  9
$ORTHOMODE
 70
     1
  9
$REGENMODE
 70
     1
  9
$FILLMODE
 70
     1
  9
$QTEXTMODE
 70
     0
  9
$MIRRTEXT
 70
     0
  9
$DRAGMODE
 70
     2
  9
$LTSCALE
 40
5.0
  9
$OSMODE
 70
    37
  9
$ATTMODE
 70
     1
  9
$TEXTSIZE
 40
0.2
  9
$TRACEWID
 40
0.05
  9
$TEXTSTYLE
  7
STANDARD
  9
$CLAYER
  8
0
  9
$CELTYPE
  6
BYLAYER
  9
$CECOLOR
 62
   256
  9
$DIMSCALE
 40
0.5
  9
$DIMASZ
 40
3.0
  9
$DIMEXO
 40
1.0
  9
$DIMDLI
 40
6.0
  9
$DIMRND
 40
0.0
  9
$DIMDLE
 40
0.0
  9
$DIMEXE
 40
1.0
  9
$DIMTP
 40
495.0
  9
$DIMTM
 40
0.0
  9
$DIMTXT
 40
3.0
  9
$DIMCEN
 40
0.0
  9
$DIMTSZ
 40
0.0
  9
$DIMTOL
 70
     0
  9
$DIMLIM
 70
     0
  9
$DIMTIH
 70
     0
  9
$DIMTOH
 70
     0
  9
$DIMSE1
 70
     0
  9
$DIMSE2
 70
     0
  9
$DIMTAD
 70
     1
  9
$DIMZIN
 70
     8
  9
$DIMBLK
  1

  9
$DIMASO
 70
     0
  9
$DIMSHO
 70
     0
  9
$DIMPOST
  1

  9
$DIMAPOST
  1

  9
$DIMALT
 70
     0
  9
$DIMALTD
 70
     2
  9
$DIMALTF
 40
25.399999999999999
  9
$DIMLFAC
 40
1.0
  9
$DIMTOFL
 70
     1
  9
$DIMTVP
 40
0.0
  9
$DIMTIX
 70
     1
  9
$DIMSOXD
 70
     0
  9
$DIMSAH
 70
     0
  9
$DIMBLK1
  1

  9
$DIMBLK2
  1

  9
$DIMSTYLE
  2
STANDARD
  9
$DIMCLRD
 70
     0
  9
$DIMCLRE
 70
     0
  9
$DIMCLRT
 70
     4
  9
$DIMTFAC
 40
1.0
  9
$DIMGAP
 40
1.0
  9
$LUNITS
 70
     2
  9
$LUPREC
 70
     1
  9
$SKETCHINC
 40
0.1
  9
$FILLETRAD
 40
0.0
  9
$AUNITS
 70
     0
  9
$AUPREC
 70
     0
  9
$MENU
  1
C:\R13\WIN\SUPPORT\ACAD-I
  9
$ELEVATION
 40
0.0
  9
$PELEVATION
 40
0.0
  9
$THICKNESS
 40
0.0
  9
$LIMCHECK
 70
     0
  9
$BLIPMODE
 70
     0
  9
$CHAMFERA
 40
0.0
  9
$CHAMFERB
 40
0.0
  9
$SKPOLY
 70
     0
  9
$TDCREATE
 40
2450647.458505787
  9
$TDUPDATE
 40
2459975.4957365161
  9
$TDINDWG
 40
0.222117037
  9
$TDUSRTIMER
 40
0.222117037
  9
$USRTIMER
 70
     1
  9
$ANGBASE
 50
0.0
  9
$ANGDIR
 70
     0
  9
$PDMODE
 70
     0
  9
$PDSIZE
 40
0.0
  9
$PLINEWID
 40
0.0
  9
$COORDS
 70
     1
  9
$SPLFRAME
 70
     0
  9
$SPLINETYPE
 70
     6
  9
$SPLINESEGS
 70
     8
  9
$ATTDIA
 70
     0
  9
$ATTREQ
 70
     1
  9
$HANDLING
 70
     1
  9
$HANDSEED
  5
15CB
  9
$SURFTAB1
 70
     6
  9
$SURFTAB2
 70
     6
  9
$SURFTYPE
 70
     6
  9
$SURFU
 70
     6
  9
$SURFV
 70
     6
  9
$UCSNAME
  2

  9
$UCSORG
 10
0.0
 20
0.0
 30
0.0
  9
$UCSXDIR
 10
1.0
 20
0.0
 30
0.0
  9
$UCSYDIR
 10
0.0
 20
1.0
 30
0.0
  9
$PUCSNAME
  2

  9
$PUCSORG
 10
0.0
 20
0.0
 30
0.0
  9
$PUCSXDIR
 10
1.0
 20
0.0
 30
0.0
  9
$PUCSYDIR
 10
0.0
 20
1.0
 30
0.0
  9
$USERI1
 70
     3
  9
$USERI2
 70
     1
  9
$USERI3
 70
     0
  9
$USERI4
 70
     0
  9
$USERI5
 70
     0
  9
$USERR1
 40
0.5
  9
$USERR2
 40
3.0
  9
$USERR3
 40
3.0
  9
$USERR4
 40
3.0
  9
$USERR5
 40
10.0
  9
$WORLDVIEW
 70
     1
  9
$SHADEDGE
 70
     3
  9
$SHADEDIF
 70
    70
  9
$TILEMODE
 70
     1
  9
$MAXACTVP
 70
    16
  9
$PLIMCHECK
 70
     0
  9
$PEXTMIN
 10
1.0000000000000000E+020
 20
1.0000000000000000E+020
 30
1.0000000000000000E+020
  9
$PEXTMAX
 10
-1.0000000000000000E+020
 20
-1.0000000000000000E+020
 30
-1.0000000000000000E+020
  9
$PLIMMIN
 10
0.0
 20
0.0
  9
$PLIMMAX
 10
12.0
 20
9.0
  9
$UNITMODE
 70
     0
  9
$VISRETAIN
 70
     0
  9
$PLINEGEN
 70
     0
  9
$PSLTSCALE
 70
     0
  0
ENDSEC
  0
SECTION
  2
TABLES
  0
TABLE
  2
VPORT
 70
     1
  0
VPORT
  2
*ACTIVE
 70
     0
 10
0.0
 20
0.0
 11
1.0
 21
1.0
 12
181.11601513240851
 22
75.0
 13
0.0
 23
0.0
 14
2.5
 24
2.5
 15
10.0
 25
10.0
 16
0.0
 26
0.0
 36
1.0
 17
0.0
 27
0.0
 37
0.0
 40
150.0
 41
2.4148802017654472
 42
50.0
 43
0.0
 44
0.0
 50
0.0
 51
0.0
 71
     0
 72
   100
 73
     1
 74
     0
 75
     0
 76
     0
 77
     0
 78
     0
  0
ENDTAB
  0
TABLE
  2
LTYPE
 70
     4
  0
LTYPE
  2
CONTINUOUS
 70
     0
  3
Solid Line
 72
    65
 73
     0
 40
0.0
  0
LTYPE
  2
CENTER
 70
     0
  3
____ _ ____ _ ____ _ ____ _ ____ _ ____ _ ____
 72
    65
 73
     4
 40
2.0
 49
1.25
 49
-0.25
 49
0.25
 49
-0.25
  0
LTYPE
  2
PHANTOM
 70
     0
  3
_____ _ _ _____ _ _ _____ _ _ _____ _ _ ____
 72
    65
 73
     6
 40
2.5
 49
1.25
 49
-0.25
 49
0.25
 49
-0.25
 49
0.25
 49
-0.25
  0
LTYPE
  2
PHANTOM2
 70
     0
  3
___ _ _ ___ _ _ ___ _ _ ___ _ _
 72
    65
 73
     6
 40
1.25
 49
0.625
 49
-0.125
 49
0.125
 49
-0.125
 49
0.125
 49
-0.125
  0
ENDTAB
  0
TABLE
  2
LAYER
 70
     3
  0
LAYER
  2
0
 70
     0
 62
     7
  6
CONTINUOUS
  0
LAYER
  2
1
 70
     0
 62
     1
  6
CENTER
  0
LAYER
  2
5
 70
     0
 62
     3
  6
PHANTOM
  0
ENDTAB
  0
TABLE
  2
STYLE
 70
     2
  0
STYLE
  2
STANDARD
 70
     0
 40
0.0
 41
1.0
 50
0.0
 71
     0
 42
0.2
  3
SIMPLEX
  4
BIGFONT
  0
STYLE
  2
STANDARD1
 70
     0
 40
0.0
 41
1.0
 50
0.0
 71
     0
 42
3.0
  3
txt
  4

  0
ENDTAB
  0
TABLE
  2
VIEW
 70
     0
  0
ENDTAB
  0
TABLE
  2
UCS
 70
     0
  0
ENDTAB
  0
TABLE
  2
APPID
 70
     6
  0
APPID
  2
ACAD
 70
     0
  0
APPID
  2
ACAD_MLEADERVER
 70
     0
  0
APPID
  2
ACAD_NAV_VCDISPLAY
 70
     0
  0
APPID
  2
ACAD_EXEMPT_FROM_CAD_STANDARDS
 70
     0
  0
APPID
  2
ACAD_DSTYLE_DIMJAG
 70
     0
  0
APPID
  2
ACAD_DSTYLE_DIMTALN
 70
     0
  0
ENDTAB
  0
TABLE
  2
DIMSTYLE
 70
     1
  0
DIMSTYLE
  2
STANDARD
 70
     0
  3

  4

  5

  6

  7

 40
1.0
 41
0.18
 42
0.0625
 43
0.38
 44
0.18
 45
0.0
 46
0.0
 47
0.0
 48
0.0
140
0.18
141
0.09
142
0.0
143
25.399999999999999
144
1.0
145
0.0
146
1.0
147
0.09
 71
     0
 72
     0
 73
     1
 74
     1
 75
     0
 76
     0
 77
     0
 78
     0
170
     0
171
     2
172
     0
173
     0
174
     0
175
     0
176
     0
177
     0
178
     0
  0
ENDTAB
  0
ENDSEC
  0
SECTION
  2
BLOCKS
  0
BLOCK
  8
0
  2
$MODEL_SPACE
 70
     0
 10
0.0
 20
0.0
 30
0.0
  3
$MODEL_SPACE
  1

  0
ENDBLK
  5
793
  8
0
  0
BLOCK
 67
     1
  8
0
  2
$PAPER_SPACE
 70
     0
 10
0.0
 20
0.0
 30
0.0
  3
$PAPER_SPACE
  1

  0
ENDBLK
  5
791
 67
     1
  8
0
  0
ENDSEC
  0
SECTION
  2
ENTITIES
  0
TEXT
  5
893
  8
0
 62
     3
 10
0.0
 20
0.0
 30
0.0
 40
10.0
  1
BK2-VT-FO
  7
STANDARD1
  0
ARC
  5
DA8
  8
0
 10
140.12417799894351
 20
54.88357899999712
 30
0.0
 40
7.588838
 50
77.873616000000041
 51
102.1263839999999
  0
ARC
  5
DA9
  8
0
 10
140.12417799894351
 20
54.149102999997147
 30
0.0
 40
7.588838
 50
77.873616000000041
 51
102.1263839999999
  0
ARC
  5
DAA
  8
0
 10
140.12417799894351
 20
53.275413999997141
 30
0.0
 40
7.588838
 50
77.873616000000041
 51
102.1263839999999
  0
ARC
  5
DAB
  8
0
 10
140.12417799894351
 20
52.454528999997137
 30
0.0
 40
7.588838
 50
77.873616000000041
 51
102.1263839999999
  0
ARC
  5
DAC
  8
0
 10
140.12417799894351
 20
51.600041999997131
 30
0.0
 40
7.588838
 50
77.873616000000041
 51
102.1263839999999
  0
ARC
  5
DAD
  8
0
 10
140.12417799894351
 20
51.094129999997129
 30
0.0
 40
7.588838
 50
77.873616000000041
 51
102.1263839999999
  0
ARC
  5
DAE
  8
0
 10
140.12417799894351
 20
50.580494999997143
 30
0.0
 40
7.588838
 50
77.873616000000041
 51
102.1263839999999
  0
ARC
  5
DAF
  8
0
 10
138.54999999894349
 20
52.649999999997128
 30
0.0
 40
0.35
 50
180.0
 51
270.0
  0
LINE
  5
DB0
  8
0
 10
141.1999999989435
 20
53.356208999997143
 30
0.0
 11
138.54999999894349
 21
52.299999999997141
 31
0.0
  0
LINE
  5
DB1
  8
0
 10
140.6614219989435
 20
53.499999999997158
 30
0.0
 11
139.0095849989435
 21
52.841627999997137
 31
0.0
  0
LINE
  5
DB2
  8
0
 10
140.6614219989435
 20
53.499999999997158
 30
0.0
 11
141.1999999989435
 21
53.356208999997143
 31
0.0
  0
ARC
  5
DB3
  8
0
 10
138.8799999989435
 20
53.166754999997117
 30
0.0
 40
0.35
 50
180.0
 51
291.73071099999959
  0
ARC
  5
DB4
  8
0
 10
138.8799999989435
 20
62.833243999997173
 30
0.0
 40
0.35
 50
68.269289000000342
 51
180.0
  0
LINE
  5
DB5
  8
0
 10
138.52999999894359
 20
62.833243999997173
 30
0.0
 11
138.52999999894359
 21
53.166754999997117
 31
0.0
  0
LINE
  5
DB6
  8
0
 10
140.6614219989435
 20
62.499999999997151
 30
0.0
 11
141.1999999989435
 21
62.643790999997151
 31
0.0
  0
LINE
  5
DB7
  8
0
 10
140.6614219989435
 20
62.499999999997151
 30
0.0
 11
139.0095849989435
 21
63.158370999997167
 31
0.0
  0
LINE
  5
DB8
  8
0
 10
141.1999999989435
 20
62.643790999997151
 30
0.0
 11
138.54999999894349
 21
63.699999999997146
 31
0.0
  0
ARC
  5
DB9
  8
0
 10
138.54999999894349
 20
63.349999999997152
 30
0.0
 40
0.35
 50
90.0
 51
180.0
  0
LINE
  5
DBB
  8
0
 10
141.7183560742078
 20
62.303084270201509
 30
0.0
 11
141.71835599777589
 21
53.696915768657561
 31
0.0
  0
LINE
  5
DBC
  8
0
 10
142.1999999989435
 20
60.11896894310869
 30
0.0
 11
142.1999999989435
 21
56.118968943108683
 31
0.0
  0
ARC
  5
DF1
  8
0
 10
141.6999999989435
 20
60.11896894310869
 30
0.0
 40
0.5
 50
0.0
 51
87.896077647511206
  0
ARC
  5
DF2
  8
0
 10
141.6999999989435
 20
56.118968943108683
 30
0.0
 40
0.5
 50
272.10391726127011
 51
0.0
  0
LINE
  5
EA6
  8
0
 10
138.1999999989435
 20
65.000000000000028
 30
0.0
 11
116.99999999894349
 21
65.000000000000028
 31
0.0
  0
LINE
  5
EA7
  8
0
 10
116.99999999894349
 20
69.000000000000028
 30
0.0
 11
116.99999999894349
 21
50.000000000000028
 31
0.0
  0
LINE
  5
EA8
  8
0
 10
138.1999999989435
 20
50.000000000000028
 30
0.0
 11
138.1999999989435
 21
69.000000000000028
 31
0.0
  0
LINE
  5
EA9
  8
0
 10
116.99999999894349
 20
50.000000000000028
 30
0.0
 11
138.1999999989435
 21
50.000000000000028
 31
0.0
  0
LINE
  5
EB0
  8
0
 10
129.6004134111638
 20
65.000000000000028
 30
0.0
 11
129.5999999989435
 21
69.000000000000028
 31
0.0
  0
LINE
  5
EB3
  8
0
 10
125.5999999989435
 20
69.000000000000028
 30
0.0
 11
125.59958658672321
 21
65.000000000000028
 31
0.0
  0
LINE
  5
EB5
  8
0
 10
116.99999999894349
 20
69.000000000000028
 30
0.0
 11
138.1999999989435
 21
69.0
 31
0.0
  0
LINE
  5
F2E
  8
0
 10
66.304149381918165
 20
50.000000000000057
 30
0.0
 11
66.30414938191818
 21
52.299999999997141
 31
0.0
  0
LINE
  5
F2F
  8
0
 10
53.000000000000078
 20
50.000000000000057
 30
0.0
 11
66.304149381918165
 21
50.000000000000057
 31
0.0
  0
LINE
  5
F30
  8
0
 10
53.000000000000078
 20
50.000000000000057
 30
0.0
 11
53.000000000000107
 21
65.000000000000057
 31
0.0
  0
LINE
  5
F31
  8
0
 10
53.000000000000107
 20
65.000000000000057
 30
0.0
 11
61.400000000000063
 21
65.000000000000057
 31
0.0
  0
LINE
  5
F39
  8
0
 10
71.60000000000008
 20
65.0
 30
0.0
 11
80.000000000000085
 21
65.0
 31
0.0
  0
LINE
  5
F3A
  8
0
 10
80.000000000000085
 20
65.0
 30
0.0
 11
80.000000000000085
 21
50.0
 31
0.0
  0
LINE
  5
F3B
  8
0
 10
80.000000000000085
 20
50.0
 30
0.0
 11
66.695850618081977
 21
50.0
 31
0.0
  0
LINE
  5
F3D
  8
0
 10
66.695850618081977
 20
50.0
 30
0.0
 11
66.695850618081977
 21
52.299999999997141
 31
0.0
  0
LINE
  5
F46
  8
0
 10
54.75000000000005
 20
69.000000000000057
 30
0.0
 11
78.250000000000014
 21
69.000000000000028
 31
0.0
  0
LINE
  5
F48
  8
0
 10
54.75000000000005
 20
69.000000000000085
 30
0.0
 11
56.431445172352817
 21
65.000000000000057
 31
0.0
  0
LINE
  5
F49
  8
0
 10
78.249999999999943
 20
69.0
 30
0.0
 11
76.568554827647191
 21
65.0
 31
0.0
  0
LINE
  5
F52
  8
0
 10
59.715212315030819
 20
69.000000000000057
 30
0.0
 11
61.942678429976432
 21
63.699999999997146
 31
0.0
  0
LINE
  5
F53
  8
0
 10
71.057321570023632
 20
63.699999999997146
 30
0.0
 11
73.28478768496926
 21
69.000000000000057
 31
0.0
  0
ARC
  5
F56
  8
0
 10
74.999717000000089
 20
58.119305999997152
 30
0.0
 40
2.5
 50
270.0
 51
90.0
  0
LINE
  5
F57
  8
0
 10
60.200000000000088
 20
52.299999999997141
 30
0.0
 11
72.800000000000097
 21
52.299999999997141
 31
0.0
  0
LINE
  5
F58
  8
0
 10
72.800000000000097
 20
52.299999999997141
 30
0.0
 11
72.800000000000097
 21
54.355048953612879
 31
0.0
  0
LINE
  5
F59
  8
0
 10
60.200000000000088
 20
52.299999999997141
 30
0.0
 11
60.200000000000088
 21
54.578364618266392
 31
0.0
  0
LINE
  5
F5A
  8
0
 10
72.800000000000097
 20
63.699999999997146
 30
0.0
 11
60.200000000000088
 21
63.699999999997146
 31
0.0
  0
LINE
  5
F7C
  8
0
 10
60.200000000000088
 20
62.499999999997151
 30
0.0
 11
72.800000000000097
 21
62.499999999997151
 31
0.0
  0
LINE
  5
1087
  8
0
 10
72.999717000000089
 20
60.619305999997152
 30
0.0
 11
72.999717000000089
 21
55.619305999997152
 31
0.0
  0
LINE
  5
1088
  8
0
 10
74.999717000000089
 20
60.619305999997152
 30
0.0
 11
72.999717000000089
 21
60.619305999997152
 31
0.0
  0
LINE
  5
1089
  8
0
 10
74.999717000000089
 20
55.619305999997152
 30
0.0
 11
72.999717000000089
 21
55.619305999997152
 31
0.0
  0
LINE
  5
108A
  8
0
 10
58.000284000000093
 20
60.619305999997152
 30
0.0
 11
60.000284000000093
 21
60.619305999997152
 31
0.0
  0
LINE
  5
108B
  8
0
 10
60.000284000000093
 20
60.619305999997152
 30
0.0
 11
60.000284000000093
 21
55.619305999997152
 31
0.0
  0
ARC
  5
108C
  8
0
 10
58.000284000000093
 20
58.119305999997152
 30
0.0
 40
2.5
 50
90.0
 51
270.0
  0
LINE
  5
108D
  8
0
 10
58.000284000000093
 20
55.619305999997152
 30
0.0
 11
60.000284000000093
 21
55.619305999997152
 31
0.0
  0
LINE
  5
108E
  8
0
 10
60.200000000000102
 20
61.42163538172791
 30
0.0
 11
60.200000000000088
 21
63.699999999997146
 31
0.0
  0
LINE
  5
108F
  8
0
 10
60.200000000000088
 20
55.10005515355153
 30
0.0
 11
60.200000000000081
 21
60.899944846442708
 31
0.0
  0
LINE
  5
1090
  8
0
 10
72.800000000000097
 20
61.6449501427523
 30
0.0
 11
72.800000000000097
 21
63.699999999997146
 31
0.0
  0
LINE
  5
1092
  8
0
 10
72.800000000000097
 20
55.45518446097757
 30
0.0
 11
72.800000000000097
 21
60.544815539016717
 31
0.0
  0
ARC
  5
1094
  8
0
 10
58.000284000000093
 20
58.119305999997152
 30
0.0
 40
2.0
 50
90.0
 51
270.0
  0
LINE
  5
1095
  8
0
 10
58.000284000000093
 20
60.119305999997152
 30
0.0
 11
60.000284000000093
 21
60.119305999997152
 31
0.0
  0
LINE
  5
1096
  8
0
 10
58.000284000000093
 20
56.119305999997152
 30
0.0
 11
60.000284000000093
 21
56.119305999997152
 31
0.0
  0
LINE
  5
1097
  8
0
 10
74.999717000000089
 20
60.119305999997152
 30
0.0
 11
72.999717000000089
 21
60.119305999997152
 31
0.0
  0
ARC
  5
1098
  8
0
 10
74.999717000000089
 20
58.119305999997152
 30
0.0
 40
2.0
 50
270.0
 51
90.0
  0
LINE
  5
1099
  8
0
 10
74.999717000000089
 20
56.119305999997152
 30
0.0
 11
72.999717000000089
 21
56.119305999997152
 31
0.0
  0
LINE
  5
10AE
  8
5
 10
80.000000000000085
 20
65.0
 30
0.0
 11
83.000000000000085
 21
65.0
 31
0.0
  0
LINE
  5
10AF
  8
5
 10
83.000000000000085
 20
65.0
 30
0.0
 11
83.000000000000085
 21
50.0
 31
0.0
  0
LINE
  5
10B0
  8
5
 10
83.000000000000085
 20
50.0
 30
0.0
 11
80.000000000000085
 21
50.0
 31
0.0
  0
LINE
  5
10B1
  8
5
 10
53.0
 20
65.0
 30
0.0
 11
50.0
 21
65.0
 31
0.0
  0
LINE
  5
10B2
  8
5
 10
50.0
 20
65.0
 30
0.0
 11
50.0
 21
50.0
 31
0.0
  0
LINE
  5
10B3
  8
5
 10
50.0
 20
50.0
 30
0.0
 11
53.0
 21
50.0
 31
0.0
  0
LINE
  5
10B4
  8
1
 10
66.500000000000043
 20
45.0
 30
0.0
 11
66.500000000000043
 21
74.000000000000057
 31
0.0
  0
LINE
  5
10C8
  8
0
 10
53.000000000000099
 20
102.9999999999999
 30
0.0
 11
53.000000000000007
 21
124.1999999999999
 31
0.0
  0
LINE
  5
10D5
  8
0
 10
53.000000000000099
 20
103.0
 30
0.0
 11
80.000000000000142
 21
103.0
 31
0.0
  0
LINE
  5
10D6
  8
0
 10
80.000000000000085
 20
124.2
 30
0.0
 11
53.000000000000007
 21
124.1999999999997
 31
0.0
  0
LINE
  5
10D7
  8
0
 10
80.000000000000085
 20
124.2
 30
0.0
 11
80.000000000000142
 21
103.0
 31
0.0
  0
LINE
  5
10E2
  8
0
 10
73.284788090989906
 20
103.0
 30
0.0
 11
78.250000406020632
 21
111.59999999999999
 31
0.0
  0
LINE
  5
10E4
  8
0
 10
54.750000406020661
 20
111.59999999999989
 30
0.0
 11
59.715212721051472
 21
102.9999999999999
 31
0.0
  0
LINE
  5
10E5
  8
0
 10
54.750000406020632
 20
115.59999999999989
 30
0.0
 11
54.750000406020661
 21
111.59999999999989
 31
0.0
  0
LINE
  5
10E6
  8
0
 10
59.715212721051387
 20
124.2
 30
0.0
 11
54.750000406020632
 21
115.59999999999989
 31
0.0
  0
LINE
  5
10E8
  8
0
 10
78.250000406020632
 20
115.59999999999999
 30
0.0
 11
73.284788090989821
 21
124.2
 31
0.0
  0
LINE
  5
10E9
  8
0
 10
78.250000406020632
 20
111.59999999999999
 30
0.0
 11
78.250000406020632
 21
115.59999999999999
 31
0.0
  0
ARC
  5
10EA
  8
0
 10
67.150000406020666
 20
113.59999999999989
 30
0.0
 40
6.6499999999999773
 50
270.0
 51
90.0
  0
LINE
  5
10EB
  8
0
 10
65.850000406020627
 20
120.2499999999999
 30
0.0
 11
67.150000406020624
 21
120.2499999999999
 31
0.0
  0
ARC
  5
10EC
  8
0
 10
65.850000406020655
 20
113.59999999999989
 30
0.0
 40
6.6500000000000048
 50
90.0
 51
270.0
  0
LINE
  5
10ED
  8
0
 10
67.150000406020666
 20
106.95
 30
0.0
 11
65.850000406020655
 21
106.95
 31
0.0
  0
LINE
  5
10EE
  8
0
 10
67.150000406020624
 20
117.65000000000001
 30
0.0
 11
65.850000406020627
 21
117.65000000000001
 31
0.0
  0
LINE
  5
10EF
  8
0
 10
65.850000406020655
 20
109.55
 30
0.0
 11
67.150000406020666
 21
109.55
 31
0.0
  0
ARC
  5
10F0
  8
0
 10
67.150000406020666
 20
113.59999999999989
 30
0.0
 40
4.0500000000000114
 50
270.0
 51
90.0
  0
ARC
  5
10F1
  8
0
 10
65.850000406020655
 20
113.59999999999989
 30
0.0
 40
4.0500000000000114
 50
90.0
 51
270.0
  0
LINE
  5
1118
  8
1
 10
66.500000000000043
 20
132.71835599999989
 30
0.0
 11
66.500000000000043
 21
94.481644000000017
 31
0.0
  0
LINE
  5
111F
  8
0
 10
60.200000000000088
 20
127.1999999999998
 30
0.0
 11
72.800000000000097
 21
127.1999999999998
 31
0.0
  0
ARC
  5
1120
  8
0
 10
57.508834999999642
 20
125.96813899999989
 30
0.0
 40
2.0055089999999991
 50
119.2254989999997
 51
241.8409390000005
  0
ARC
  5
1121
  8
0
 10
58.35007999999965
 20
125.96813899999989
 30
0.0
 40
2.0055089999999991
 50
119.2254989999997
 51
241.8409390000005
  0
ARC
  5
1122
  8
0
 10
59.191325999999648
 20
125.96813899999989
 30
0.0
 40
2.0055089999999991
 50
119.2254989999997
 51
241.8409390000005
  0
ARC
  5
1123
  8
0
 10
60.032570999999649
 20
125.96813899999989
 30
0.0
 40
2.0055089999999991
 50
119.2254989999997
 51
241.8409390000005
  0
ARC
  5
1124
  8
0
 10
60.873816999999647
 20
125.96813899999989
 30
0.0
 40
2.0055089999999991
 50
119.2254989999997
 51
241.8409390000005
  0
ARC
  5
1125
  8
0
 10
61.924155999999641
 20
125.96813899999989
 30
0.0
 40
2.214602999999999
 50
143.0712029999994
 51
218.87294916120689
  0
LINE
  5
1126
  8
0
 10
60.200000000000088
 20
124.1999999999999
 30
0.0
 11
60.200000000000088
 21
127.1999999999998
 31
0.0
  0
LINE
  5
1127
  8
0
 10
55.213818999999653
 20
127.7183559999999
 30
0.0
 11
77.786180953505152
 21
127.7183564772119
 31
0.0
  0
ARC
  5
1128
  8
0
 10
58.35007999999965
 20
125.96813899999989
 30
0.0
 40
2.0055089999999991
 50
119.2254989999997
 51
241.8409390000005
  0
ARC
  5
1129
  8
0
 10
59.191325999999648
 20
125.96813899999989
 30
0.0
 40
2.0055089999999991
 50
119.2254989999997
 51
241.8409390000005
  0
ARC
  5
112A
  8
0
 10
56.726230999999643
 20
125.96813899999989
 30
0.0
 40
2.0055089999999991
 50
119.2254989999997
 51
241.8409390000005
  0
ARC
  5
112B
  8
0
 10
76.273768999999646
 20
125.96813899999989
 30
0.0
 40
2.0055089999999991
 50
298.1590609999995
 51
60.774501000000207
  0
ARC
  5
112C
  8
0
 10
73.808673999999655
 20
125.96813899999989
 30
0.0
 40
2.0055089999999991
 50
298.1590609999995
 51
60.774501000000207
  0
ARC
  5
112D
  8
0
 10
74.649919999999639
 20
125.96813899999989
 30
0.0
 40
2.0055089999999991
 50
298.1590609999995
 51
60.774501000000207
  0
LINE
  5
112F
  8
0
 10
72.800000000000097
 20
124.1999999999999
 30
0.0
 11
72.800000000000097
 21
127.1999999999998
 31
0.0
  0
ARC
  5
1131
  8
0
 10
71.075844999999646
 20
125.96813899999989
 30
0.0
 40
2.214602999999999
 50
321.12700961515702
 51
52.117647000000211
  0
ARC
  5
1132
  8
0
 10
72.126183999999654
 20
125.96813899999989
 30
0.0
 40
2.0055089999999991
 50
298.1590609999995
 51
60.774501000000207
  0
ARC
  5
1133
  8
0
 10
72.96742899999964
 20
125.96813899999989
 30
0.0
 40
2.0055089999999991
 50
298.1590609999995
 51
60.774501000000207
  0
ARC
  5
1134
  8
0
 10
73.808673999999655
 20
125.96813899999989
 30
0.0
 40
2.0055089999999991
 50
298.1590609999995
 51
60.774501000000207
  0
ARC
  5
1135
  8
0
 10
74.649919999999639
 20
125.96813899999989
 30
0.0
 40
2.0055089999999991
 50
298.1590609999995
 51
60.774501000000207
  0
ARC
  5
1136
  8
0
 10
75.491164999999654
 20
125.96813899999989
 30
0.0
 40
2.0055089999999991
 50
298.1590609999995
 51
60.774501000000207
  0
ARC
  5
1137
  8
0
 10
61.654379999999648
 20
125.96813899999989
 30
0.0
 40
2.0055089999999991
 50
119.2254989999997
 51
138.43543900000029
  0
ARC
  5
1138
  8
0
 10
64.119473999999656
 20
125.96813899999989
 30
0.0
 40
2.0055089999999991
 50
119.2254989999997
 51
142.1033750000002
  0
ARC
  5
1139
  8
0
 10
63.278228999999641
 20
125.96813899999989
 30
0.0
 40
2.0055089999999991
 50
119.2254989999997
 51
142.1033750000002
  0
ARC
  5
113B
  8
0
 10
64.119473999999656
 20
125.96813899999989
 30
0.0
 40
2.0055089999999991
 50
119.2254989999997
 51
142.1033750000002
  0
ARC
  5
113C
  8
0
 10
63.278228999999641
 20
125.96813899999989
 30
0.0
 40
2.0055089999999991
 50
119.2254989999997
 51
142.1033750000002
  0
ARC
  5
113D
  8
0
 10
62.436982999999643
 20
125.96813899999989
 30
0.0
 40
2.0055089999999991
 50
119.2254989999997
 51
142.1033750000002
  0
LINE
  5
113F
  8
0
 10
66.499999999999645
 20
127.7183559999999
 30
0.0
 11
66.499999999999645
 21
127.1999999999998
 31
0.0
  0
ARC
  5
1140
  8
0
 10
88.383629999999627
 20
125.95917799999989
 30
0.0
 40
21.954224
 50
175.40399800000031
 51
176.75999699999949
  0
ARC
  5
1141
  8
0
 10
87.770091999999636
 20
125.95917799999989
 30
0.0
 40
21.954224
 50
175.40399800000031
 51
176.75999699999949
  0
ARC
  5
1142
  8
0
 10
69.17021799999965
 20
125.95917799999989
 30
0.0
 40
4.3264969999999989
 50
156.00821399999961
 51
163.33376700000071
  0
ARC
  5
1143
  8
0
 10
68.467044999999644
 20
125.95917799999989
 30
0.0
 40
4.3264969999999989
 50
156.00821399999961
 51
163.33376700000071
  0
ARC
  5
1144
  8
0
 10
67.704754999999651
 20
125.95917799999989
 30
0.0
 40
4.3264969999999989
 50
156.00821399999961
 51
163.33376700000071
  0
ARC
  5
1145
  8
0
 10
70.563016999999647
 20
125.96813899999989
 30
0.0
 40
2.0055089999999991
 50
37.896624999999723
 51
60.774501000000207
  0
ARC
  5
1146
  8
0
 10
65.295244999999653
 20
125.95917799999989
 30
0.0
 40
4.3264969999999989
 50
16.66623299999922
 51
23.991786000000349
  0
ARC
  5
1147
  8
0
 10
64.532955999999643
 20
125.95917799999989
 30
0.0
 40
4.3264969999999989
 50
16.66623299999922
 51
23.991786000000349
  0
ARC
  5
1148
  8
0
 10
63.829781999999639
 20
125.95917799999989
 30
0.0
 40
4.3264969999999989
 50
16.66623299999922
 51
23.991786000000349
  0
ARC
  5
1149
  8
0
 10
45.229907999999647
 20
125.95917799999989
 30
0.0
 40
21.954224
 50
3.240003000000486
 51
4.5960019999996682
  0
ARC
  5
114A
  8
0
 10
44.616369999999641
 20
125.95917799999989
 30
0.0
 40
21.954224
 50
3.240003000000486
 51
4.5960019999996682
  0
LINE
  5
114B
  8
0
 10
66.499999999999645
 20
127.7183559999999
 30
0.0
 11
66.499999999999645
 21
127.1999999999998
 31
0.0
  0
ARC
  5
114C
  8
0
 10
69.721771999999646
 20
125.96813899999989
 30
0.0
 40
2.0055089999999991
 50
37.896624999999723
 51
60.774501000000207
  0
ARC
  5
114D
  8
0
 10
68.880525999999648
 20
125.96813899999989
 30
0.0
 40
2.0055089999999991
 50
37.896624999999723
 51
60.774501000000207
  0
ARC
  5
114E
  8
0
 10
69.721771999999646
 20
125.96813899999989
 30
0.0
 40
2.0055089999999991
 50
37.896624999999723
 51
60.774501000000207
  0
ARC
  5
114F
  8
0
 10
68.880525999999648
 20
125.96813899999989
 30
0.0
 40
2.0055089999999991
 50
37.896624999999723
 51
60.774501000000207
  0
ARC
  5
1152
  8
0
 10
56.193004999999637
 20
125.96813899999989
 30
0.0
 40
2.0055089999999991
 50
119.2254989999997
 51
241.8409390000005
  0
ARC
  5
1153
  8
0
 10
76.806994999999645
 20
125.96813899999989
 30
0.0
 40
2.0055089999999991
 50
298.1590609999995
 51
60.774501000000207
  0
ARC
  5
1154
  8
0
 10
56.000283999999652
 20
127.6999999999999
 30
0.0
 40
0.5
 50
90.0
 51
177.8960599999993
  0
LINE
  5
1155
  8
0
 10
60.000283999999652
 20
128.19999999999979
 30
0.0
 11
60.000283999999652
 21
127.7183559999999
 31
0.0
  0
LINE
  5
1156
  8
0
 10
56.000283999999652
 20
128.19999999999979
 30
0.0
 11
60.000283999999652
 21
128.19999999999979
 31
0.0
  0
LINE
  5
1157
  8
0
 10
76.999716999999649
 20
128.19999999999979
 30
0.0
 11
72.999716999999634
 21
128.19999999999979
 31
0.0
  0
LINE
  5
1158
  8
0
 10
72.999716999999634
 20
128.19999999999979
 30
0.0
 11
72.999716999999634
 21
127.7183559999999
 31
0.0
  0
ARC
  5
1159
  8
0
 10
76.999716999999649
 20
127.6999999999999
 30
0.0
 40
0.5
 50
2.1039400000006889
 51
90.0
  0
ARC
  5
115B
  8
0
 10
68.880525593979556
 20
101.23186200000001
 30
0.0
 40
2.0055089999999991
 50
299.22549899999967
 51
322.10337500000031
  0
ARC
  5
115C
  8
0
 10
69.721771593979554
 20
101.23186200000001
 30
0.0
 40
2.0055089999999991
 50
299.22549899999967
 51
322.10337500000031
  0
ARC
  5
115D
  8
0
 10
68.880525593979556
 20
101.23186200000001
 30
0.0
 40
2.0055089999999991
 50
299.22549899999967
 51
322.10337500000031
  0
ARC
  5
115E
  8
0
 10
69.721771593979554
 20
101.23186200000001
 30
0.0
 40
2.0055089999999991
 50
299.22549899999967
 51
322.10337500000031
  0
LINE
  5
115F
  8
0
 10
66.499999593979553
 20
99.481644000000031
 30
0.0
 11
66.499999593979553
 21
100.0
 31
0.0
  0
ARC
  5
1160
  8
0
 10
44.616369593979563
 20
101.24082199999999
 30
0.0
 40
21.954224
 50
355.40399800000029
 51
356.75999699999949
  0
ARC
  5
1161
  8
0
 10
45.229907593979547
 20
101.24082199999999
 30
0.0
 40
21.954224
 50
355.40399800000029
 51
356.75999699999949
  0
ARC
  5
1162
  8
0
 10
63.82978159397954
 20
101.24082199999999
 30
0.0
 40
4.3264969999999989
 50
336.00821399999973
 51
343.33376700000082
  0
ARC
  5
1163
  8
0
 10
64.532955593979551
 20
101.24082199999999
 30
0.0
 40
4.3264969999999989
 50
336.00821399999973
 51
343.33376700000082
  0
ARC
  5
1164
  8
0
 10
65.295244593979561
 20
101.24082199999999
 30
0.0
 40
4.3264969999999989
 50
336.00821399999973
 51
343.33376700000082
  0
ARC
  5
1165
  8
0
 10
70.563016593979555
 20
101.23186200000001
 30
0.0
 40
2.0055089999999991
 50
299.22549899999967
 51
322.10337500000031
  0
ARC
  5
1166
  8
0
 10
67.704754593979558
 20
101.24082199999999
 30
0.0
 40
4.3264969999999989
 50
196.66623299999921
 51
203.9917860000003
  0
ARC
  5
1167
  8
0
 10
68.467044593979551
 20
101.24082199999999
 30
0.0
 40
4.3264969999999989
 50
196.66623299999921
 51
203.9917860000003
  0
ARC
  5
1168
  8
0
 10
69.170217593979558
 20
101.24082199999999
 30
0.0
 40
4.3264969999999989
 50
196.66623299999921
 51
203.9917860000003
  0
ARC
  5
1169
  8
0
 10
87.770091593979544
 20
101.24082199999999
 30
0.0
 40
21.954224
 50
183.24000300000051
 51
184.5960019999996
  0
ARC
  5
116A
  8
0
 10
88.383629593979535
 20
101.24082199999999
 30
0.0
 40
21.954224
 50
183.24000300000051
 51
184.5960019999996
  0
LINE
  5
116B
  8
0
 10
66.499999593979553
 20
99.481644000000031
 30
0.0
 11
66.499999593979553
 21
100.0
 31
0.0
  0
ARC
  5
116D
  8
0
 10
62.43698259397955
 20
101.23186200000001
 30
0.0
 40
2.0055089999999991
 50
217.89662499999969
 51
240.77450100000021
  0
ARC
  5
116E
  8
0
 10
63.278228593979541
 20
101.23186200000001
 30
0.0
 40
2.0055089999999991
 50
217.89662499999969
 51
240.77450100000021
  0
ARC
  5
116F
  8
0
 10
64.119473593979563
 20
101.23186200000001
 30
0.0
 40
2.0055089999999991
 50
217.89662499999969
 51
240.77450100000021
  0
ARC
  5
1171
  8
0
 10
63.278228593979541
 20
101.23186200000001
 30
0.0
 40
2.0055089999999991
 50
217.89662499999969
 51
240.77450100000021
  0
ARC
  5
1172
  8
0
 10
64.119473593979563
 20
101.23186200000001
 30
0.0
 40
2.0055089999999991
 50
217.89662499999969
 51
240.77450100000021
  0
ARC
  5
1173
  8
0
 10
61.654379593979549
 20
101.23186200000001
 30
0.0
 40
2.0055089999999991
 50
221.56456099999971
 51
240.77450100000021
  0
ARC
  5
1174
  8
0
 10
75.491164593979562
 20
101.23186200000001
 30
0.0
 40
2.0055089999999991
 50
299.22549899999967
 51
61.840939000000468
  0
ARC
  5
1175
  8
0
 10
74.649919593979547
 20
101.23186200000001
 30
0.0
 40
2.0055089999999991
 50
299.22549899999967
 51
61.840939000000468
  0
ARC
  5
1176
  8
0
 10
73.808673593979563
 20
101.23186200000001
 30
0.0
 40
2.0055089999999991
 50
299.22549899999967
 51
61.840939000000468
  0
ARC
  5
1177
  8
0
 10
72.967428593979548
 20
101.23186200000001
 30
0.0
 40
2.0055089999999991
 50
299.22549899999967
 51
61.840939000000468
  0
ARC
  5
1178
  8
0
 10
72.126183593979562
 20
101.23186200000001
 30
0.0
 40
2.0055089999999991
 50
299.22549899999967
 51
61.840939000000468
  0
ARC
  5
1179
  8
0
 10
71.075844593979554
 20
101.23186200000001
 30
0.0
 40
2.214602999999999
 50
307.8823529999998
 51
38.872973647207509
  0
LINE
  5
117B
  8
0
 10
72.800000000000097
 20
103.0
 30
0.0
 11
72.800000000000097
 21
100.0
 31
0.0
  0
ARC
  5
117C
  8
0
 10
74.649919593979547
 20
101.23186200000001
 30
0.0
 40
2.0055089999999991
 50
299.22549899999967
 51
61.840939000000468
  0
ARC
  5
117D
  8
0
 10
73.808673593979563
 20
101.23186200000001
 30
0.0
 40
2.0055089999999991
 50
299.22549899999967
 51
61.840939000000468
  0
ARC
  5
117E
  8
0
 10
76.273768593979554
 20
101.23186200000001
 30
0.0
 40
2.0055089999999991
 50
299.22549899999967
 51
61.840939000000468
  0
ARC
  5
117F
  8
0
 10
56.726230593979551
 20
101.23186200000001
 30
0.0
 40
2.0055089999999991
 50
118.1590609999995
 51
240.77450100000021
  0
ARC
  5
1180
  8
0
 10
59.191325593979549
 20
101.23186200000001
 30
0.0
 40
2.0055089999999991
 50
118.1590609999995
 51
240.77450100000021
  0
ARC
  5
1181
  8
0
 10
58.350079593979551
 20
101.23186200000001
 30
0.0
 40
2.0055089999999991
 50
118.1590609999995
 51
240.77450100000021
  0
LINE
  5
1182
  8
0
 10
55.213818593979553
 20
99.481644000000031
 30
0.0
 11
77.786180547485046
 21
99.481644522787974
 31
0.0
  0
LINE
  5
1183
  8
0
 10
60.200000000000088
 20
103.0
 30
0.0
 11
60.200000000000088
 21
100.0
 31
0.0
  0
ARC
  5
1184
  8
0
 10
61.924155593979549
 20
101.23186200000001
 30
0.0
 40
2.214602999999999
 50
141.12703410114909
 51
216.9287970000006
  0
ARC
  5
1185
  8
0
 10
60.873816593979548
 20
101.23186200000001
 30
0.0
 40
2.0055089999999991
 50
118.1590609999995
 51
240.77450100000021
  0
ARC
  5
1186
  8
0
 10
60.032570593979557
 20
101.23186200000001
 30
0.0
 40
2.0055089999999991
 50
118.1590609999995
 51
240.77450100000021
  0
ARC
  5
1187
  8
0
 10
59.191325593979549
 20
101.23186200000001
 30
0.0
 40
2.0055089999999991
 50
118.1590609999995
 51
240.77450100000021
  0
ARC
  5
1188
  8
0
 10
58.350079593979551
 20
101.23186200000001
 30
0.0
 40
2.0055089999999991
 50
118.1590609999995
 51
240.77450100000021
  0
ARC
  5
1189
  8
0
 10
57.508834593979557
 20
101.23186200000001
 30
0.0
 40
2.0055089999999991
 50
118.1590609999995
 51
240.77450100000021
  0
LINE
  5
118A
  8
0
 10
60.200000000000088
 20
100.0
 30
0.0
 11
72.800000000000097
 21
100.0
 31
0.0
  0
LINE
  5
118B
  8
0
 10
56.00028359397956
 20
99.0
 30
0.0
 11
60.00028359397956
 21
99.0
 31
0.0
  0
LINE
  5
118C
  8
0
 10
60.00028359397956
 20
99.0
 30
0.0
 11
60.00028359397956
 21
99.481644000000031
 31
0.0
  0
ARC
  5
118D
  8
0
 10
56.193004593979552
 20
101.23186200000001
 30
0.0
 40
2.0055089999999991
 50
118.1590609999995
 51
240.77450100000021
  0
ARC
  5
118E
  8
0
 10
56.00028359397956
 20
99.500000000000014
 30
0.0
 40
0.5
 50
182.1039400000007
 51
270.0
  0
ARC
  5
118F
  8
0
 10
76.806994593979553
 20
101.23186200000001
 30
0.0
 40
2.0055089999999991
 50
299.22549899999967
 51
61.840939000000468
  0
ARC
  5
1190
  8
0
 10
76.999716593979556
 20
99.500000000000014
 30
0.0
 40
0.5
 50
270.0
 51
357.8960599999993
  0
LINE
  5
1191
  8
0
 10
72.999716593979556
 20
99.0
 30
0.0
 11
72.999716593979556
 21
99.481644000000031
 31
0.0
  0
LINE
  5
1192
  8
0
 10
76.999716593979556
 20
99.0
 30
0.0
 11
72.999716593979556
 21
99.0
 31
0.0
  0
TEXT
  5
119C
  8
0
 10
59.726694593979467
 20
120.76079299999989
 30
0.0
 40
2.0791059999999999
  1
OK-VISE
  0
TEXT
  5
119D
  8
0
 10
60.495805593979469
 20
103.75667300000001
 30
0.0
 40
2.0791059999999999
  1
BK2-VT
  0
LINE
  5
119E
  8
1
 10
66.999999593979453
 20
102.05
 30
0.0
 11
66.999999593979453
 21
125.15000000000001
 31
0.0
  0
LINE
  5
119F
  8
1
 10
65.999999593979467
 20
125.15000000000001
 30
0.0
 11
65.999999593979467
 21
102.05
 31
0.0
  0
LINE
  5
11A2
  8
1
 10
88.000000000000114
 20
113.59999999999989
 30
0.0
 11
44.999999999999972
 21
113.59999999999989
 31
0.0
  0
LINE
  5
11AD
  8
5
 10
80.000000000000142
 20
103.0
 30
0.0
 11
83.000000000000142
 21
103.0
 31
0.0
  0
LINE
  5
11AE
  8
5
 10
83.000000000000085
 20
124.2
 30
0.0
 11
80.000000000000085
 21
124.2
 31
0.0
  0
LINE
  5
11AF
  8
5
 10
83.000000000000085
 20
124.2
 30
0.0
 11
83.000000000000142
 21
103.0
 31
0.0
  0
LINE
  5
11B1
  8
5
 10
52.999999999999943
 20
103.0
 30
0.0
 11
49.999999999999943
 21
103.0
 31
0.0
  0
LINE
  5
11B2
  8
5
 10
50.0
 20
124.2
 30
0.0
 11
53.0
 21
124.2
 31
0.0
  0
LINE
  5
11B3
  8
5
 10
50.0
 20
124.2
 30
0.0
 11
49.999999999999943
 21
103.0
 31
0.0
  0
LINE
  5
11C6
  8
1
 10
127.5999999989435
 20
44.999999999999943
 30
0.0
 11
127.5999999989435
 21
74.0
 31
0.0
  0
LINE
  5
11CA
  8
0
 10
113.0000000000001
 20
60.118968938669717
 30
0.0
 11
113.0000000000001
 21
56.118968938669731
 31
0.0
  0
LINE
  5
11CB
  8
0
 10
113.4816439236792
 20
62.303084270201481
 30
0.0
 11
113.4816438472473
 21
53.696916270201513
 31
0.0
  0
ARC
  5
11CD
  8
0
 10
116.6499999989435
 20
63.349999999997152
 30
0.0
 40
0.35
 50
0.0
 51
90.0
  0
LINE
  5
11CE
  8
0
 10
113.99999999894349
 20
62.643790999997151
 30
0.0
 11
116.6499999989435
 21
63.699999999997146
 31
0.0
  0
LINE
  5
11CF
  8
0
 10
114.5385779989435
 20
62.499999999997151
 30
0.0
 11
116.1904139989435
 21
63.158370999997167
 31
0.0
  0
LINE
  5
11D0
  8
0
 10
114.5385779989435
 20
62.499999999997151
 30
0.0
 11
113.99999999894349
 21
62.643790999997151
 31
0.0
  0
LINE
  5
11D1
  8
0
 10
116.6699999989435
 20
62.833243999997173
 30
0.0
 11
116.6699999989435
 21
53.166754999997117
 31
0.0
  0
ARC
  5
11D2
  8
0
 10
116.3199999989435
 20
62.833243999997173
 30
0.0
 40
0.35
 50
0.0
 51
111.7307109999996
  0
ARC
  5
11D3
  8
0
 10
116.3199999989435
 20
53.166754999997117
 30
0.0
 40
0.35
 50
248.26928900000041
 51
0.0
  0
LINE
  5
11D4
  8
0
 10
114.5385779989435
 20
53.499999999997158
 30
0.0
 11
113.99999999894349
 21
53.356208999997143
 31
0.0
  0
LINE
  5
11D5
  8
0
 10
114.5385779989435
 20
53.499999999997158
 30
0.0
 11
116.1904139989435
 21
52.841627999997137
 31
0.0
  0
LINE
  5
11D6
  8
0
 10
113.99999999894349
 20
53.356208999997143
 30
0.0
 11
116.6499999989435
 21
52.299999999997141
 31
0.0
  0
ARC
  5
11D7
  8
0
 10
116.6499999989435
 20
52.649999999997128
 30
0.0
 40
0.35
 50
270.0
 51
0.0
  0
ARC
  5
11D8
  8
0
 10
115.0758219989435
 20
50.580494999997107
 30
0.0
 40
7.588838
 50
77.873616000000041
 51
102.1263839999999
  0
ARC
  5
11D9
  8
0
 10
115.0758219989435
 20
51.094129999997108
 30
0.0
 40
7.588838
 50
77.873616000000041
 51
102.1263839999999
  0
ARC
  5
11DA
  8
0
 10
115.0758219989435
 20
51.600041999997103
 30
0.0
 40
7.588838
 50
77.873616000000041
 51
102.1263839999999
  0
ARC
  5
11DB
  8
0
 10
115.0758219989435
 20
52.454528999997109
 30
0.0
 40
7.588838
 50
77.873616000000041
 51
102.1263839999999
  0
ARC
  5
11DC
  8
0
 10
115.0758219989435
 20
53.275413999997113
 30
0.0
 40
7.588838
 50
77.873616000000041
 51
102.1263839999999
  0
ARC
  5
11DD
  8
0
 10
115.0758219989435
 20
54.149102999997119
 30
0.0
 40
7.588838
 50
77.873616000000041
 51
102.1263839999999
  0
ARC
  5
11DE
  8
0
 10
115.0758219989435
 20
54.883578999997098
 30
0.0
 40
7.588838
 50
77.873616000000041
 51
102.1263839999999
  0
ARC
  5
11E6
  8
0
 10
113.5000000000001
 20
60.118968938669717
 30
0.0
 40
0.5
 50
92.103925904474167
 51
180.0
  0
ARC
  5
11E7
  8
0
 10
113.5000000000001
 20
56.118968938669731
 30
0.0
 40
0.5
 50
180.0
 51
267.89606900430539
  0
LINE
  5
1362
  8
0
 10
60.200000000000088
 20
53.499999999997129
 30
0.0
 11
72.800000000000097
 21
53.499999999997129
 31
0.0
  0
LINE
  5
1367
  8
0
 10
73.30538200000008
 20
62.336380999997147
 30
0.0
 11
73.15515756572988
 21
60.619305999997152
 31
0.0
  0
LINE
  5
1368
  8
0
 10
73.602297370917228
 20
62.310404702589913
 30
0.0
 11
73.454345565729881
 21
60.619305999997152
 31
0.0
  0
LINE
  5
1369
  8
0
 10
74.337854000000078
 20
62.336380999997147
 30
0.0
 11
74.187629565729864
 21
60.619305999997152
 31
0.0
  0
LINE
  5
136A
  8
0
 10
74.634769355541678
 20
62.310404702589913
 30
0.0
 11
74.486816549381402
 21
60.619305999997152
 31
0.0
  0
LINE
  5
136B
  8
0
 10
77.499716000000078
 20
58.147987999997149
 30
0.0
 11
78.663949000000088
 21
58.147987999997149
 31
0.0
  0
LINE
  5
136C
  8
0
 10
77.275898949858501
 20
59.153228497643269
 30
0.0
 11
78.400008000000085
 21
59.518473999997127
 31
0.0
  0
LINE
  5
136D
  8
0
 10
77.382264489704497
 20
58.876582342756663
 30
0.0
 11
78.49146900000008
 21
59.236983999997143
 31
0.0
  0
ARC
  5
136E
  8
0
 10
78.445738000000091
 20
59.377728999997139
 30
0.0
 40
0.147988
 50
288.0
 51
108.0
  0
LINE
  5
136F
  8
0
 10
76.673680725529579
 20
59.976143484973001
 30
0.0
 11
77.725481000000073
 21
60.740320999997152
 31
0.0
  0
LINE
  5
1370
  8
0
 10
76.883578931334057
 20
59.762797473559047
 30
0.0
 11
77.899451000000099
 21
60.500871999997152
 31
0.0
  0
ARC
  5
1371
  8
0
 10
77.812466000000086
 20
60.620595999997128
 30
0.0
 40
0.147988
 50
305.99999999999949
 51
125.9999999999994
  0
LINE
  5
1372
  8
0
 10
75.824055479322084
 20
60.479489482591049
 30
0.0
 11
76.706396000000083
 21
61.693925999997141
 31
0.0
  0
LINE
  5
1373
  8
0
 10
76.104503647029901
 20
60.361948741172078
 30
0.0
 11
76.945845000000091
 21
61.519956999997127
 31
0.0
  0
ARC
  5
1374
  8
0
 10
76.826121000000086
 20
61.606940999997157
 30
0.0
 40
0.147988
 50
324.00000000000068
 51
144.00000000000051
  0
LINE
  5
1375
  8
0
 10
75.037577877751502
 20
60.619019294344298
 30
0.0
 11
75.552489000000094
 21
62.203752999997157
 31
0.0
  0
LINE
  5
1376
  8
0
 10
75.341261174413106
 20
60.595865625147439
 30
0.0
 11
75.833978000000101
 21
62.112291999997133
 31
0.0
  0
ARC
  5
1377
  8
0
 10
75.693233000000092
 20
62.158022999997137
 30
0.0
 40
0.147988
 50
341.99999999999937
 51
161.9999999999994
  0
ARC
  5
1378
  8
0
 10
74.486311000000086
 20
62.323392999997139
 30
0.0
 40
0.149024
 50
355.00000000000023
 51
175.0000000000002
  0
ARC
  5
1379
  8
0
 10
73.453840000000085
 20
62.323392999997139
 30
0.0
 40
0.149024
 50
355.00000000000023
 51
175.0000000000002
  0
LINE
  5
137B
  8
0
 10
73.481669691485777
 20
60.619305999997152
 30
0.0
 11
74.289112000000074
 21
61.77925599999714
 31
0.0
  0
LINE
  5
137C
  8
0
 10
73.502620000000093
 20
61.17109399999714
 30
0.0
 11
74.364002000000099
 21
62.408532999997128
 31
0.0
  0
LINE
  5
137D
  8
0
 10
74.530146029982674
 20
60.619305999997152
 30
0.0
 11
75.331982000000082
 21
61.525102999997159
 31
0.0
  0
LINE
  5
137E
  8
0
 10
74.525720000000092
 20
61.063966999997149
 30
0.0
 11
75.581648000000087
 21
62.256800999997147
 31
0.0
  0
LINE
  5
137F
  8
0
 10
75.489716794013361
 20
60.57081578008512
 30
0.0
 11
76.241462000000084
 21
61.053999999997131
 31
0.0
  0
LINE
  5
1380
  8
0
 10
75.437295000000091
 20
60.891426999997122
 30
0.0
 11
76.745544000000081
 21
61.732303999997157
 31
0.0
  0
LINE
  5
1381
  8
0
 10
76.398145487544568
 20
60.191598876311723
 30
0.0
 11
77.181506000000084
 21
60.34509999999716
 31
0.0
  0
LINE
  5
1382
  8
0
 10
76.168740000000085
 20
60.450362999997139
 30
0.0
 11
77.78380900000009
 21
60.766839999997153
 31
0.0
  0
LINE
  5
1383
  8
0
 10
77.156253263799144
 20
59.383960633847671
 30
0.0
 11
77.760527000000096
 21
59.310693999997142
 31
0.0
  0
LINE
  5
1384
  8
0
 10
76.926694889890442
 20
59.712025753084212
 30
0.0
 11
78.463676000000092
 21
59.525669999997149
 31
0.0
  0
LINE
  5
1385
  8
0
 10
77.485781424034414
 20
58.38290357121295
 30
0.0
 11
77.991559000000095
 21
58.147987999997149
 31
0.0
  0
LINE
  5
1386
  8
0
 10
77.421026285577
 20
58.741609256921834
 30
0.0
 11
78.726725000000087
 21
58.13515699999715
 31
0.0
  0
LINE
  5
1387
  8
0
 10
77.499716000000078
 20
58.147987999997149
 30
0.0
 11
78.663949000000088
 21
58.147987999997149
 31
0.0
  0
LINE
  5
1388
  8
0
 10
58.207509000000087
 20
62.336380999997147
 30
0.0
 11
58.357734450618771
 21
60.619305999997152
 31
0.0
  0
LINE
  5
1389
  8
0
 10
58.506697000000081
 20
62.336380999997147
 30
0.0
 11
58.656921679519371
 21
60.619305999997152
 31
0.0
  0
LINE
  5
138A
  8
0
 10
59.362880284122198
 20
60.619305999997152
 30
0.0
 11
58.555439000000092
 21
61.77925599999714
 31
0.0
  0
LINE
  5
138B
  8
0
 10
59.341931000000081
 20
61.17109399999714
 30
0.0
 11
58.480549000000089
 21
62.408532999997128
 31
0.0
  0
ARC
  5
138C
  8
0
 10
58.358239000000097
 20
62.323392999997139
 30
0.0
 40
0.149024
 50
4.9999999999997931
 51
184.9999999999998
  0
LINE
  5
138D
  8
0
 10
59.239981000000093
 20
62.336380999997147
 30
0.0
 11
59.390205434270307
 21
60.619305999997152
 31
0.0
  0
LINE
  5
138E
  8
0
 10
59.539169000000093
 20
62.336380999997147
 30
0.0
 11
59.689393679519377
 21
60.619305999997152
 31
0.0
  0
LINE
  5
138F
  8
0
 10
60.449293000000083
 20
60.541816999997138
 30
0.0
 11
59.587911000000091
 21
61.77925599999714
 31
0.0
  0
LINE
  5
1390
  8
0
 10
60.374402000000089
 20
61.17109399999714
 30
0.0
 11
59.513020000000083
 21
62.408532999997128
 31
0.0
  0
ARC
  5
1391
  8
0
 10
59.390711000000103
 20
62.323392999997139
 30
0.0
 40
0.149024
 50
4.9999999999997931
 51
184.9999999999998
  0
LINE
  5
1392
  8
0
 10
60.274725637404067
 20
62.310404702589913
 30
0.0
 11
60.42314500000009
 21
60.613967999997158
 31
0.0
  0
LINE
  5
1393
  8
0
 10
60.571640000000087
 20
62.336380999997147
 30
0.0
 11
60.720059000000091
 21
60.639944999997141
 31
0.0
  0
LINE
  5
1394
  8
0
 10
61.481765000000088
 20
60.541816999997138
 30
0.0
 11
60.620383000000089
 21
61.77925599999714
 31
0.0
  0
LINE
  5
1395
  8
0
 10
61.40687400000008
 20
61.17109399999714
 30
0.0
 11
60.545492000000081
 21
62.408532999997128
 31
0.0
  0
ARC
  5
1396
  8
0
 10
60.423183000000087
 20
62.323392999997139
 30
0.0
 40
0.149024
 50
4.9999999999997931
 51
184.9999999999998
  0
ARC
  5
1397
  8
0
 10
60.571602000000091
 20
60.626956999997127
 30
0.0
 40
0.149024
 50
184.9999999999998
 51
4.9999999999997931
  0
LINE
  5
1398
  8
0
 10
61.307197622322732
 20
62.310404702589913
 30
0.0
 11
61.45561600000007
 21
60.613967999997158
 31
0.0
  0
LINE
  5
1399
  8
0
 10
61.604112000000093
 20
62.336380999997147
 30
0.0
 11
61.75253100000009
 21
60.639944999997141
 31
0.0
  0
LINE
  5
139A
  8
0
 10
62.514236000000089
 20
60.541816999997138
 30
0.0
 11
61.65285400000009
 21
61.77925599999714
 31
0.0
  0
LINE
  5
139B
  8
0
 10
62.439346000000093
 20
61.17109399999714
 30
0.0
 11
61.577964000000087
 21
62.408532999997128
 31
0.0
  0
ARC
  5
139C
  8
0
 10
61.455655000000078
 20
62.323392999997139
 30
0.0
 40
0.149024
 50
4.9999999999997931
 51
184.9999999999998
  0
ARC
  5
139D
  8
0
 10
61.604074000000097
 20
60.626956999997127
 30
0.0
 40
0.149024
 50
184.9999999999998
 51
4.9999999999997931
  0
LINE
  5
139E
  8
0
 10
62.339669622322731
 20
62.310404702589913
 30
0.0
 11
62.48808800000009
 21
60.613967999997158
 31
0.0
  0
LINE
  5
139F
  8
0
 10
62.636584000000077
 20
62.336380999997147
 30
0.0
 11
62.785003000000088
 21
60.639944999997141
 31
0.0
  0
LINE
  5
13A0
  8
0
 10
63.546708000000081
 20
60.541816999997138
 30
0.0
 11
62.685326000000089
 21
61.77925599999714
 31
0.0
  0
LINE
  5
13A1
  8
0
 10
63.471818000000077
 20
61.17109399999714
 30
0.0
 11
62.610436000000092
 21
62.408532999997128
 31
0.0
  0
ARC
  5
13A2
  8
0
 10
62.488127000000091
 20
62.323392999997139
 30
0.0
 40
0.149024
 50
4.9999999999997931
 51
184.9999999999998
  0
ARC
  5
13A3
  8
0
 10
62.636546000000081
 20
60.626956999997127
 30
0.0
 40
0.149024
 50
184.9999999999998
 51
4.9999999999997931
  0
LINE
  5
13A4
  8
0
 10
63.372140637404058
 20
62.310404702589913
 30
0.0
 11
63.520560000000089
 21
60.613967999997158
 31
0.0
  0
LINE
  5
13A5
  8
0
 10
63.669056000000083
 20
62.336380999997147
 30
0.0
 11
63.817475000000087
 21
60.639944999997141
 31
0.0
  0
LINE
  5
13A6
  8
0
 10
64.579180000000079
 20
60.541816999997138
 30
0.0
 11
63.717798000000087
 21
61.77925599999714
 31
0.0
  0
LINE
  5
13A7
  8
0
 10
64.504290000000097
 20
61.17109399999714
 30
0.0
 11
63.642908000000091
 21
62.408532999997128
 31
0.0
  0
ARC
  5
13A8
  8
0
 10
63.520598000000092
 20
62.323392999997139
 30
0.0
 40
0.149024
 50
4.9999999999997931
 51
184.9999999999998
  0
ARC
  5
13A9
  8
0
 10
63.669017000000082
 20
60.626956999997127
 30
0.0
 40
0.149024
 50
184.9999999999998
 51
4.9999999999997931
  0
LINE
  5
13AA
  8
0
 10
64.404612637404071
 20
62.310404702589913
 30
0.0
 11
64.553032000000087
 21
60.613967999997158
 31
0.0
  0
LINE
  5
13AB
  8
0
 10
64.701528000000096
 20
62.336380999997147
 30
0.0
 11
64.849947000000085
 21
60.639944999997141
 31
0.0
  0
LINE
  5
13AC
  8
0
 10
65.611652000000092
 20
60.541816999997138
 30
0.0
 11
64.750270000000086
 21
61.77925599999714
 31
0.0
  0
LINE
  5
13AD
  8
0
 10
65.536761000000084
 20
61.17109399999714
 30
0.0
 11
64.675379000000063
 21
62.408532999997128
 31
0.0
  0
ARC
  5
13AE
  8
0
 10
64.553070000000091
 20
62.323392999997139
 30
0.0
 40
0.149024
 50
4.9999999999997931
 51
184.9999999999998
  0
ARC
  5
13AF
  8
0
 10
64.701489000000095
 20
60.626956999997127
 30
0.0
 40
0.149024
 50
184.9999999999998
 51
4.9999999999997931
  0
LINE
  5
13B0
  8
0
 10
65.43708463740407
 20
62.310404702589913
 30
0.0
 11
65.585504000000086
 21
60.613967999997158
 31
0.0
  0
LINE
  5
13B1
  8
0
 10
65.733999000000097
 20
62.336380999997147
 30
0.0
 11
65.882418000000087
 21
60.639944999997141
 31
0.0
  0
LINE
  5
13B2
  8
0
 10
66.64412400000009
 20
60.541816999997138
 30
0.0
 11
65.782742000000084
 21
61.77925599999714
 31
0.0
  0
LINE
  5
13B3
  8
0
 10
66.569233000000082
 20
61.17109399999714
 30
0.0
 11
65.70785100000009
 21
62.408532999997128
 31
0.0
  0
ARC
  5
13B4
  8
0
 10
65.585542000000089
 20
62.323392999997139
 30
0.0
 40
0.149024
 50
4.9999999999997931
 51
184.9999999999998
  0
ARC
  5
13B5
  8
0
 10
65.733961000000093
 20
60.626956999997127
 30
0.0
 40
0.149024
 50
184.9999999999998
 51
4.9999999999997931
  0
LINE
  5
13B6
  8
0
 10
66.469556622322713
 20
62.310404702589913
 30
0.0
 11
66.617975000000087
 21
60.613967999997158
 31
0.0
  0
LINE
  5
13B7
  8
0
 10
66.766471000000081
 20
62.336380999997147
 30
0.0
 11
66.914890000000099
 21
60.639944999997141
 31
0.0
  0
LINE
  5
13B8
  8
0
 10
67.676595000000091
 20
60.541816999997138
 30
0.0
 11
66.815213000000085
 21
61.77925599999714
 31
0.0
  0
LINE
  5
13B9
  8
0
 10
67.601705000000081
 20
61.17109399999714
 30
0.0
 11
66.740323000000089
 21
62.408532999997128
 31
0.0
  0
ARC
  5
13BA
  8
0
 10
66.618014000000073
 20
62.323392999997139
 30
0.0
 40
0.149024
 50
4.9999999999997931
 51
184.9999999999998
  0
ARC
  5
13BB
  8
0
 10
66.766433000000092
 20
60.626956999997127
 30
0.0
 40
0.149024
 50
184.9999999999998
 51
4.9999999999997931
  0
LINE
  5
13BC
  8
0
 10
67.502028622322726
 20
62.310404702589913
 30
0.0
 11
67.650447000000085
 21
60.613967999997158
 31
0.0
  0
LINE
  5
13BD
  8
0
 10
67.798943000000079
 20
62.336380999997147
 30
0.0
 11
67.947362000000084
 21
60.639944999997141
 31
0.0
  0
LINE
  5
13BE
  8
0
 10
68.70906700000009
 20
60.541816999997138
 30
0.0
 11
67.847685000000084
 21
61.77925599999714
 31
0.0
  0
LINE
  5
13BF
  8
0
 10
68.634177000000093
 20
61.17109399999714
 30
0.0
 11
67.772795000000087
 21
62.408532999997128
 31
0.0
  0
ARC
  5
13C0
  8
0
 10
67.650486000000086
 20
62.323392999997139
 30
0.0
 40
0.149024
 50
4.9999999999997931
 51
184.9999999999998
  0
ARC
  5
13C1
  8
0
 10
67.79890500000009
 20
60.626956999997127
 30
0.0
 40
0.149024
 50
184.9999999999998
 51
4.9999999999997931
  0
LINE
  5
13C2
  8
0
 10
68.534499637404053
 20
62.310404702589913
 30
0.0
 11
68.682919000000084
 21
60.613967999997158
 31
0.0
  0
LINE
  5
13C3
  8
0
 10
68.831415000000092
 20
62.336380999997147
 30
0.0
 11
68.979834000000082
 21
60.639944999997141
 31
0.0
  0
LINE
  5
13C4
  8
0
 10
69.741539000000088
 20
60.541816999997138
 30
0.0
 11
68.880157000000082
 21
61.77925599999714
 31
0.0
  0
LINE
  5
13C5
  8
0
 10
69.666649000000092
 20
61.17109399999714
 30
0.0
 11
68.805267000000086
 21
62.408532999997128
 31
0.0
  0
ARC
  5
13C6
  8
0
 10
68.682957000000087
 20
62.323392999997139
 30
0.0
 40
0.149024
 50
4.9999999999997931
 51
184.9999999999998
  0
ARC
  5
13C7
  8
0
 10
68.831376000000091
 20
60.626956999997127
 30
0.0
 40
0.149024
 50
184.9999999999998
 51
4.9999999999997931
  0
LINE
  5
13C8
  8
0
 10
69.566971637404066
 20
62.310404702589913
 30
0.0
 11
69.715391000000082
 21
60.613967999997158
 31
0.0
  0
LINE
  5
13C9
  8
0
 10
69.863887000000091
 20
62.336380999997147
 30
0.0
 11
70.012305000000083
 21
60.639944999997141
 31
0.0
  0
LINE
  5
13CA
  8
0
 10
70.774011000000087
 20
60.541816999997138
 30
0.0
 11
69.912629000000081
 21
61.77925599999714
 31
0.0
  0
LINE
  5
13CB
  8
0
 10
70.699120000000093
 20
61.17109399999714
 30
0.0
 11
69.837738000000087
 21
62.408532999997128
 31
0.0
  0
ARC
  5
13CC
  8
0
 10
69.715429000000086
 20
62.323392999997139
 30
0.0
 40
0.149024
 50
4.9999999999997931
 51
184.9999999999998
  0
ARC
  5
13CD
  8
0
 10
69.86384800000009
 20
60.626956999997127
 30
0.0
 40
0.149024
 50
184.9999999999998
 51
4.9999999999997931
  0
LINE
  5
13CE
  8
0
 10
70.599443637404065
 20
62.310404702589913
 30
0.0
 11
70.747863000000095
 21
60.613967999997158
 31
0.0
  0
LINE
  5
13CF
  8
0
 10
70.896358000000092
 20
62.336380999997147
 30
0.0
 11
71.044777000000096
 21
60.639944999997141
 31
0.0
  0
LINE
  5
13D0
  8
0
 10
71.806482000000088
 20
60.541816999997138
 30
0.0
 11
70.945101000000093
 21
61.77925599999714
 31
0.0
  0
LINE
  5
13D1
  8
0
 10
71.731592000000063
 20
61.17109399999714
 30
0.0
 11
70.870210000000085
 21
62.408532999997128
 31
0.0
  0
ARC
  5
13D2
  8
0
 10
70.747901000000098
 20
62.323392999997139
 30
0.0
 40
0.149024
 50
4.9999999999997931
 51
184.9999999999998
  0
ARC
  5
13D3
  8
0
 10
70.896320000000074
 20
60.626956999997127
 30
0.0
 40
0.149024
 50
184.9999999999998
 51
4.9999999999997931
  0
LINE
  5
13D4
  8
0
 10
71.631915622322722
 20
62.310404702589913
 30
0.0
 11
71.780334000000082
 21
60.613967999997158
 31
0.0
  0
LINE
  5
13D5
  8
0
 10
71.92883000000009
 20
62.336380999997147
 30
0.0
 11
72.077249000000094
 21
60.639944999997141
 31
0.0
  0
ARC
  5
13D6
  8
0
 10
71.928792000000087
 20
60.626956999997127
 30
0.0
 40
0.149024
 50
184.9999999999998
 51
4.9999999999997931
  0
ARC
  5
13D7
  8
0
 10
71.780373000000083
 20
62.323392999997139
 30
0.0
 40
0.149024
 50
4.9999999999997931
 51
184.9999999999998
  0
LINE
  5
13D8
  8
0
 10
72.489605000000083
 20
61.043682999997138
 30
0.0
 11
71.977572000000094
 21
61.77925599999714
 31
0.0
  0
LINE
  5
13D9
  8
0
 10
72.437402000000091
 20
61.640367999997153
 30
0.0
 11
71.902682000000084
 21
62.408532999997128
 31
0.0
  0
LINE
  5
13DA
  8
0
 10
72.37878162232272
 20
62.310404702589913
 30
0.0
 11
72.527200000000093
 21
60.613967999997158
 31
0.0
  0
LINE
  5
13DB
  8
0
 10
72.675696000000073
 20
62.336380999997147
 30
0.0
 11
72.824115000000091
 21
60.639944999997141
 31
0.0
  0
ARC
  5
13DC
  8
0
 10
72.675658000000084
 20
60.626956999997127
 30
0.0
 40
0.149024
 50
184.9999999999998
 51
4.9999999999997931
  0
ARC
  5
13DD
  8
0
 10
72.527239000000094
 20
62.323392999997139
 30
0.0
 40
0.149024
 50
4.9999999999997931
 51
184.9999999999998
  0
LINE
  5
13DE
  8
0
 10
72.743313000000086
 20
61.563514999997153
 30
0.0
 11
73.331530000000086
 21
62.408532999997128
 31
0.0
  0
LINE
  5
13DF
  8
0
 10
72.783859000000092
 20
61.100070999997143
 30
0.0
 11
73.25664000000009
 21
61.77925599999714
 31
0.0
  0
LINE
  5
13E0
  8
0
 10
72.783859000000092
 20
54.899927999997153
 30
0.0
 11
73.25664000000009
 21
54.220743999997119
 31
0.0
  0
LINE
  5
13E1
  8
0
 10
72.743313000000086
 20
54.43648399999713
 30
0.0
 11
73.331530000000086
 21
53.591466999997117
 31
0.0
  0
ARC
  5
13E2
  8
0
 10
72.527239000000094
 20
53.676606999997141
 30
0.0
 40
0.149024
 50
175.0000000000002
 51
355.00000000000023
  0
ARC
  5
13E3
  8
0
 10
72.675658000000084
 20
55.373042999997153
 30
0.0
 40
0.149024
 50
355.00000000000023
 51
175.0000000000002
  0
LINE
  5
13E4
  8
0
 10
72.675696000000073
 20
53.663617999997143
 30
0.0
 11
72.824115000000091
 21
55.360054999997139
 31
0.0
  0
LINE
  5
13E5
  8
0
 10
72.378781709811022
 20
53.689595297404367
 30
0.0
 11
72.527200000000093
 21
55.386030999997161
 31
0.0
  0
LINE
  5
13E6
  8
0
 10
72.437402000000091
 20
54.359631999997127
 30
0.0
 11
71.902682000000084
 21
53.591466999997117
 31
0.0
  0
LINE
  5
13E7
  8
0
 10
72.489605000000083
 20
54.956316999997142
 30
0.0
 11
71.977572000000094
 21
54.220743999997119
 31
0.0
  0
ARC
  5
13E8
  8
0
 10
71.780373000000083
 20
53.676606999997141
 30
0.0
 40
0.149024
 50
175.0000000000002
 51
355.00000000000023
  0
ARC
  5
13E9
  8
0
 10
71.928792000000087
 20
55.373042999997153
 30
0.0
 40
0.149024
 50
355.00000000000023
 51
175.0000000000002
  0
LINE
  5
13EA
  8
0
 10
71.92883000000009
 20
53.663617999997143
 30
0.0
 11
72.077249000000094
 21
55.360054999997139
 31
0.0
  0
LINE
  5
13EB
  8
0
 10
71.631915709811025
 20
53.689595297404367
 30
0.0
 11
71.780334000000082
 21
55.386030999997161
 31
0.0
  0
ARC
  5
13EC
  8
0
 10
70.896320000000074
 20
55.373042999997153
 30
0.0
 40
0.149024
 50
355.00000000000023
 51
175.0000000000002
  0
ARC
  5
13ED
  8
0
 10
70.747901000000098
 20
53.676606999997141
 30
0.0
 40
0.149024
 50
175.0000000000002
 51
355.00000000000023
  0
LINE
  5
13EE
  8
0
 10
71.731592000000063
 20
54.828905999997147
 30
0.0
 11
70.870210000000085
 21
53.591466999997117
 31
0.0
  0
LINE
  5
13EF
  8
0
 10
71.806482000000088
 20
55.458182999997121
 30
0.0
 11
70.945101000000093
 21
54.220743999997119
 31
0.0
  0
LINE
  5
13F0
  8
0
 10
70.896358000000092
 20
53.663617999997143
 30
0.0
 11
71.044777000000096
 21
55.360054999997139
 31
0.0
  0
LINE
  5
13F1
  8
0
 10
70.59944372489295
 20
53.689595297404367
 30
0.0
 11
70.747863000000095
 21
55.386030999997161
 31
0.0
  0
ARC
  5
13F2
  8
0
 10
69.86384800000009
 20
55.373042999997153
 30
0.0
 40
0.149024
 50
355.00000000000023
 51
175.0000000000002
  0
ARC
  5
13F3
  8
0
 10
69.715429000000086
 20
53.676606999997141
 30
0.0
 40
0.149024
 50
175.0000000000002
 51
355.00000000000023
  0
LINE
  5
13F4
  8
0
 10
70.699120000000093
 20
54.828905999997147
 30
0.0
 11
69.837738000000087
 21
53.591466999997117
 31
0.0
  0
LINE
  5
13F5
  8
0
 10
70.774011000000087
 20
55.458182999997121
 30
0.0
 11
69.912629000000081
 21
54.220743999997119
 31
0.0
  0
LINE
  5
13F6
  8
0
 10
69.863887000000091
 20
53.663617999997143
 30
0.0
 11
70.012305000000083
 21
55.360054999997139
 31
0.0
  0
LINE
  5
13F7
  8
0
 10
69.566971724892952
 20
53.689595297404367
 30
0.0
 11
69.715391000000082
 21
55.386030999997161
 31
0.0
  0
ARC
  5
13F8
  8
0
 10
68.831376000000091
 20
55.373042999997153
 30
0.0
 40
0.149024
 50
355.00000000000023
 51
175.0000000000002
  0
ARC
  5
13F9
  8
0
 10
68.682957000000087
 20
53.676606999997141
 30
0.0
 40
0.149024
 50
175.0000000000002
 51
355.00000000000023
  0
LINE
  5
13FA
  8
0
 10
69.666649000000092
 20
54.828905999997147
 30
0.0
 11
68.805267000000086
 21
53.591466999997117
 31
0.0
  0
LINE
  5
13FB
  8
0
 10
69.741539000000088
 20
55.458182999997121
 30
0.0
 11
68.880157000000082
 21
54.220743999997119
 31
0.0
  0
LINE
  5
13FC
  8
0
 10
68.831415000000092
 20
53.663617999997143
 30
0.0
 11
68.979834000000082
 21
55.360054999997139
 31
0.0
  0
LINE
  5
13FD
  8
0
 10
68.534499724892953
 20
53.689595297404367
 30
0.0
 11
68.682919000000084
 21
55.386030999997161
 31
0.0
  0
ARC
  5
13FE
  8
0
 10
67.79890500000009
 20
55.373042999997153
 30
0.0
 40
0.149024
 50
355.00000000000023
 51
175.0000000000002
  0
ARC
  5
13FF
  8
0
 10
67.650486000000086
 20
53.676606999997141
 30
0.0
 40
0.149024
 50
175.0000000000002
 51
355.00000000000023
  0
LINE
  5
1400
  8
0
 10
68.634177000000093
 20
54.828905999997147
 30
0.0
 11
67.772795000000087
 21
53.591466999997117
 31
0.0
  0
LINE
  5
1401
  8
0
 10
68.70906700000009
 20
55.458182999997121
 30
0.0
 11
67.847685000000084
 21
54.220743999997119
 31
0.0
  0
LINE
  5
1402
  8
0
 10
67.798943000000079
 20
53.663617999997143
 30
0.0
 11
67.947362000000084
 21
55.360054999997139
 31
0.0
  0
LINE
  5
1403
  8
0
 10
67.502028709811029
 20
53.689595297404367
 30
0.0
 11
67.650447000000085
 21
55.386030999997161
 31
0.0
  0
ARC
  5
1404
  8
0
 10
66.766433000000092
 20
55.373042999997153
 30
0.0
 40
0.149024
 50
355.00000000000023
 51
175.0000000000002
  0
ARC
  5
1405
  8
0
 10
66.618014000000073
 20
53.676606999997141
 30
0.0
 40
0.149024
 50
175.0000000000002
 51
355.00000000000023
  0
LINE
  5
1406
  8
0
 10
67.601705000000081
 20
54.828905999997147
 30
0.0
 11
66.740323000000089
 21
53.591466999997117
 31
0.0
  0
LINE
  5
1407
  8
0
 10
67.676595000000091
 20
55.458182999997121
 30
0.0
 11
66.815213000000085
 21
54.220743999997119
 31
0.0
  0
LINE
  5
1408
  8
0
 10
66.766471000000081
 20
53.663617999997143
 30
0.0
 11
66.914890000000099
 21
55.360054999997139
 31
0.0
  0
LINE
  5
1409
  8
0
 10
66.46955670981103
 20
53.689595297404367
 30
0.0
 11
66.617975000000087
 21
55.386030999997161
 31
0.0
  0
ARC
  5
140A
  8
0
 10
65.733961000000093
 20
55.373042999997153
 30
0.0
 40
0.149024
 50
355.00000000000023
 51
175.0000000000002
  0
ARC
  5
140B
  8
0
 10
65.585542000000089
 20
53.676606999997141
 30
0.0
 40
0.149024
 50
175.0000000000002
 51
355.00000000000023
  0
LINE
  5
140C
  8
0
 10
66.569233000000082
 20
54.828905999997147
 30
0.0
 11
65.70785100000009
 21
53.591466999997117
 31
0.0
  0
LINE
  5
140D
  8
0
 10
66.64412400000009
 20
55.458182999997121
 30
0.0
 11
65.782742000000084
 21
54.220743999997119
 31
0.0
  0
LINE
  5
140E
  8
0
 10
65.733999000000097
 20
53.663617999997143
 30
0.0
 11
65.882418000000087
 21
55.360054999997139
 31
0.0
  0
LINE
  5
140F
  8
0
 10
65.437084724892955
 20
53.689595297404367
 30
0.0
 11
65.585504000000086
 21
55.386030999997161
 31
0.0
  0
ARC
  5
1410
  8
0
 10
64.701489000000095
 20
55.373042999997153
 30
0.0
 40
0.149024
 50
355.00000000000023
 51
175.0000000000002
  0
ARC
  5
1411
  8
0
 10
64.553070000000091
 20
53.676606999997141
 30
0.0
 40
0.149024
 50
175.0000000000002
 51
355.00000000000023
  0
LINE
  5
1412
  8
0
 10
65.536761000000084
 20
54.828905999997147
 30
0.0
 11
64.675379000000063
 21
53.591466999997117
 31
0.0
  0
LINE
  5
1413
  8
0
 10
65.611652000000092
 20
55.458182999997121
 30
0.0
 11
64.750270000000086
 21
54.220743999997119
 31
0.0
  0
LINE
  5
1414
  8
0
 10
64.701528000000096
 20
53.663617999997143
 30
0.0
 11
64.849947000000085
 21
55.360054999997139
 31
0.0
  0
LINE
  5
1415
  8
0
 10
64.404612724892957
 20
53.689595297404367
 30
0.0
 11
64.553032000000087
 21
55.386030999997161
 31
0.0
  0
ARC
  5
1416
  8
0
 10
63.669017000000082
 20
55.373042999997153
 30
0.0
 40
0.149024
 50
355.00000000000023
 51
175.0000000000002
  0
ARC
  5
1417
  8
0
 10
63.520598000000092
 20
53.676606999997141
 30
0.0
 40
0.149024
 50
175.0000000000002
 51
355.00000000000023
  0
LINE
  5
1418
  8
0
 10
64.504290000000097
 20
54.828905999997147
 30
0.0
 11
63.642908000000091
 21
53.591466999997117
 31
0.0
  0
LINE
  5
1419
  8
0
 10
64.579180000000079
 20
55.458182999997121
 30
0.0
 11
63.717798000000087
 21
54.220743999997119
 31
0.0
  0
LINE
  5
141A
  8
0
 10
63.669056000000083
 20
53.663617999997143
 30
0.0
 11
63.817475000000087
 21
55.360054999997139
 31
0.0
  0
LINE
  5
141B
  8
0
 10
63.372140724892937
 20
53.689595297404367
 30
0.0
 11
63.520560000000089
 21
55.386030999997161
 31
0.0
  0
ARC
  5
141C
  8
0
 10
62.636546000000081
 20
55.373042999997153
 30
0.0
 40
0.149024
 50
355.00000000000023
 51
175.0000000000002
  0
ARC
  5
141D
  8
0
 10
62.488127000000091
 20
53.676606999997141
 30
0.0
 40
0.149024
 50
175.0000000000002
 51
355.00000000000023
  0
LINE
  5
141E
  8
0
 10
63.471818000000077
 20
54.828905999997147
 30
0.0
 11
62.610436000000092
 21
53.591466999997117
 31
0.0
  0
LINE
  5
141F
  8
0
 10
63.546708000000081
 20
55.458182999997121
 30
0.0
 11
62.685326000000089
 21
54.220743999997119
 31
0.0
  0
LINE
  5
1420
  8
0
 10
62.636584000000077
 20
53.663617999997143
 30
0.0
 11
62.785003000000088
 21
55.360054999997139
 31
0.0
  0
LINE
  5
1421
  8
0
 10
62.339669709811041
 20
53.689595297404367
 30
0.0
 11
62.48808800000009
 21
55.386030999997161
 31
0.0
  0
ARC
  5
1422
  8
0
 10
61.604074000000097
 20
55.373042999997153
 30
0.0
 40
0.149024
 50
355.00000000000023
 51
175.0000000000002
  0
ARC
  5
1423
  8
0
 10
61.455655000000078
 20
53.676606999997141
 30
0.0
 40
0.149024
 50
175.0000000000002
 51
355.00000000000023
  0
LINE
  5
1424
  8
0
 10
62.439346000000093
 20
54.828905999997147
 30
0.0
 11
61.577964000000087
 21
53.591466999997117
 31
0.0
  0
LINE
  5
1425
  8
0
 10
62.514236000000089
 20
55.458182999997121
 30
0.0
 11
61.65285400000009
 21
54.220743999997119
 31
0.0
  0
LINE
  5
1426
  8
0
 10
61.604112000000093
 20
53.663617999997143
 30
0.0
 11
61.75253100000009
 21
55.360054999997139
 31
0.0
  0
LINE
  5
1427
  8
0
 10
61.307197709811028
 20
53.689595297404367
 30
0.0
 11
61.45561600000007
 21
55.386030999997161
 31
0.0
  0
ARC
  5
1428
  8
0
 10
60.571602000000091
 20
55.373042999997153
 30
0.0
 40
0.149024
 50
355.00000000000023
 51
175.0000000000002
  0
ARC
  5
1429
  8
0
 10
60.423183000000087
 20
53.676606999997141
 30
0.0
 40
0.149024
 50
175.0000000000002
 51
355.00000000000023
  0
LINE
  5
142A
  8
0
 10
61.40687400000008
 20
54.828905999997147
 30
0.0
 11
60.545492000000081
 21
53.591466999997117
 31
0.0
  0
LINE
  5
142B
  8
0
 10
61.481765000000088
 20
55.458182999997121
 30
0.0
 11
60.620383000000089
 21
54.220743999997119
 31
0.0
  0
LINE
  5
142C
  8
0
 10
60.571640000000087
 20
53.663617999997143
 30
0.0
 11
60.720059000000091
 21
55.360054999997139
 31
0.0
  0
LINE
  5
142D
  8
0
 10
60.27472572489296
 20
53.689595297404367
 30
0.0
 11
60.42314500000009
 21
55.386030999997161
 31
0.0
  0
ARC
  5
142E
  8
0
 10
59.539130000000078
 20
55.373042999997153
 30
0.0
 40
0.149024
 50
355.00000000000023
 51
175.0000000000002
  0
ARC
  5
142F
  8
0
 10
59.390711000000103
 20
53.676606999997141
 30
0.0
 40
0.149024
 50
175.0000000000002
 51
355.00000000000023
  0
LINE
  5
1430
  8
0
 10
60.374402000000089
 20
54.828905999997147
 30
0.0
 11
59.513020000000083
 21
53.591466999997117
 31
0.0
  0
LINE
  5
1431
  8
0
 10
60.449293000000083
 20
55.458182999997121
 30
0.0
 11
59.587911000000091
 21
54.220743999997119
 31
0.0
  0
LINE
  5
1432
  8
0
 10
59.539169000000093
 20
53.663617999997143
 30
0.0
 11
59.68758800000009
 21
55.360054999997139
 31
0.0
  0
LINE
  5
1433
  8
0
 10
59.242253724892947
 20
53.689595297404367
 30
0.0
 11
59.390673000000092
 21
55.386030999997161
 31
0.0
  0
ARC
  5
1434
  8
0
 10
58.50665800000008
 20
55.373042999997153
 30
0.0
 40
0.149024
 50
355.00000000000023
 51
175.0000000000002
  0
ARC
  5
1435
  8
0
 10
58.358239000000097
 20
53.676606999997141
 30
0.0
 40
0.149024
 50
175.0000000000002
 51
355.00000000000023
  0
LINE
  5
1436
  8
0
 10
59.341931000000081
 20
54.828905999997147
 30
0.0
 11
58.480549000000089
 21
53.591466999997117
 31
0.0
  0
LINE
  5
1437
  8
0
 10
59.416821000000077
 20
55.458182999997121
 30
0.0
 11
58.555439000000092
 21
54.220743999997119
 31
0.0
  0
LINE
  5
1438
  8
0
 10
58.506697000000081
 20
53.663617999997143
 30
0.0
 11
58.655116000000078
 21
55.360054999997139
 31
0.0
  0
LINE
  5
1439
  8
0
 10
58.209781724892949
 20
53.689595297404367
 30
0.0
 11
58.358201000000101
 21
55.386030999997161
 31
0.0
  0
LINE
  5
143A
  8
0
 10
77.48538671208253
 20
57.852011999997153
 30
0.0
 11
78.663949000000088
 21
57.85201199999716
 31
0.0
  0
LINE
  5
143B
  8
0
 10
77.331052115894494
 20
57.216600855779191
 30
0.0
 11
78.726725000000087
 21
57.864842999997173
 31
0.0
  0
LINE
  5
143C
  8
0
 10
77.444771116511561
 20
57.598047554185158
 30
0.0
 11
77.991559000000095
 21
57.85201199999716
 31
0.0
  0
LINE
  5
143D
  8
0
 10
76.829857118581373
 20
56.27623286916586
 30
0.0
 11
78.463676000000092
 21
56.474329999997138
 31
0.0
  0
LINE
  5
143E
  8
0
 10
76.981102600765766
 20
56.594802441103823
 30
0.0
 11
77.760527000000096
 21
56.689305999997153
 31
0.0
  0
LINE
  5
143F
  8
0
 10
76.168740000000085
 20
55.549635999997122
 30
0.0
 11
77.78380900000009
 21
55.233159999997163
 31
0.0
  0
LINE
  5
1440
  8
0
 10
76.088833459199904
 20
55.869011499648359
 30
0.0
 11
77.181506000000084
 21
55.654899999997163
 31
0.0
  0
LINE
  5
1441
  8
0
 10
75.437295000000091
 20
55.108572999997129
 30
0.0
 11
76.745544000000081
 21
54.26769599999713
 31
0.0
  0
LINE
  5
1442
  8
0
 10
75.29178500000009
 20
55.556403999997137
 30
0.0
 11
76.241462000000084
 21
54.945999999997127
 31
0.0
  0
LINE
  5
1443
  8
0
 10
74.525720000000092
 20
54.936032999997138
 30
0.0
 11
75.581648000000087
 21
53.743198999997126
 31
0.0
  0
LINE
  5
1444
  8
0
 10
74.482065000000091
 20
55.43500899999713
 30
0.0
 11
75.331982000000082
 21
54.474895999997131
 31
0.0
  0
LINE
  5
1445
  8
0
 10
73.502620000000093
 20
54.828905999997147
 30
0.0
 11
74.364002000000099
 21
53.591466999997117
 31
0.0
  0
LINE
  5
1446
  8
0
 10
73.427730000000082
 20
55.458182999997121
 30
0.0
 11
74.289112000000074
 21
54.220743999997119
 31
0.0
  0
ARC
  5
1448
  8
0
 10
73.453840000000085
 20
53.676606999997141
 30
0.0
 40
0.149024
 50
184.9999999999998
 51
4.9999999999997931
  0
ARC
  5
1449
  8
0
 10
74.486311000000086
 20
53.676606999997141
 30
0.0
 40
0.149024
 50
184.9999999999998
 51
4.9999999999997931
  0
ARC
  5
144A
  8
0
 10
75.693233000000092
 20
53.841976999997136
 30
0.0
 40
0.147988
 50
198.0000000000006
 51
18.00000000000059
  0
LINE
  5
144B
  8
0
 10
75.266702603767413
 20
55.633603144187347
 30
0.0
 11
75.833978000000101
 21
53.887707999997133
 31
0.0
  0
LINE
  5
144C
  8
0
 10
74.960140623111073
 20
55.619305999997152
 30
0.0
 11
75.552489000000094
 21
53.796245999997147
 31
0.0
  0
ARC
  5
144D
  8
0
 10
76.826121000000086
 20
54.393057999997147
 30
0.0
 40
0.147988
 50
215.99999999999929
 51
35.999999999999282
  0
LINE
  5
144E
  8
0
 10
75.974393323634018
 20
55.817131796304587
 30
0.0
 11
76.945845000000091
 21
54.480042999997153
 31
0.0
  0
LINE
  5
144F
  8
0
 10
75.683098962611965
 20
55.714521374884797
 30
0.0
 11
76.706396000000083
 21
54.306072999997127
 31
0.0
  0
ARC
  5
1450
  8
0
 10
77.812466000000086
 20
55.379402999997119
 30
0.0
 40
0.147988
 50
234.00000000000051
 51
54.000000000000519
  0
LINE
  5
1451
  8
0
 10
76.750015281758721
 20
56.334241316330818
 30
0.0
 11
77.899451000000099
 21
55.499127999997143
 31
0.0
  0
LINE
  5
1452
  8
0
 10
76.520557568487476
 20
56.135107429983812
 30
0.0
 11
77.725481000000073
 21
55.25967899999717
 31
0.0
  0
ARC
  5
1453
  8
0
 10
78.445738000000091
 20
56.622270999997141
 30
0.0
 40
0.147988
 50
252.0
 51
72.0
  0
LINE
  5
1454
  8
0
 10
77.303711727896626
 20
57.148940968771811
 30
0.0
 11
78.49146900000008
 21
56.763014999997147
 31
0.0
  0
LINE
  5
1455
  8
0
 10
77.171343901431044
 20
56.880743687886302
 30
0.0
 11
78.400008000000085
 21
56.481525999997132
 31
0.0
  0
LINE
  5
1456
  8
0
 10
77.48538671208253
 20
57.852011999997153
 30
0.0
 11
78.663949000000088
 21
57.85201199999716
 31
0.0
  0
ARC
  5
1457
  8
0
 10
78.663949000000088
 20
57.999999999997158
 30
0.0
 40
0.147988
 50
270.0
 51
90.0
  0
LINE
  5
1458
  8
0
 10
74.634769280526243
 20
53.689595297404367
 30
0.0
 11
74.465941437356264
 21
55.619305999997152
 31
0.0
  0
LINE
  5
1459
  8
0
 10
74.337854000000078
 20
53.663617999997143
 30
0.0
 11
74.166753437356277
 21
55.619305999997152
 31
0.0
  0
LINE
  5
145A
  8
0
 10
73.602297275107219
 20
53.689595297404367
 30
0.0
 11
73.453878000000088
 21
55.386030999997161
 31
0.0
  0
LINE
  5
145B
  8
0
 10
73.30538200000008
 20
53.663617999997143
 30
0.0
 11
73.15696300000009
 21
55.360054999997139
 31
0.0
  0
ARC
  5
145C
  8
0
 10
73.305421000000081
 20
55.373042999997153
 30
0.0
 40
0.149024
 50
4.9999999999997931
 51
184.9999999999998
  0
ARC
  5
145D
  8
0
 10
54.3354840000001
 20
57.999999999997158
 30
0.0
 40
0.147988
 50
90.0
 51
270.0
  0
LINE
  5
145E
  8
0
 10
55.514614287917652
 20
57.852011999997153
 30
0.0
 11
54.3354840000001
 21
57.85201199999716
 31
0.0
  0
LINE
  5
145F
  8
0
 10
55.828568302550387
 20
56.880899390901988
 30
0.0
 11
54.599425000000103
 21
56.481525999997132
 31
0.0
  0
LINE
  5
1460
  8
0
 10
55.706087000000089
 20
57.152308999997132
 30
0.0
 11
54.507964000000079
 21
56.763014999997147
 31
0.0
  0
ARC
  5
1461
  8
0
 10
54.55369500000009
 20
56.622270999997141
 30
0.0
 40
0.147988
 50
108.0
 51
288.0
  0
LINE
  5
1462
  8
0
 10
56.479167527298713
 20
56.135318934395031
 30
0.0
 11
55.273952000000087
 21
55.25967899999717
 31
0.0
  0
LINE
  5
1463
  8
0
 10
56.249743991318233
 20
56.334478367421923
 30
0.0
 11
55.099982000000082
 21
55.499127999997143
 31
0.0
  0
ARC
  5
1464
  8
0
 10
55.186967000000081
 20
55.379402999997119
 30
0.0
 40
0.147988
 50
125.9999999999994
 51
305.99999999999949
  0
LINE
  5
1465
  8
0
 10
57.316431270774579
 20
55.71465520523904
 30
0.0
 11
56.293037000000098
 21
54.306072999997127
 31
0.0
  0
LINE
  5
1466
  8
0
 10
57.025173318872952
 20
55.817315739472193
 30
0.0
 11
56.05358800000009
 21
54.480042999997153
 31
0.0
  0
ARC
  5
1467
  8
0
 10
56.173312000000088
 20
54.393057999997147
 30
0.0
 40
0.147988
 50
144.00000000000051
 51
324.00000000000068
  0
LINE
  5
1468
  8
0
 10
57.73275052139364
 20
55.633662051676168
 30
0.0
 11
57.16545500000008
 21
53.887707999997133
 31
0.0
  0
ARC
  5
1469
  8
0
 10
57.306200000000082
 20
53.841976999997136
 30
0.0
 40
0.147988
 50
161.9999999999994
 51
341.99999999999937
  0
LINE
  5
146A
  8
0
 10
57.707648000000091
 20
55.556403999997137
 30
0.0
 11
56.757971000000083
 21
54.945999999997127
 31
0.0
  0
LINE
  5
146B
  8
0
 10
57.56213800000009
 20
55.108572999997129
 30
0.0
 11
56.253889000000079
 21
54.26769599999713
 31
0.0
  0
LINE
  5
146C
  8
0
 10
56.911003859638321
 20
55.869090726781387
 30
0.0
 11
55.817927000000097
 21
55.654899999997163
 31
0.0
  0
LINE
  5
146D
  8
0
 10
56.830693000000082
 20
55.549635999997122
 30
0.0
 11
55.215624000000091
 21
55.233159999997163
 31
0.0
  0
LINE
  5
146E
  8
0
 10
56.018956842218131
 20
56.594726486217809
 30
0.0
 11
55.238906000000078
 21
56.689305999997153
 31
0.0
  0
LINE
  5
146F
  8
0
 10
56.169575881418822
 20
56.276232869165852
 30
0.0
 11
54.535757000000082
 21
56.474329999997138
 31
0.0
  0
LINE
  5
1470
  8
0
 10
55.555292211605114
 20
57.597755278896052
 30
0.0
 11
55.007874000000079
 21
57.85201199999716
 31
0.0
  0
LINE
  5
1471
  8
0
 10
55.681768000000091
 20
57.210382999997137
 30
0.0
 11
54.272708000000087
 21
57.864842999997173
 31
0.0
  0
LINE
  5
1472
  8
0
 10
55.514614287917652
 20
57.852011999997153
 30
0.0
 11
54.3354840000001
 21
57.85201199999716
 31
0.0
  0
ARC
  5
1473
  8
0
 10
54.3354840000001
 20
57.999999999997158
 30
0.0
 40
0.147988
 50
90.0
 51
270.0
  0
ARC
  5
1474
  8
0
 10
54.3354840000001
 20
57.999999999997158
 30
0.0
 40
0.147988
 50
90.0
 51
270.0
  0
LINE
  5
1475
  8
0
 10
55.499717000000089
 20
58.147987999997149
 30
0.0
 11
54.3354840000001
 21
58.147987999997149
 31
0.0
  0
LINE
  5
1476
  8
0
 10
55.579051598094722
 20
58.741908325694332
 30
0.0
 11
54.272708000000087
 21
58.13515699999715
 31
0.0
  0
LINE
  5
1477
  8
0
 10
55.514248963060872
 20
58.383180582158111
 30
0.0
 11
55.007874000000079
 21
58.147987999997149
 31
0.0
  0
LINE
  5
1478
  8
0
 10
56.07336937554237
 20
59.712102292700948
 30
0.0
 11
54.535757000000082
 21
59.525669999997149
 31
0.0
  0
LINE
  5
1479
  8
0
 10
55.843791137067242
 20
59.38403463971386
 30
0.0
 11
55.238906000000078
 21
59.310693999997142
 31
0.0
  0
LINE
  5
147A
  8
0
 10
56.830693000000082
 20
60.450362999997139
 30
0.0
 11
55.215624000000091
 21
60.766839999997153
 31
0.0
  0
LINE
  5
147B
  8
0
 10
56.60172770081175
 20
60.19151262048667
 30
0.0
 11
55.817927000000097
 21
60.34509999999716
 31
0.0
  0
LINE
  5
147C
  8
0
 10
57.56213800000009
 20
60.891426999997122
 30
0.0
 11
56.253889000000079
 21
61.732303999997157
 31
0.0
  0
LINE
  5
147D
  8
0
 10
57.509850986662272
 20
60.57072914980796
 30
0.0
 11
56.757971000000083
 21
61.053999999997131
 31
0.0
  0
ARC
  5
147E
  8
0
 10
57.306200000000082
 20
62.158022999997137
 30
0.0
 40
0.147988
 50
18.00000000000059
 51
198.0000000000006
  0
LINE
  5
147F
  8
0
 10
57.658196204939522
 20
60.595790593220087
 30
0.0
 11
57.16545500000008
 21
62.112291999997133
 31
0.0
  0
LINE
  5
1480
  8
0
 10
57.961858937087968
 20
60.61901068546306
 30
0.0
 11
57.446944000000087
 21
62.203752999997157
 31
0.0
  0
ARC
  5
1481
  8
0
 10
56.173312000000088
 20
61.606940999997157
 30
0.0
 40
0.147988
 50
35.999999999999282
 51
215.99999999999929
  0
LINE
  5
1482
  8
0
 10
56.895079090320408
 20
60.361742645171311
 30
0.0
 11
56.05358800000009
 21
61.519956999997127
 31
0.0
  0
LINE
  5
1483
  8
0
 10
57.175492511270392
 20
60.479331211752111
 30
0.0
 11
56.293037000000098
 21
61.693925999997141
 31
0.0
  0
ARC
  5
1484
  8
0
 10
55.186967000000081
 20
60.620595999997128
 30
0.0
 40
0.147988
 50
54.000000000000519
 51
234.00000000000051
  0
LINE
  5
1485
  8
0
 10
56.116201734196487
 20
59.762544879674842
 30
0.0
 11
55.099982000000082
 21
60.500871999997152
 31
0.0
  0
LINE
  5
1486
  8
0
 10
56.326066815868103
 20
59.975914957305392
 30
0.0
 11
55.273952000000087
 21
60.740320999997152
 31
0.0
  0
ARC
  5
1487
  8
0
 10
54.55369500000009
 20
59.377728999997139
 30
0.0
 40
0.147988
 50
72.0
 51
252.0
  0
LINE
  5
1488
  8
0
 10
55.61768334780254
 20
58.87641506225161
 30
0.0
 11
54.507964000000079
 21
59.236983999997143
 31
0.0
  0
LINE
  5
1489
  8
0
 10
55.724029006325971
 20
59.153067676484348
 30
0.0
 11
54.599425000000103
 21
59.518473999997127
 31
0.0
  0
LINE
  5
148A
  8
0
 10
55.499717000000089
 20
58.147987999997149
 30
0.0
 11
54.3354840000001
 21
58.147987999997149
 31
0.0
  0
ARC
  5
148B
  8
0
 10
54.3354840000001
 20
57.999999999997158
 30
0.0
 40
0.147988
 50
90.0
 51
270.0
  0
LINE
  5
148C
  8
0
 10
58.039292376889108
 20
55.619305999997152
 30
0.0
 11
57.446944000000087
 21
53.796245999997147
 31
0.0
  0
LINE
  5
148D
  8
0
 10
57.691287000000088
 20
54.548255999997139
 30
0.0
 11
58.358201000000101
 21
55.386030999997161
 31
0.0
  0
LINE
  5
148E
  8
0
 10
57.446944000000087
 20
53.796245999997147
 30
0.0
 11
58.317721000000091
 21
54.923344999997141
 31
0.0
  0
LINE
  5
148F
  8
0
 10
57.446944000000087
 20
62.203752999997157
 30
0.0
 11
58.317721000000091
 21
61.076654999997153
 31
0.0
  0
LINE
  5
1490
  8
0
 10
57.689737000000093
 20
61.456514999997118
 30
0.0
 11
58.359069664424872
 21
60.619305999997152
 31
0.0
  0
LINE
  5
1492
  8
0
 10
72.800000000000097
 20
60.91558199999713
 30
0.0
 11
72.800000000000097
 21
61.12325899999712
 31
0.0
  0
LINE
  5
1493
  8
0
 10
72.800000000000097
 20
54.876740999997139
 30
0.0
 11
72.800000000000097
 21
55.084417999997129
 31
0.0
  0
ARC
  5
149C
  8
0
 10
140.12417805429769
 20
61.116421067177917
 30
0.0
 40
7.588838
 50
257.87361498230501
 51
282.12638298230581
  0
ARC
  5
149D
  8
0
 10
140.12417806734359
 20
61.85089706717789
 30
0.0
 40
7.588838
 50
257.87361498230501
 51
282.12638298230581
  0
ARC
  5
149E
  8
0
 10
140.12417808286219
 20
62.724586067177903
 30
0.0
 40
7.588838
 50
257.87361498230501
 51
282.12638298230581
  0
ARC
  5
149F
  8
0
 10
140.12417809744289
 20
63.545471067177921
 30
0.0
 40
7.588838
 50
257.87361498230501
 51
282.12638298230581
  0
ARC
  5
14A0
  8
0
 10
140.12417811262031
 20
64.39995806717792
 30
0.0
 40
7.588838
 50
257.87361498230501
 51
282.12638298230581
  0
ARC
  5
14A1
  8
0
 10
140.12417812160641
 20
64.905870067177915
 30
0.0
 40
7.588838
 50
257.87361498230501
 51
282.12638298230581
  0
ARC
  5
14A2
  8
0
 10
140.12417813072969
 20
65.419505067177909
 30
0.0
 40
7.588838
 50
257.87361498230501
 51
282.12638298230581
  0
ARC
  5
14A3
  8
0
 10
115.07582213072961
 20
65.419505512089899
 30
0.0
 40
7.588838
 50
257.87361498230501
 51
282.12638298230581
  0
ARC
  5
14A4
  8
0
 10
115.07582212160639
 20
64.905870512089905
 30
0.0
 40
7.588838
 50
257.87361498230501
 51
282.12638298230581
  0
ARC
  5
14A5
  8
0
 10
115.0758221126203
 20
64.399958512089896
 30
0.0
 40
7.588838
 50
257.87361498230501
 51
282.12638298230581
  0
ARC
  5
14A6
  8
0
 10
115.0758220974428
 20
63.545471512089897
 30
0.0
 40
7.588838
 50
257.87361498230501
 51
282.12638298230581
  0
ARC
  5
14A7
  8
0
 10
115.0758220828622
 20
62.7245865120899
 30
0.0
 40
7.588838
 50
257.87361498230501
 51
282.12638298230581
  0
ARC
  5
14A8
  8
0
 10
115.07582206734359
 20
61.85089751208988
 30
0.0
 40
7.588838
 50
257.87361498230501
 51
282.12638298230581
  0
ARC
  5
14A9
  8
0
 10
115.0758220542977
 20
61.116421512089907
 30
0.0
 40
7.588838
 50
257.87361498230501
 51
282.12638298230581
  0
ENDSEC
  0
EOF
