  0
SECTION
  2
HEADER
  9
$ACADVER
  1
AC1009
  9
$INSBASE
 10
0.0
 20
0.0
 30
0.0
  9
$EXTMIN
 10
0.0
 20
-1.4802182810368341
 30
0.0
  9
$EXTMAX
 10
69.223496161107505
 20
42.674346491004819
 30
0.0
  9
$LIMMIN
 10
0.0
 20
0.0
  9
$LIMMAX
 10
270.0
 20
175.0
  9
$ORTHOMODE
 70
     0
  9
$REGENMODE
 70
     1
  9
$FILLMODE
 70
     1
  9
$QTEXTMODE
 70
     0
  9
$MIRRTEXT
 70
     0
  9
$DRAGMODE
 70
     2
  9
$LTSCALE
 40
10.0
  9
$OSMODE
 70
  3071
  9
$ATTMODE
 70
     1
  9
$TEXTSIZE
 40
0.2
  9
$TRACEWID
 40
0.05
  9
$TEXTSTYLE
  7
STANDARD
  9
$CLAYER
  8
3
  9
$CELTYPE
  6
BYLAYER
  9
$CECOLOR
 62
   256
  9
$DIMSCALE
 40
1.0
  9
$DIMASZ
 40
3.0
  9
$DIMEXO
 40
2.0
  9
$DIMDLI
 40
0.38
  9
$DIMRND
 40
0.0
  9
$DIMDLE
 40
0.0
  9
$DIMEXE
 40
2.0
  9
$DIMTP
 40
0.0
  9
$DIMTM
 40
0.0
  9
$DIMTXT
 40
3.2000000000000002
  9
$DIMCEN
 40
0.0
  9
$DIMTSZ
 40
0.0
  9
$DIMTOL
 70
     0
  9
$DIMLIM
 70
     0
  9
$DIMTIH
 70
     0
  9
$DIMTOH
 70
     0
  9
$DIMSE1
 70
     0
  9
$DIMSE2
 70
     0
  9
$DIMTAD
 70
     1
  9
$DIMZIN
 70
     0
  9
$DIMBLK
  1

  9
$DIMASO
 70
     0
  9
$DIMSHO
 70
     0
  9
$DIMPOST
  1

  9
$DIMAPOST
  1

  9
$DIMALT
 70
     0
  9
$DIMALTD
 70
     2
  9
$DIMALTF
 40
25.399999999999999
  9
$DIMLFAC
 40
1.0
  9
$DIMTOFL
 70
     1
  9
$DIMTVP
 40
1.6000000000000001
  9
$DIMTIX
 70
     1
  9
$DIMSOXD
 70
     0
  9
$DIMSAH
 70
     0
  9
$DIMBLK1
  1

  9
$DIMBLK2
  1

  9
$DIMSTYLE
  2
STANDARD
  9
$DIMCLRD
 70
     0
  9
$DIMCLRE
 70
     0
  9
$DIMCLRT
 70
     0
  9
$DIMTFAC
 40
1.0
  9
$DIMGAP
 40
0.09
  9
$LUNITS
 70
     2
  9
$LUPREC
 70
     4
  9
$SKETCHINC
 40
0.1
  9
$FILLETRAD
 40
0.0
  9
$AUNITS
 70
     1
  9
$AUPREC
 70
     4
  9
$MENU
  1
E:\r13\win\SUPPORT\ACAD
  9
$ELEVATION
 40
0.0
  9
$PELEVATION
 40
0.0
  9
$THICKNESS
 40
0.0
  9
$LIMCHECK
 70
     0
  9
$BLIPMODE
 70
     0
  9
$CHAMFERA
 40
0.0
  9
$CHAMFERB
 40
0.0
  9
$SKPOLY
 70
     0
  9
$TDCREATE
 40
2449839.7803587969
  9
$TDUPDATE
 40
2456598.4287688201
  9
$TDINDWG
 40
0.02165375
  9
$TDUSRTIMER
 40
0.02165375
  9
$USRTIMER
 70
     1
  9
$ANGBASE
 50
0.0
  9
$ANGDIR
 70
     0
  9
$PDMODE
 70
     0
  9
$PDSIZE
 40
0.0
  9
$PLINEWID
 40
0.0
  9
$COORDS
 70
     1
  9
$SPLFRAME
 70
     0
  9
$SPLINETYPE
 70
     6
  9
$SPLINESEGS
 70
     8
  9
$ATTDIA
 70
     0
  9
$ATTREQ
 70
     1
  9
$HANDLING
 70
     1
  9
$HANDSEED
  5
625
  9
$SURFTAB1
 70
     6
  9
$SURFTAB2
 70
     6
  9
$SURFTYPE
 70
     6
  9
$SURFU
 70
     6
  9
$SURFV
 70
     6
  9
$UCSNAME
  2

  9
$UCSORG
 10
0.0
 20
0.0
 30
0.0
  9
$UCSXDIR
 10
1.0
 20
0.0
 30
0.0
  9
$UCSYDIR
 10
0.0
 20
1.0
 30
0.0
  9
$PUCSNAME
  2

  9
$PUCSORG
 10
0.0
 20
0.0
 30
0.0
  9
$PUCSXDIR
 10
1.0
 20
0.0
 30
0.0
  9
$PUCSYDIR
 10
0.0
 20
1.0
 30
0.0
  9
$USERI1
 70
     0
  9
$USERI2
 70
     1
  9
$USERI3
 70
     0
  9
$USERI4
 70
     0
  9
$USERI5
 70
     0
  9
$USERR1
 40
0.0
  9
$USERR2
 40
0.0
  9
$USERR3
 40
0.0
  9
$USERR4
 40
0.0
  9
$USERR5
 40
0.0
  9
$WORLDVIEW
 70
     1
  9
$SHADEDGE
 70
     3
  9
$SHADEDIF
 70
    70
  9
$TILEMODE
 70
     1
  9
$MAXACTVP
 70
    16
  9
$PLIMCHECK
 70
     0
  9
$PEXTMIN
 10
1.0000000000000000E+020
 20
1.0000000000000000E+020
 30
1.0000000000000000E+020
  9
$PEXTMAX
 10
-1.0000000000000000E+020
 20
-1.0000000000000000E+020
 30
-1.0000000000000000E+020
  9
$PLIMMIN
 10
0.0
 20
0.0
  9
$PLIMMAX
 10
12.0
 20
9.0
  9
$UNITMODE
 70
     0
  9
$VISRETAIN
 70
     0
  9
$PLINEGEN
 70
     0
  9
$PSLTSCALE
 70
     0
  0
ENDSEC
  0
SECTION
  2
TABLES
  0
TABLE
  2
VPORT
 70
     1
  0
VPORT
  2
*ACTIVE
 70
     0
 10
0.0
 20
0.0
 11
1.0
 21
1.0
 12
139.88615432881801
 22
86.756324970927466
 13
0.0
 23
0.0
 14
10.0
 24
10.0
 15
10.0
 25
10.0
 16
0.0
 26
0.0
 36
1.0
 17
0.0
 27
0.0
 37
0.0
 40
178.07019624700729
 41
1.831871345029239
 42
50.0
 43
0.0
 44
0.0
 50
0.0
 51
0.0
 71
     0
 72
   500
 73
     1
 74
     0
 75
     0
 76
     0
 77
     0
 78
     2
  0
ENDTAB
  0
TABLE
  2
LTYPE
 70
     4
  0
LTYPE
  2
CONTINUOUS
 70
     0
  3
Solid Line
 72
    65
 73
     0
 40
0.0
  0
LTYPE
  2
CENTER
 70
     0
  3
____ _ ____ _ ____ _ ____ _ ____ _ ____ _ ____
 72
    65
 73
     4
 40
2.0
 49
1.25
 49
-0.25
 49
0.25
 49
-0.25
  0
LTYPE
  2
HIDDEN
 70
     0
  3
__ __ __ __ __ __ __ __ __ __ __ __ __ __ __ __
 72
    65
 73
     2
 40
0.375
 49
0.25
 49
-0.125
  0
LTYPE
  2
PHANTOM2
 70
     0
  3
___ _ _ ___ _ _ ___ _ _ ___ _ _
 72
    65
 73
     6
 40
1.25
 49
0.625
 49
-0.125
 49
0.125
 49
-0.125
 49
0.125
 49
-0.125
  0
ENDTAB
  0
TABLE
  2
LAYER
 70
     5
  0
LAYER
  2
0
 70
     0
 62
     7
  6
CONTINUOUS
  0
LAYER
  2
1
 70
     0
 62
     1
  6
CENTER
  0
LAYER
  2
2
 70
     0
 62
     2
  6
HIDDEN
  0
LAYER
  2
3
 70
     0
 62
     3
  6
CONTINUOUS
  0
LAYER
  2
ITTEN
 70
     0
 62
     1
  6
CENTER
  0
ENDTAB
  0
TABLE
  2
STYLE
 70
     2
  0
STYLE
  2
STANDARD
 70
     0
 40
0.0
 41
1.0
 50
0.0
 71
     0
 42
0.2
  3
TXT
  4
BIGFONT
  0
STYLE
  2
STANDARD1
 70
     0
 40
0.0
 41
1.0
 50
0.0
 71
     0
 42
3.0
  3
txt
  4

  0
ENDTAB
  0
TABLE
  2
VIEW
 70
     1
  0
VIEW
  2
ALL
 70
     0
 40
179.5384664489153
 10
135.0
 20
89.769233224457665
 41
0.0
 11
0.0
 21
0.0
 31
1.0
 12
0.0
 22
0.0
 32
0.0
 42
0.0
 43
0.0
 44
0.0
 50
0.0
 71
     0
  0
ENDTAB
  0
TABLE
  2
UCS
 70
     0
  0
ENDTAB
  0
TABLE
  2
APPID
 70
     5
  0
APPID
  2
ACAD
 70
     0
  0
APPID
  2
GENIUS_GENODEF_13
 70
     0
  0
APPID
  2
GENIUS_GENOBJ-N-FIL_13
 70
     0
  0
APPID
  2
ACAD_MLEADERVER
 70
     0
  0
APPID
  2
ACAD_NAV_VCDISPLAY
 70
     0
  0
ENDTAB
  0
TABLE
  2
DIMSTYLE
 70
     1
  0
DIMSTYLE
  2
STANDARD
 70
     0
  3

  4

  5

  6

  7

 40
1.0
 41
0.18
 42
0.0625
 43
0.38
 44
0.18
 45
0.0
 46
0.0
 47
0.0
 48
0.0
140
0.18
141
0.09
142
0.0
143
25.399999999999999
144
1.0
145
0.0
146
1.0
147
0.09
 71
     0
 72
     0
 73
     1
 74
     1
 75
     0
 76
     0
 77
     0
 78
     0
170
     0
171
     2
172
     0
173
     0
174
     0
175
     0
176
     0
177
     0
178
     0
  0
ENDTAB
  0
ENDSEC
  0
SECTION
  2
BLOCKS
  0
BLOCK
  8
0
  2
$MODEL_SPACE
 70
     0
 10
0.0
 20
0.0
 30
0.0
  3
$MODEL_SPACE
  1

  0
ENDBLK
  5
4D7
  8
0
  0
BLOCK
 67
     1
  8
0
  2
$PAPER_SPACE
 70
     0
 10
0.0
 20
0.0
 30
0.0
  3
$PAPER_SPACE
  1

  0
ENDBLK
  5
4D5
 67
     1
  8
0
  0
BLOCK
  8
0
  2
BATU
 70
     0
 10
0.0
 20
0.0
 30
0.0
  3
BATU
  1

  0
LINE
  5
310
  8
ITTEN
 10
0.5
 20
0.0
 30
0.0
 11
-0.5
 21
0.0
 31
0.0
  0
LINE
  5
311
  8
ITTEN
 10
0.0
 20
0.5
 30
0.0
 11
0.0
 21
-0.5
 31
0.0
  0
ENDBLK
  5
313
  8
0
  0
ENDSEC
  0
SECTION
  2
ENTITIES
  0
INSERT
  5
406
  8
0
  2
BATU
 10
62.223496161107512
 20
35.674346491004833
 30
0.0
 41
0.001
 42
0.001
 43
0.001
 50
270.0
  0
LINE
  5
41B
  8
0
 10
31.451399487624428
 20
35.674346491004833
 30
0.0
 11
41.082241487624451
 21
35.674346491004833
 31
0.0
  0
CIRCLE
  5
42E
  8
0
 10
62.223496161107512
 20
35.674346491004833
 30
0.0
 40
1.2293670000000001
  0
CIRCLE
  5
42F
  8
3
 10
62.223496161107512
 20
35.674346491004833
 30
0.0
 40
1.5
  0
LINE
  5
430
  8
2
 10
41.22189948762442
 20
37.174346491004833
 30
0.0
 11
35.451399487624442
 21
37.174346491004833
 31
0.0
  0
LINE
  5
431
  8
2
 10
41.22189948762442
 20
34.174346491004833
 30
0.0
 11
35.451399487624442
 21
34.174346491004833
 31
0.0
  0
LINE
  5
432
  8
2
 10
40.951399487624428
 20
34.444846491004832
 30
0.0
 11
33.951399487624442
 21
34.444846491004832
 31
0.0
  0
LINE
  5
433
  8
2
 10
40.951399487624428
 20
36.903846491004821
 30
0.0
 11
33.951399487624442
 21
36.903846491004828
 31
0.0
  0
LINE
  5
434
  8
2
 10
35.451399487624442
 20
34.174346491004833
 30
0.0
 11
35.451399487624442
 21
37.174346491004819
 31
0.0
  0
LINE
  5
435
  8
2
 10
33.951399487624442
 20
36.903846491004828
 30
0.0
 11
33.241547331655802
 21
35.674346491004833
 31
0.0
  0
LINE
  5
436
  8
2
 10
33.951399487624442
 20
34.444846491004832
 30
0.0
 11
33.951399487624407
 21
36.903846491004828
 31
0.0
  0
LINE
  5
437
  8
2
 10
33.951399487624442
 20
34.444846491004832
 30
0.0
 11
33.241547331655802
 21
35.674346491004833
 31
0.0
  0
INSERT
  5
438
  8
2
  2
BATU
 10
32.951399487624428
 20
35.674346491004833
 30
0.0
 41
0.001
 42
0.001
 43
0.001
 50
270.0
  0
LINE
  5
439
  8
2
 10
35.451399487624442
 20
34.174346491004833
 30
0.0
 11
34.982879744177062
 21
34.444846491004832
 31
0.0
  0
LINE
  5
43A
  8
2
 10
35.451399487624442
 20
37.174346491004833
 30
0.0
 11
34.982879744177062
 21
36.903846491004828
 31
0.0
  0
LINE
  5
43B
  8
2
 10
40.951399487624428
 20
34.444846491004832
 30
0.0
 11
40.951399487624428
 21
36.903846491004828
 31
0.0
  0
LINE
  5
43D
  8
2
 10
40.951399487624428
 20
34.444846491004832
 30
0.0
 11
41.451399487624428
 21
33.944846491004832
 31
0.0
  0
LINE
  5
43E
  8
2
 10
40.951399487624428
 20
36.903846491004821
 30
0.0
 11
41.451399487624428
 21
37.403846491004821
 31
0.0
  0
LINE
  5
470
  8
1
 10
62.223496161107512
 20
42.674346491004819
 30
0.0
 11
62.223496161107512
 21
28.67434649100483
 31
0.0
  0
CIRCLE
  5
471
  8
0
 10
62.223496161107512
 20
35.674346491004833
 30
0.0
 40
5.0
  0
LINE
  5
472
  8
0
 10
60.973496161107512
 20
40.515575491004817
 30
0.0
 11
58.178411161107533
 21
35.674346491004833
 31
0.0
  0
LINE
  5
473
  8
0
 10
63.473496161107512
 20
40.515575491004817
 30
0.0
 11
66.268581161107534
 21
35.674346491004833
 31
0.0
  0
LINE
  5
474
  8
1
 10
55.223496161107512
 20
35.674346491004833
 30
0.0
 11
69.223496161107505
 21
35.674346491004833
 31
0.0
  0
LINE
  5
476
  8
0
 10
60.973496161107512
 20
30.833117491004831
 30
0.0
 11
58.178411161107533
 21
35.674346491004833
 31
0.0
  0
LINE
  5
477
  8
0
 10
63.473496161107512
 20
30.833117491004831
 30
0.0
 11
66.268581161107534
 21
35.674346491004833
 31
0.0
  0
INSERT
  5
479
  8
0
  2
BATU
 10
62.223496161107512
 20
35.674346491004833
 30
0.0
 41
0.001
 42
0.001
 43
0.001
 50
270.0
  0
LINE
  5
47C
  8
1
 10
38.951399487624428
 20
42.674346491004819
 30
0.0
 11
38.951399487624428
 21
28.67434649100483
 31
0.0
  0
ARC
  5
47D
  8
0
 10
38.951399487624428
 20
38.174346491004833
 30
0.0
 40
2.5
 50
0.0
 51
145.187759
  0
ARC
  5
47E
  8
0
 10
38.951399487624428
 20
38.015575491004832
 30
0.0
 40
2.5
 50
0.0
 51
145.414627
  0
LINE
  5
47F
  8
3
 10
30.951399487624428
 20
40.674346491004833
 30
0.0
 11
30.951399487624428
 21
30.67434649100483
 31
0.0
  0
LINE
  5
480
  8
0
 10
18.451399487624428
 20
40.096996491004852
 30
0.0
 11
18.451399487624428
 21
31.25169649100485
 31
0.0
  0
LINE
  5
481
  8
0
 10
19.451399487624428
 20
40.674346491004833
 30
0.0
 11
19.451399487624428
 21
30.67434649100483
 31
0.0
  0
LINE
  5
482
  8
0
 10
31.451399487624428
 20
40.674346491004833
 30
0.0
 11
31.451399487624428
 21
30.67434649100483
 31
0.0
  0
LINE
  5
483
  8
0
 10
19.451399487624428
 20
40.674346491004833
 30
0.0
 11
31.201399487624428
 21
40.674346491004833
 31
0.0
  0
LINE
  5
484
  8
0
 10
31.201399487624428
 20
40.674346491004833
 30
0.0
 11
33.951399487624428
 21
40.674346491004833
 31
0.0
  0
LINE
  5
485
  8
0
 10
33.923403487624398
 20
40.515575491004817
 30
0.0
 11
31.451399487624428
 21
40.515575491004817
 31
0.0
  0
LINE
  5
486
  8
0
 10
33.951399487624428
 20
40.674346491004833
 30
0.0
 11
36.89883148762442
 21
39.601569491004852
 31
0.0
  0
LINE
  5
487
  8
0
 10
36.893196487624436
 20
39.434659491004822
 30
0.0
 11
33.923403487624398
 21
40.515575491004817
 31
0.0
  0
LINE
  5
488
  8
0
 10
33.923403487624398
 20
40.515575491004817
 30
0.0
 11
33.951399487624428
 21
40.674346491004833
 31
0.0
  0
LINE
  5
489
  8
0
 10
18.451399487624428
 20
40.096996491004852
 30
0.0
 11
19.451399487624428
 21
40.674346491004833
 31
0.0
  0
LINE
  5
48A
  8
1
 10
16.451399487624428
 20
35.67434649100484
 30
0.0
 11
43.451399487624428
 21
35.674346491004833
 31
0.0
  0
LINE
  5
48B
  8
0
 10
19.451399487624428
 20
30.67434649100483
 30
0.0
 11
31.201399487624428
 21
30.67434649100483
 31
0.0
  0
LINE
  5
48E
  8
0
 10
31.201399487624428
 20
30.67434649100483
 30
0.0
 11
33.951399487624428
 21
30.67434649100483
 31
0.0
  0
LINE
  5
48F
  8
0
 10
33.923403487624398
 20
30.833117491004831
 30
0.0
 11
31.451399487624428
 21
30.83311749100482
 31
0.0
  0
LINE
  5
490
  8
0
 10
35.451399487624442
 20
35.674346491004833
 30
0.0
 11
40.996323487624402
 21
35.674346491004833
 31
0.0
  0
ARC
  5
491
  8
0
 10
38.951399487624428
 20
33.174346491004833
 30
0.0
 40
2.5
 50
214.812241
 51
0.0
  0
ARC
  5
492
  8
0
 10
38.951399487624428
 20
33.333117491004828
 30
0.0
 40
2.5
 50
214.58537299999989
 51
0.0
  0
ARC
  5
493
  8
0
 10
35.201399487624428
 20
33.333117491004828
 30
0.0
 40
6.25
 50
0.0
 51
21.999387000000041
  0
LINE
  5
494
  8
0
 10
41.451399487624428
 20
38.174346491004833
 30
0.0
 11
41.451399487624428
 21
33.174346491004833
 31
0.0
  0
ARC
  5
495
  8
0
 10
35.201399487624428
 20
38.015575491004832
 30
0.0
 40
6.25
 50
338.00061299999999
 51
0.0
  0
LINE
  5
496
  8
0
 10
33.951399487624428
 20
30.67434649100483
 30
0.0
 11
36.89883148762442
 21
31.74712349100486
 31
0.0
  0
LINE
  5
497
  8
0
 10
36.893196487624436
 20
31.91403349100483
 30
0.0
 11
33.923403487624398
 21
30.833117491004831
 31
0.0
  0
LINE
  5
498
  8
0
 10
33.923403487624398
 20
30.833117491004831
 30
0.0
 11
33.951399487624428
 21
30.67434649100483
 31
0.0
  0
INSERT
  5
499
  8
0
  2
BATU
 10
18.451399487624428
 20
35.674346491004833
 30
0.0
 41
0.001
 42
0.001
 43
0.001
 50
270.0
  0
LINE
  5
49A
  8
0
 10
18.451399487624428
 20
31.25169649100485
 30
0.0
 11
19.451399487624428
 21
30.67434649100483
 31
0.0
  0
LINE
  5
49B
  8
3
 10
40.307027487624389
 20
40.116116491004838
 30
0.0
 11
31.451399487624428
 21
35.674346491004833
 31
0.0
  0
LINE
  5
49C
  8
3
 10
31.451399487624428
 20
35.674346491004833
 30
0.0
 11
40.307027487624389
 21
31.232576491004838
 31
0.0
  0
LINE
  5
49D
  8
3
 10
41.066495487624422
 20
35.856142491004853
 30
0.0
 11
31.451399487624428
 21
40.515575491004817
 31
0.0
  0
LINE
  5
49E
  8
3
 10
31.451399487624428
 20
30.833117491004831
 30
0.0
 11
41.066495487624422
 21
35.492550491004863
 31
0.0
  0
TEXT
  5
594
  8
0
 62
     3
 10
0.0
 20
0.0
 30
0.0
 40
5.0
  1
BJ792-10001
  7
STANDARD1
  0
ENDSEC
  0
EOF
