  0
SECTION
  2
HEADER
  9
$ACADVER
  1
AC1009
  9
$INSBASE
 10
0.0
 20
0.0
 30
0.0
  9
$EXTMIN
 10
0.0
 20
-1.4802182810368341
 30
0.0
  9
$EXTMAX
 10
62.726986358412553
 20
41.19644562231715
 30
0.0
  9
$LIMMIN
 10
0.0
 20
0.0
  9
$LIMMAX
 10
270.0
 20
175.0
  9
$ORTHOMODE
 70
     1
  9
$REGENMODE
 70
     1
  9
$FILLMODE
 70
     1
  9
$QTEXTMODE
 70
     0
  9
$MIRRTEXT
 70
     0
  9
$DRAGMODE
 70
     2
  9
$LTSCALE
 40
10.0
  9
$OSMODE
 70
  3071
  9
$ATTMODE
 70
     1
  9
$TEXTSIZE
 40
0.2
  9
$TRACEWID
 40
0.05
  9
$TEXTSTYLE
  7
STANDARD
  9
$CLAYER
  8
0
  9
$CELTYPE
  6
BYLAYER
  9
$CECOLOR
 62
   256
  9
$DIMSCALE
 40
1.0
  9
$DIMASZ
 40
3.0
  9
$DIMEXO
 40
2.0
  9
$DIMDLI
 40
0.38
  9
$DIMRND
 40
0.0
  9
$DIMDLE
 40
0.0
  9
$DIMEXE
 40
2.0
  9
$DIMTP
 40
0.0
  9
$DIMTM
 40
0.0
  9
$DIMTXT
 40
3.2000000000000002
  9
$DIMCEN
 40
0.0
  9
$DIMTSZ
 40
0.0
  9
$DIMTOL
 70
     0
  9
$DIMLIM
 70
     0
  9
$DIMTIH
 70
     0
  9
$DIMTOH
 70
     0
  9
$DIMSE1
 70
     0
  9
$DIMSE2
 70
     0
  9
$DIMTAD
 70
     1
  9
$DIMZIN
 70
     0
  9
$DIMBLK
  1

  9
$DIMASO
 70
     0
  9
$DIMSHO
 70
     0
  9
$DIMPOST
  1

  9
$DIMAPOST
  1

  9
$DIMALT
 70
     0
  9
$DIMALTD
 70
     2
  9
$DIMALTF
 40
25.399999999999999
  9
$DIMLFAC
 40
1.0
  9
$DIMTOFL
 70
     1
  9
$DIMTVP
 40
1.6000000000000001
  9
$DIMTIX
 70
     1
  9
$DIMSOXD
 70
     0
  9
$DIMSAH
 70
     0
  9
$DIMBLK1
  1

  9
$DIMBLK2
  1

  9
$DIMSTYLE
  2
STANDARD
  9
$DIMCLRD
 70
     0
  9
$DIMCLRE
 70
     0
  9
$DIMCLRT
 70
     0
  9
$DIMTFAC
 40
1.0
  9
$DIMGAP
 40
0.09
  9
$LUNITS
 70
     2
  9
$LUPREC
 70
     4
  9
$SKETCHINC
 40
0.1
  9
$FILLETRAD
 40
0.0
  9
$AUNITS
 70
     1
  9
$AUPREC
 70
     4
  9
$MENU
  1
E:\r13\win\SUPPORT\ACAD
  9
$ELEVATION
 40
0.0
  9
$PELEVATION
 40
0.0
  9
$THICKNESS
 40
0.0
  9
$LIMCHECK
 70
     0
  9
$BLIPMODE
 70
     0
  9
$CHAMFERA
 40
0.0
  9
$CHAMFERB
 40
0.0
  9
$SKPOLY
 70
     0
  9
$TDCREATE
 40
2449839.7803587969
  9
$TDUPDATE
 40
2456598.428512454
  9
$TDINDWG
 40
0.0078251736
  9
$TDUSRTIMER
 40
0.0078251736
  9
$USRTIMER
 70
     1
  9
$ANGBASE
 50
0.0
  9
$ANGDIR
 70
     0
  9
$PDMODE
 70
     0
  9
$PDSIZE
 40
0.0
  9
$PLINEWID
 40
0.0
  9
$COORDS
 70
     1
  9
$SPLFRAME
 70
     0
  9
$SPLINETYPE
 70
     6
  9
$SPLINESEGS
 70
     8
  9
$ATTDIA
 70
     0
  9
$ATTREQ
 70
     1
  9
$HANDLING
 70
     1
  9
$HANDSEED
  5
51E
  9
$SURFTAB1
 70
     6
  9
$SURFTAB2
 70
     6
  9
$SURFTYPE
 70
     6
  9
$SURFU
 70
     6
  9
$SURFV
 70
     6
  9
$UCSNAME
  2

  9
$UCSORG
 10
0.0
 20
0.0
 30
0.0
  9
$UCSXDIR
 10
1.0
 20
0.0
 30
0.0
  9
$UCSYDIR
 10
0.0
 20
1.0
 30
0.0
  9
$PUCSNAME
  2

  9
$PUCSORG
 10
0.0
 20
0.0
 30
0.0
  9
$PUCSXDIR
 10
1.0
 20
0.0
 30
0.0
  9
$PUCSYDIR
 10
0.0
 20
1.0
 30
0.0
  9
$USERI1
 70
     0
  9
$USERI2
 70
     1
  9
$USERI3
 70
     0
  9
$USERI4
 70
     0
  9
$USERI5
 70
     0
  9
$USERR1
 40
0.0
  9
$USERR2
 40
0.0
  9
$USERR3
 40
0.0
  9
$USERR4
 40
0.0
  9
$USERR5
 40
0.0
  9
$WORLDVIEW
 70
     1
  9
$SHADEDGE
 70
     3
  9
$SHADEDIF
 70
    70
  9
$TILEMODE
 70
     1
  9
$MAXACTVP
 70
    16
  9
$PLIMCHECK
 70
     0
  9
$PEXTMIN
 10
1.0000000000000000E+020
 20
1.0000000000000000E+020
 30
1.0000000000000000E+020
  9
$PEXTMAX
 10
-1.0000000000000000E+020
 20
-1.0000000000000000E+020
 30
-1.0000000000000000E+020
  9
$PLIMMIN
 10
0.0
 20
0.0
  9
$PLIMMAX
 10
12.0
 20
9.0
  9
$UNITMODE
 70
     0
  9
$VISRETAIN
 70
     0
  9
$PLINEGEN
 70
     0
  9
$PSLTSCALE
 70
     0
  0
ENDSEC
  0
SECTION
  2
TABLES
  0
TABLE
  2
VPORT
 70
     1
  0
VPORT
  2
*ACTIVE
 70
     0
 10
0.0
 20
0.0
 11
1.0
 21
1.0
 12
139.88615432881801
 22
86.756324970927466
 13
0.0
 23
0.0
 14
10.0
 24
10.0
 15
10.0
 25
10.0
 16
0.0
 26
0.0
 36
1.0
 17
0.0
 27
0.0
 37
0.0
 40
178.07019624700729
 41
1.831871345029239
 42
50.0
 43
0.0
 44
0.0
 50
0.0
 51
0.0
 71
     0
 72
   500
 73
     1
 74
     0
 75
     0
 76
     0
 77
     0
 78
     2
  0
ENDTAB
  0
TABLE
  2
LTYPE
 70
     4
  0
LTYPE
  2
CONTINUOUS
 70
     0
  3
Solid Line
 72
    65
 73
     0
 40
0.0
  0
LTYPE
  2
CENTER
 70
     0
  3
____ _ ____ _ ____ _ ____ _ ____ _ ____ _ ____
 72
    65
 73
     4
 40
2.0
 49
1.25
 49
-0.25
 49
0.25
 49
-0.25
  0
LTYPE
  2
HIDDEN
 70
     0
  3
__ __ __ __ __ __ __ __ __ __ __ __ __ __ __ __
 72
    65
 73
     2
 40
0.375
 49
0.25
 49
-0.125
  0
LTYPE
  2
PHANTOM2
 70
     0
  3
___ _ _ ___ _ _ ___ _ _ ___ _ _
 72
    65
 73
     6
 40
1.25
 49
0.625
 49
-0.125
 49
0.125
 49
-0.125
 49
0.125
 49
-0.125
  0
ENDTAB
  0
TABLE
  2
LAYER
 70
     5
  0
LAYER
  2
0
 70
     0
 62
     7
  6
CONTINUOUS
  0
LAYER
  2
1
 70
     0
 62
     1
  6
CENTER
  0
LAYER
  2
2
 70
     0
 62
     2
  6
HIDDEN
  0
LAYER
  2
3
 70
     0
 62
     3
  6
CONTINUOUS
  0
LAYER
  2
ITTEN
 70
     0
 62
     1
  6
CENTER
  0
ENDTAB
  0
TABLE
  2
STYLE
 70
     2
  0
STYLE
  2
STANDARD
 70
     0
 40
0.0
 41
1.0
 50
0.0
 71
     0
 42
0.2
  3
TXT
  4
BIGFONT
  0
STYLE
  2
STANDARD1
 70
     0
 40
0.0
 41
1.0
 50
0.0
 71
     0
 42
3.0
  3
txt
  4

  0
ENDTAB
  0
TABLE
  2
VIEW
 70
     1
  0
VIEW
  2
ALL
 70
     0
 40
179.5384664489153
 10
135.0
 20
89.769233224457665
 41
0.0
 11
0.0
 21
0.0
 31
1.0
 12
0.0
 22
0.0
 32
0.0
 42
0.0
 43
0.0
 44
0.0
 50
0.0
 71
     0
  0
ENDTAB
  0
TABLE
  2
UCS
 70
     0
  0
ENDTAB
  0
TABLE
  2
APPID
 70
     5
  0
APPID
  2
ACAD
 70
     0
  0
APPID
  2
GENIUS_GENODEF_13
 70
     0
  0
APPID
  2
GENIUS_GENOBJ-N-FIL_13
 70
     0
  0
APPID
  2
ACAD_MLEADERVER
 70
     0
  0
APPID
  2
ACAD_NAV_VCDISPLAY
 70
     0
  0
ENDTAB
  0
TABLE
  2
DIMSTYLE
 70
     1
  0
DIMSTYLE
  2
STANDARD
 70
     0
  3

  4

  5

  6

  7

 40
1.0
 41
0.18
 42
0.0625
 43
0.38
 44
0.18
 45
0.0
 46
0.0
 47
0.0
 48
0.0
140
0.18
141
0.09
142
0.0
143
25.399999999999999
144
1.0
145
0.0
146
1.0
147
0.09
 71
     0
 72
     0
 73
     1
 74
     1
 75
     0
 76
     0
 77
     0
 78
     0
170
     0
171
     2
172
     0
173
     0
174
     0
175
     0
176
     0
177
     0
178
     0
  0
ENDTAB
  0
ENDSEC
  0
SECTION
  2
BLOCKS
  0
BLOCK
  8
0
  2
$MODEL_SPACE
 70
     0
 10
0.0
 20
0.0
 30
0.0
  3
$MODEL_SPACE
  1

  0
ENDBLK
  5
3D0
  8
0
  0
BLOCK
 67
     1
  8
0
  2
$PAPER_SPACE
 70
     0
 10
0.0
 20
0.0
 30
0.0
  3
$PAPER_SPACE
  1

  0
ENDBLK
  5
3CE
 67
     1
  8
0
  0
BLOCK
  8
0
  2
BATU
 70
     0
 10
0.0
 20
0.0
 30
0.0
  3
BATU
  1

  0
LINE
  5
310
  8
ITTEN
 10
0.5
 20
0.0
 30
0.0
 11
-0.5
 21
0.0
 31
0.0
  0
LINE
  5
311
  8
ITTEN
 10
0.0
 20
0.5
 30
0.0
 11
0.0
 21
-0.5
 31
0.0
  0
ENDBLK
  5
313
  8
0
  0
ENDSEC
  0
SECTION
  2
ENTITIES
  0
LINE
  5
355
  8
0
 10
35.111800712533579
 20
38.338223622317201
 30
0.0
 11
35.111800712533579
 21
32.054667622317169
 31
0.0
  0
LINE
  5
356
  8
0
 10
32.753854712533553
 20
39.196445622317157
 30
0.0
 11
32.753854712533553
 21
31.19644562231716
 31
0.0
  0
LINE
  5
357
  8
0
 10
30.753854712533549
 20
39.196445622317157
 30
0.0
 11
30.753854712533549
 21
31.19644562231716
 31
0.0
  0
LINE
  5
358
  8
0
 10
30.253854712533549
 20
39.196445622317157
 30
0.0
 11
30.253854712533549
 21
31.19644562231716
 31
0.0
  0
LINE
  5
359
  8
0
 10
20.753854712533549
 20
38.619095622317133
 30
0.0
 11
20.753854712533549
 21
31.773795622317181
 31
0.0
  0
LINE
  5
35A
  8
0
 10
21.753854712533549
 20
39.196445622317157
 30
0.0
 11
21.753854712533549
 21
31.19644562231716
 31
0.0
  0
LINE
  5
35B
  8
1
 10
36.753854712533553
 20
41.19644562231715
 30
0.0
 11
36.753854712533553
 21
29.19644562231716
 31
0.0
  0
ARC
  5
35C
  8
0
 10
36.753854712533553
 20
33.196445622317157
 30
0.0
 40
2.0
 50
214.81224199999991
 51
0.0
  0
LINE
  5
35D
  8
0
 10
21.753854712533549
 20
31.19644562231716
 30
0.0
 11
30.253854712533549
 21
31.19644562231716
 31
0.0
  0
LINE
  5
35E
  8
0
 10
20.753854712533549
 20
31.773795622317181
 30
0.0
 11
21.753854712533549
 21
31.19644562231716
 31
0.0
  0
LINE
  5
35F
  8
0
 10
30.253854712533549
 20
31.19644562231716
 30
0.0
 11
32.753854712533553
 21
31.19644562231716
 31
0.0
  0
LINE
  5
360
  8
0
 10
32.753854712533553
 20
31.19644562231716
 30
0.0
 11
35.111800712533579
 21
32.054667622317169
 31
0.0
  0
LINE
  5
361
  8
0
 10
21.753854712533549
 20
39.196445622317157
 30
0.0
 11
30.253854712533549
 21
39.196445622317157
 31
0.0
  0
LINE
  5
362
  8
1
 10
18.753854712533549
 20
35.196445622317157
 30
0.0
 11
40.753854712533553
 21
35.196445622317157
 31
0.0
  0
LINE
  5
363
  8
0
 10
20.753854712533549
 20
38.619095622317133
 30
0.0
 11
21.753854712533549
 21
39.196445622317157
 31
0.0
  0
LINE
  5
364
  8
2
 10
38.253854712533553
 20
36.425945622317151
 30
0.0
 11
31.25385471253357
 21
36.425945622317158
 31
0.0
  0
LINE
  5
365
  8
2
 10
38.253854712533553
 20
33.966945622317162
 30
0.0
 11
31.25385471253357
 21
33.966945622317148
 31
0.0
  0
ARC
  5
366
  8
0
 10
36.753854712533553
 20
37.196445622317157
 30
0.0
 40
2.0
 50
0.0
 51
145.187758
  0
LINE
  5
367
  8
2
 10
38.524354712533551
 20
33.696445622317157
 30
0.0
 11
32.753854712533567
 21
33.696445622317157
 31
0.0
  0
LINE
  5
368
  8
2
 10
38.524354712533551
 20
36.696445622317157
 30
0.0
 11
32.753854712533567
 21
36.696445622317157
 31
0.0
  0
LINE
  5
369
  8
0
 10
30.253854712533549
 20
39.196445622317157
 30
0.0
 11
32.753854712533553
 21
39.196445622317157
 31
0.0
  0
LINE
  5
36A
  8
2
 10
31.25385471253357
 20
33.966945622317148
 30
0.0
 11
31.253854712533538
 21
36.425945622317172
 31
0.0
  0
LINE
  5
36B
  8
2
 10
31.25385471253357
 20
36.425945622317158
 30
0.0
 11
30.544002556564919
 21
35.196445622317157
 31
0.0
  0
INSERT
  5
36C
  8
2
  2
BATU
 10
30.253854712533549
 20
35.196445622317157
 30
0.0
 41
0.001
 42
0.001
 43
0.001
 50
270.0
  0
LINE
  5
36D
  8
2
 10
31.25385471253357
 20
33.966945622317148
 30
0.0
 11
30.544002556564919
 21
35.196445622317157
 31
0.0
  0
LINE
  5
36E
  8
2
 10
32.753854712533567
 20
33.696445622317157
 30
0.0
 11
32.753854712533567
 21
36.69644562231715
 31
0.0
  0
LINE
  5
36F
  8
2
 10
32.753854712533567
 20
33.696445622317157
 30
0.0
 11
32.285334969086179
 21
33.966945622317148
 31
0.0
  0
LINE
  5
370
  8
0
 10
32.753854712533553
 20
39.196445622317157
 30
0.0
 11
35.111800712533579
 21
38.338223622317201
 31
0.0
  0
LINE
  5
371
  8
2
 10
32.753854712533567
 20
36.696445622317157
 30
0.0
 11
32.285334969086179
 21
36.425945622317158
 31
0.0
  0
LINE
  5
372
  8
0
 10
38.753854712533553
 20
37.196445622317157
 30
0.0
 11
38.753854712533553
 21
33.196445622317157
 31
0.0
  0
LINE
  5
373
  8
2
 10
38.253854712533553
 20
33.966945622317162
 30
0.0
 11
38.253854712533553
 21
36.425945622317158
 31
0.0
  0
LINE
  5
374
  8
2
 10
38.253854712533553
 20
33.966945622317162
 30
0.0
 11
38.753854712533553
 21
33.466945622317169
 31
0.0
  0
LINE
  5
375
  8
2
 10
38.253854712533553
 20
36.425945622317151
 30
0.0
 11
38.753854712533553
 21
36.925945622317151
 31
0.0
  0
CIRCLE
  5
376
  8
0
 10
56.726986358412539
 20
35.196445622317157
 30
0.0
 40
4.0
  0
LINE
  5
377
  8
1
 10
56.726986358412539
 20
41.19644562231715
 30
0.0
 11
56.726986358412539
 21
29.19644562231716
 31
0.0
  0
LINE
  5
378
  8
1
 10
50.726986358412553
 20
35.196445622317157
 30
0.0
 11
62.726986358412553
 21
35.196445622317157
 31
0.0
  0
CIRCLE
  5
379
  8
3
 10
56.726986358412539
 20
35.196445622317157
 30
0.0
 40
1.5
  0
CIRCLE
  5
37A
  8
0
 10
56.726986358412539
 20
35.196445622317157
 30
0.0
 40
1.2293670000000001
  0
INSERT
  5
37B
  8
0
  2
BATU
 10
56.726986358412539
 20
35.196445622317157
 30
0.0
 41
0.001
 42
0.001
 43
0.001
 50
270.0
  0
TEXT
  5
48D
  8
0
 62
     3
 10
0.0
 20
0.0
 30
0.0
 40
5.0
  1
BJ790-08001
  7
STANDARD1
  0
ENDSEC
  0
EOF
