  0
SECTION
  2
HEADER
  9
$ACADVER
  1
AC1009
  9
$INSBASE
 10
82.638099999999994
 20
103.82319099999999
 30
0.0
  9
$EXTMIN
 10
0.0
 20
-2.960436562073669
 30
0.0
  9
$EXTMAX
 10
182.875
 20
87.874999999999986
 30
0.0
  9
$LIMMIN
 10
0.0
 20
0.0
  9
$LIMMAX
 10
187.5
 20
135.0
  9
$ORTHOMODE
 70
     1
  9
$REGENMODE
 70
     1
  9
$FILLMODE
 70
     1
  9
$QTEXTMODE
 70
     0
  9
$MIRRTEXT
 70
     0
  9
$DRAGMODE
 70
     2
  9
$LTSCALE
 40
5.0
  9
$OSMODE
 70
  3071
  9
$ATTMODE
 70
     1
  9
$TEXTSIZE
 40
0.06
  9
$TRACEWID
 40
0.05
  9
$TEXTSTYLE
  7
STANDARD
  9
$CLAYER
  8
0
  9
$CELTYPE
  6
BYLAYER
  9
$CECOLOR
 62
   256
  9
$DIMSCALE
 40
0.5
  9
$DIMASZ
 40
3.0
  9
$DIMEXO
 40
2.0
  9
$DIMDLI
 40
10.0
  9
$DIMRND
 40
0.0
  9
$DIMDLE
 40
0.0
  9
$DIMEXE
 40
2.0
  9
$DIMTP
 40
0.0
  9
$DIMTM
 40
0.0
  9
$DIMTXT
 40
3.0
  9
$DIMCEN
 40
0.0
  9
$DIMTSZ
 40
0.0
  9
$DIMTOL
 70
     0
  9
$DIMLIM
 70
     0
  9
$DIMTIH
 70
     0
  9
$DIMTOH
 70
     0
  9
$DIMSE1
 70
     0
  9
$DIMSE2
 70
     0
  9
$DIMTAD
 70
     1
  9
$DIMZIN
 70
     0
  9
$DIMBLK
  1

  9
$DIMASO
 70
     0
  9
$DIMSHO
 70
     0
  9
$DIMPOST
  1

  9
$DIMAPOST
  1

  9
$DIMALT
 70
     0
  9
$DIMALTD
 70
     2
  9
$DIMALTF
 40
25.399999999999999
  9
$DIMLFAC
 40
1.0
  9
$DIMTOFL
 70
     1
  9
$DIMTVP
 40
1.6000000000000001
  9
$DIMTIX
 70
     1
  9
$DIMSOXD
 70
     0
  9
$DIMSAH
 70
     0
  9
$DIMBLK1
  1

  9
$DIMBLK2
  1

  9
$DIMSTYLE
  2
STANDARD
  9
$DIMCLRD
 70
     0
  9
$DIMCLRE
 70
     0
  9
$DIMCLRT
 70
     0
  9
$DIMTFAC
 40
1.0
  9
$DIMGAP
 40
0.09
  9
$LUNITS
 70
     2
  9
$LUPREC
 70
     4
  9
$SKETCHINC
 40
0.1
  9
$FILLETRAD
 40
0.6
  9
$AUNITS
 70
     0
  9
$AUPREC
 70
     4
  9
$MENU
  1
E:\r13\win\SUPPORT\ACAD
  9
$ELEVATION
 40
0.0
  9
$PELEVATION
 40
0.0
  9
$THICKNESS
 40
0.0
  9
$LIMCHECK
 70
     0
  9
$BLIPMODE
 70
     0
  9
$CHAMFERA
 40
0.0
  9
$CHAMFERB
 40
0.0
  9
$SKPOLY
 70
     0
  9
$TDCREATE
 40
2449840.5882638888
  9
$TDUPDATE
 40
2456597.7008103472
  9
$TDINDWG
 40
0.0006832755
  9
$TDUSRTIMER
 40
0.0006832755
  9
$USRTIMER
 70
     1
  9
$ANGBASE
 50
0.0
  9
$ANGDIR
 70
     0
  9
$PDMODE
 70
     1
  9
$PDSIZE
 40
0.0
  9
$PLINEWID
 40
0.0
  9
$COORDS
 70
     1
  9
$SPLFRAME
 70
     0
  9
$SPLINETYPE
 70
     6
  9
$SPLINESEGS
 70
     8
  9
$ATTDIA
 70
     0
  9
$ATTREQ
 70
     1
  9
$HANDLING
 70
     1
  9
$HANDSEED
  5
252
  9
$SURFTAB1
 70
     6
  9
$SURFTAB2
 70
     6
  9
$SURFTYPE
 70
     6
  9
$SURFU
 70
     6
  9
$SURFV
 70
     6
  9
$UCSNAME
  2

  9
$UCSORG
 10
0.0
 20
0.0
 30
0.0
  9
$UCSXDIR
 10
1.0
 20
0.0
 30
0.0
  9
$UCSYDIR
 10
0.0
 20
1.0
 30
0.0
  9
$PUCSNAME
  2

  9
$PUCSORG
 10
0.0
 20
0.0
 30
0.0
  9
$PUCSXDIR
 10
1.0
 20
0.0
 30
0.0
  9
$PUCSYDIR
 10
0.0
 20
1.0
 30
0.0
  9
$USERI1
 70
     3
  9
$USERI2
 70
     1
  9
$USERI3
 70
     0
  9
$USERI4
 70
     0
  9
$USERI5
 70
     0
  9
$USERR1
 40
0.5
  9
$USERR2
 40
3.0
  9
$USERR3
 40
3.0
  9
$USERR4
 40
3.0
  9
$USERR5
 40
10.0
  9
$WORLDVIEW
 70
     1
  9
$SHADEDGE
 70
     3
  9
$SHADEDIF
 70
    70
  9
$TILEMODE
 70
     1
  9
$MAXACTVP
 70
    16
  9
$PLIMCHECK
 70
     0
  9
$PEXTMIN
 10
1.0000000000000000E+020
 20
1.0000000000000000E+020
 30
1.0000000000000000E+020
  9
$PEXTMAX
 10
-1.0000000000000000E+020
 20
-1.0000000000000000E+020
 30
-1.0000000000000000E+020
  9
$PLIMMIN
 10
0.0
 20
0.0
  9
$PLIMMAX
 10
12.0
 20
9.0
  9
$UNITMODE
 70
     0
  9
$VISRETAIN
 70
     0
  9
$PLINEGEN
 70
     0
  9
$PSLTSCALE
 70
     0
  0
ENDSEC
  0
SECTION
  2
TABLES
  0
TABLE
  2
VPORT
 70
     1
  0
VPORT
  2
*ACTIVE
 70
     0
 10
0.0
 20
0.0
 11
1.0
 21
1.0
 12
97.570150770051072
 22
66.014785922033241
 13
0.0
 23
0.0
 14
5.0
 24
5.0
 15
10.0
 25
10.0
 16
0.0
 26
0.0
 36
1.0
 17
0.0
 27
0.0
 37
0.0
 40
139.20783109903601
 41
1.831871345029239
 42
50.0
 43
0.0
 44
0.0
 50
0.0
 51
0.0
 71
     0
 72
   100
 73
     1
 74
     0
 75
     0
 76
     0
 77
     0
 78
     2
  0
ENDTAB
  0
TABLE
  2
LTYPE
 70
     3
  0
LTYPE
  2
CONTINUOUS
 70
     0
  3
Solid Line
 72
    65
 73
     0
 40
0.0
  0
LTYPE
  2
CENTER
 70
     0
  3
____ _ ____ _ ____ _ ____ _ ____ _ ____ _ ____
 72
    65
 73
     4
 40
2.0
 49
1.25
 49
-0.25
 49
0.25
 49
-0.25
  0
LTYPE
  2
PHANTOM2
 70
     0
  3
___ _ _ ___ _ _ ___ _ _ ___ _ _
 72
    65
 73
     6
 40
1.25
 49
0.625
 49
-0.125
 49
0.125
 49
-0.125
 49
0.125
 49
-0.125
  0
ENDTAB
  0
TABLE
  2
LAYER
 70
     3
  0
LAYER
  2
0
 70
     0
 62
     7
  6
CONTINUOUS
  0
LAYER
  2
1
 70
     0
 62
     1
  6
CENTER
  0
LAYER
  2
3
 70
     0
 62
     3
  6
CONTINUOUS
  0
ENDTAB
  0
TABLE
  2
STYLE
 70
     2
  0
STYLE
  2
STANDARD
 70
     0
 40
0.0
 41
1.0
 50
0.0
 71
     0
 42
0.06
  3
TXT
  4
BIGFONT
  0
STYLE
  2
STANDARD1
 70
     0
 40
0.0
 41
1.0
 50
0.0
 71
     0
 42
3.0
  3
txt
  4

  0
ENDTAB
  0
TABLE
  2
VIEW
 70
     0
  0
ENDTAB
  0
TABLE
  2
UCS
 70
     0
  0
ENDTAB
  0
TABLE
  2
APPID
 70
     3
  0
APPID
  2
ACAD
 70
     0
  0
APPID
  2
ACAD_MLEADERVER
 70
     0
  0
APPID
  2
ACAD_NAV_VCDISPLAY
 70
     0
  0
ENDTAB
  0
TABLE
  2
DIMSTYLE
 70
     1
  0
DIMSTYLE
  2
STANDARD
 70
     0
  3

  4

  5

  6

  7

 40
1.0
 41
0.18
 42
0.0625
 43
0.38
 44
0.18
 45
0.0
 46
0.0
 47
0.0
 48
0.0
140
0.18
141
0.09
142
0.0
143
25.399999999999999
144
1.0
145
0.0
146
1.0
147
0.09
 71
     0
 72
     0
 73
     1
 74
     1
 75
     0
 76
     0
 77
     0
 78
     0
170
     0
171
     2
172
     0
173
     0
174
     0
175
     0
176
     0
177
     0
178
     0
  0
ENDTAB
  0
ENDSEC
  0
SECTION
  2
BLOCKS
  0
BLOCK
  8
0
  2
$MODEL_SPACE
 70
     0
 10
0.0
 20
0.0
 30
0.0
  3
$MODEL_SPACE
  1

  0
ENDBLK
  5
10C
  8
0
  0
BLOCK
 67
     1
  8
0
  2
$PAPER_SPACE
 70
     0
 10
0.0
 20
0.0
 30
0.0
  3
$PAPER_SPACE
  1

  0
ENDBLK
  5
10A
 67
     1
  8
0
  0
BLOCK
  8
0
  2
STDGX5
 70
     0
 10
0.0
 20
0.0
 30
0.0
  3
STDGX5
  1

  0
ENDBLK
  5
2C
  8
0
  0
BLOCK
  8
0
  2
*X1
 70
     1
 10
0.0
 20
0.0
 30
0.0
  3
*X1
  1

  0
LINE
  5
39
  8
0
 62
     0
 10
70.687864000000005
 20
57.959941999999998
 30
0.0
 11
80.797864000000004
 21
68.069941999999998
 31
0.0
  0
LINE
  5
3A
  8
0
 62
     0
 10
70.687864000000005
 20
59.374155000000002
 30
0.0
 11
80.797864000000004
 21
69.484155000000001
 31
0.0
  0
LINE
  5
3B
  8
0
 62
     0
 10
70.687864000000005
 20
60.788368999999989
 30
0.0
 11
80.797864000000004
 21
70.898368999999974
 31
0.0
  0
LINE
  5
3C
  8
0
 62
     0
 10
70.687864000000005
 20
62.202581999999992
 30
0.0
 11
80.797864000000004
 21
72.312581999999992
 31
0.0
  0
LINE
  5
3D
  8
0
 62
     0
 10
70.687864000000005
 20
63.616795999999987
 30
0.0
 11
80.797864000000004
 21
73.726795999999993
 31
0.0
  0
LINE
  5
3E
  8
0
 62
     0
 10
70.687864000000005
 20
65.031008999999983
 30
0.0
 11
80.797864000000004
 21
75.141008999999997
 31
0.0
  0
LINE
  5
3F
  8
0
 62
     0
 10
70.687864000000005
 20
66.445222999999999
 30
0.0
 11
80.797864000000004
 21
76.555222999999998
 31
0.0
  0
LINE
  5
40
  8
0
 62
     0
 10
70.687864000000005
 20
67.859437
 30
0.0
 11
80.695645999999996
 21
77.867218999999992
 31
0.0
  0
LINE
  5
41
  8
0
 62
     0
 10
70.687864000000005
 20
69.273650000000004
 30
0.0
 11
79.281431999999995
 21
77.867218999999992
 31
0.0
  0
LINE
  5
42
  8
0
 62
     0
 10
70.687864000000005
 20
70.687864000000005
 30
0.0
 11
77.867218999999992
 21
77.867218999999992
 31
0.0
  0
LINE
  5
43
  8
0
 62
     0
 10
70.687864000000005
 20
72.102077000000008
 30
0.0
 11
76.453005000000005
 21
77.867218999999992
 31
0.0
  0
LINE
  5
44
  8
0
 62
     0
 10
70.687864000000005
 20
73.51629100000001
 30
0.0
 11
75.038792000000001
 21
77.867218999999992
 31
0.0
  0
LINE
  5
45
  8
0
 62
     0
 10
70.687864000000005
 20
74.930503999999999
 30
0.0
 11
73.624578
 21
77.867218999999992
 31
0.0
  0
LINE
  5
46
  8
0
 62
     0
 10
70.687864000000005
 20
76.344718
 30
0.0
 11
72.210363999999998
 21
77.867218999999992
 31
0.0
  0
LINE
  5
47
  8
0
 62
     0
 10
70.687864000000005
 20
77.758932000000001
 30
0.0
 11
70.796150999999995
 21
77.867218999999992
 31
0.0
  0
LINE
  5
48
  8
0
 62
     0
 10
70.687864000000005
 20
56.545727999999997
 30
0.0
 11
80.797864000000004
 21
66.655727999999996
 31
0.0
  0
LINE
  5
49
  8
0
 62
     0
 10
70.687864000000005
 20
55.131515
 30
0.0
 11
80.797864000000004
 21
65.241515000000007
 31
0.0
  0
LINE
  5
4A
  8
0
 62
     0
 10
70.687864000000005
 20
53.717300999999999
 30
0.0
 11
80.797864000000004
 21
63.827300999999991
 31
0.0
  0
LINE
  5
4B
  8
0
 62
     0
 10
70.687864000000005
 20
52.303086999999998
 30
0.0
 11
80.797864000000004
 21
62.413086999999997
 31
0.0
  0
LINE
  5
4C
  8
0
 62
     0
 10
70.687864000000005
 20
50.888874000000001
 30
0.0
 11
80.797864000000004
 21
60.998874000000001
 31
0.0
  0
LINE
  5
4D
  8
0
 62
     0
 10
70.687864000000005
 20
49.47466
 30
0.0
 11
80.797864000000004
 21
59.58466
 31
0.0
  0
LINE
  5
4E
  8
0
 62
     0
 10
70.687864000000005
 20
48.060447000000003
 30
0.0
 11
80.797864000000004
 21
58.170447000000003
 31
0.0
  0
LINE
  5
4F
  8
0
 62
     0
 10
70.687864000000005
 20
46.646233000000002
 30
0.0
 11
80.797864000000004
 21
56.756232999999987
 31
0.0
  0
LINE
  5
50
  8
0
 62
     0
 10
71.573063000000005
 20
46.117218999999999
 30
0.0
 11
80.797864000000004
 21
55.342019999999998
 31
0.0
  0
LINE
  5
51
  8
0
 62
     0
 10
72.987275999999994
 20
46.117218999999999
 30
0.0
 11
80.797864000000004
 21
53.927805999999997
 31
0.0
  0
LINE
  5
52
  8
0
 62
     0
 10
74.401489999999995
 20
46.117218999999999
 30
0.0
 11
80.797864000000004
 21
52.513592000000003
 31
0.0
  0
LINE
  5
53
  8
0
 62
     0
 10
75.815703999999997
 20
46.117218999999999
 30
0.0
 11
80.797864000000004
 21
51.099378999999999
 31
0.0
  0
LINE
  5
54
  8
0
 62
     0
 10
77.229917
 20
46.117218999999999
 30
0.0
 11
80.797864000000004
 21
49.685164999999998
 31
0.0
  0
LINE
  5
55
  8
0
 62
     0
 10
78.644131000000002
 20
46.117218999999999
 30
0.0
 11
80.797864000000004
 21
48.270952000000001
 31
0.0
  0
LINE
  5
56
  8
0
 62
     0
 10
80.058343999999991
 20
46.117218999999999
 30
0.0
 11
80.797864000000004
 21
46.856737999999993
 31
0.0
  0
LINE
  5
57
  8
0
 62
     0
 10
80.797864000000004
 20
56.380851999999997
 30
0.0
 11
70.687864000000005
 21
66.490852000000004
 31
0.0
  0
LINE
  5
58
  8
0
 62
     0
 10
80.797864000000004
 20
54.966638000000003
 30
0.0
 11
70.687864000000005
 21
65.076638000000003
 31
0.0
  0
LINE
  5
59
  8
0
 62
     0
 10
80.797864000000004
 20
53.552424999999999
 30
0.0
 11
70.687864000000005
 21
63.662424999999999
 31
0.0
  0
LINE
  5
5A
  8
0
 62
     0
 10
80.797864000000004
 20
52.138210999999998
 30
0.0
 11
70.687864000000005
 21
62.248210999999991
 31
0.0
  0
LINE
  5
5B
  8
0
 62
     0
 10
80.797864000000004
 20
50.723997999999987
 30
0.0
 11
70.687864000000005
 21
60.833998000000001
 31
0.0
  0
LINE
  5
5C
  8
0
 62
     0
 10
80.797864000000004
 20
49.309784000000001
 30
0.0
 11
70.687864000000005
 21
59.419783999999993
 31
0.0
  0
LINE
  5
5D
  8
0
 62
     0
 10
80.797864000000004
 20
47.895569999999999
 30
0.0
 11
70.687864000000005
 21
58.005569999999999
 31
0.0
  0
LINE
  5
5E
  8
0
 62
     0
 10
80.797864000000004
 20
46.481357000000003
 30
0.0
 11
70.687864000000005
 21
56.591357000000002
 31
0.0
  0
LINE
  5
5F
  8
0
 62
     0
 10
79.747788
 20
46.117218999999999
 30
0.0
 11
70.687864000000005
 21
55.177143000000008
 31
0.0
  0
LINE
  5
60
  8
0
 62
     0
 10
78.333574999999996
 20
46.117218999999999
 30
0.0
 11
70.687864000000005
 21
53.762929999999997
 31
0.0
  0
LINE
  5
61
  8
0
 62
     0
 10
76.919360999999995
 20
46.117218999999999
 30
0.0
 11
70.687864000000005
 21
52.348715999999989
 31
0.0
  0
LINE
  5
62
  8
0
 62
     0
 10
75.505147999999991
 20
46.117218999999999
 30
0.0
 11
70.687864000000005
 21
50.934502999999999
 31
0.0
  0
LINE
  5
63
  8
0
 62
     0
 10
74.09093399999999
 20
46.117218999999999
 30
0.0
 11
70.687864000000005
 21
49.520288999999998
 31
0.0
  0
LINE
  5
64
  8
0
 62
     0
 10
72.676721000000001
 20
46.117218999999999
 30
0.0
 11
70.687864000000005
 21
48.10607499999999
 31
0.0
  0
LINE
  5
65
  8
0
 62
     0
 10
71.262506999999985
 20
46.117218999999999
 30
0.0
 11
70.687864000000005
 21
46.691862
 31
0.0
  0
LINE
  5
66
  8
0
 62
     0
 10
80.797864000000004
 20
57.795065000000001
 30
0.0
 11
70.687864000000005
 21
67.905065000000008
 31
0.0
  0
LINE
  5
67
  8
0
 62
     0
 10
80.797864000000004
 20
59.209279000000002
 30
0.0
 11
70.687864000000005
 21
69.319279000000009
 31
0.0
  0
LINE
  5
68
  8
0
 62
     0
 10
80.797864000000004
 20
60.623491999999999
 30
0.0
 11
70.687864000000005
 21
70.733491999999998
 31
0.0
  0
LINE
  5
69
  8
0
 62
     0
 10
80.797864000000004
 20
62.037706000000007
 30
0.0
 11
70.687864000000005
 21
72.147705999999999
 31
0.0
  0
LINE
  5
6A
  8
0
 62
     0
 10
80.797864000000004
 20
63.451919999999987
 30
0.0
 11
70.687864000000005
 21
73.561920000000001
 31
0.0
  0
LINE
  5
6B
  8
0
 62
     0
 10
80.797864000000004
 20
64.866132999999991
 30
0.0
 11
70.687864000000005
 21
74.97613299999999
 31
0.0
  0
LINE
  5
6C
  8
0
 62
     0
 10
80.797864000000004
 20
66.280346999999992
 30
0.0
 11
70.687864000000005
 21
76.390346999999991
 31
0.0
  0
LINE
  5
6D
  8
0
 62
     0
 10
80.797864000000004
 20
67.694559999999996
 30
0.0
 11
70.687864000000005
 21
77.804559999999995
 31
0.0
  0
LINE
  5
6E
  8
0
 62
     0
 10
80.797864000000004
 20
69.108773999999997
 30
0.0
 11
72.039418999999995
 21
77.867218999999992
 31
0.0
  0
LINE
  5
6F
  8
0
 62
     0
 10
80.797864000000004
 20
70.522987000000001
 30
0.0
 11
73.453631999999999
 21
77.867218999999992
 31
0.0
  0
LINE
  5
70
  8
0
 62
     0
 10
80.797864000000004
 20
71.937201000000002
 30
0.0
 11
74.867846
 21
77.867218999999992
 31
0.0
  0
LINE
  5
71
  8
0
 62
     0
 10
80.797864000000004
 20
73.351415000000003
 30
0.0
 11
76.282060000000001
 21
77.867218999999992
 31
0.0
  0
LINE
  5
72
  8
0
 62
     0
 10
80.797864000000004
 20
74.765628000000007
 30
0.0
 11
77.696273000000005
 21
77.867218999999992
 31
0.0
  0
LINE
  5
73
  8
0
 62
     0
 10
80.797864000000004
 20
76.179842000000008
 30
0.0
 11
79.110487000000006
 21
77.867218999999992
 31
0.0
  0
LINE
  5
74
  8
0
 62
     0
 10
80.797864000000004
 20
77.594055000000012
 30
0.0
 11
80.524699999999996
 21
77.867218999999992
 31
0.0
  0
ENDBLK
  5
75
  8
0
  0
ENDSEC
  0
SECTION
  2
ENTITIES
  0
INSERT
  5
76
  8
0
  2
STDGX5
 10
0.0
 20
0.0
 30
0.0
  0
INSERT
  5
80
  8
0
  2
STDGX5
 10
0.0
 20
0.0
 30
0.0
  0
INSERT
  5
81
  8
0
  2
STDGX5
 10
0.0
 20
0.0
 30
0.0
  0
LINE
  5
82
  8
0
 10
131.892
 20
66.219999999999985
 30
0.0
 11
139.892
 21
66.219999999999985
 31
0.0
  0
LINE
  5
83
  8
0
 10
139.892
 20
66.219999999999985
 30
0.0
 11
139.892
 21
73.780000000000001
 31
0.0
  0
LINE
  5
84
  8
0
 10
139.892
 20
73.780000000000001
 30
0.0
 11
131.892
 21
73.780000000000001
 31
0.0
  0
LINE
  5
85
  8
0
 10
131.892
 20
73.780000000000001
 30
0.0
 11
131.892
 21
66.219999999999985
 31
0.0
  0
LINE
  5
86
  8
1
 10
47.023468999999999
 20
70.0
 30
0.0
 11
141.892
 21
70.0
 31
0.0
  0
LINE
  5
87
  8
0
 10
130.392
 20
75.0
 30
0.0
 11
130.392
 21
65.0
 31
0.0
  0
LINE
  5
88
  8
0
 10
64.962000000000003
 20
54.625
 30
0.0
 11
64.962000000000003
 21
85.374999999999986
 31
0.0
  0
LINE
  5
89
  8
0
 10
130.392
 20
65.0
 30
0.0
 11
65.561999999999998
 21
65.0
 31
0.0
  0
LINE
  5
8A
  8
0
 10
65.561999999999998
 20
75.0
 30
0.0
 11
130.392
 21
75.0
 31
0.0
  0
LINE
  5
8B
  8
3
 10
130.86080799999999
 20
74.188000000000002
 30
0.0
 11
69.721999999999994
 21
74.188000000000002
 31
0.0
  0
LINE
  5
8C
  8
3
 10
130.86080799999999
 20
65.811999999999983
 30
0.0
 11
69.721999999999994
 21
65.811999999999983
 31
0.0
  0
LINE
  5
8D
  8
0
 10
131.69103799999999
 20
72.75
 30
0.0
 11
130.392
 21
75.0
 31
0.0
  0
LINE
  5
8E
  8
0
 10
131.892
 20
72.75
 30
0.0
 11
131.69103799999999
 21
72.75
 31
0.0
  0
LINE
  5
8F
  8
0
 10
131.892
 20
67.25
 30
0.0
 11
131.69103799999999
 21
67.25
 31
0.0
  0
LINE
  5
90
  8
0
 10
131.69103799999999
 20
67.25
 30
0.0
 11
130.392
 21
65.0
 31
0.0
  0
LINE
  5
91
  8
0
 10
131.69103799999999
 20
72.75
 30
0.0
 11
131.69103799999999
 21
67.25
 31
0.0
  0
CIRCLE
  5
92
  8
3
 10
165.0
 20
70.0
 30
0.0
 40
4.1879999999999988
  0
CIRCLE
  5
93
  8
0
 10
165.0
 20
70.0
 30
0.0
 40
5.0
  0
CIRCLE
  5
94
  8
0
 10
165.0
 20
70.0
 30
0.0
 40
3.7799999999999989
  0
LINE
  5
95
  8
0
 10
53.851999999999997
 20
54.625
 30
0.0
 11
53.851999999999997
 21
85.374999999999986
 31
0.0
  0
LINE
  5
96
  8
0
 10
54.351999999999997
 20
54.125
 30
0.0
 11
64.462000000000003
 21
54.125
 31
0.0
  0
LINE
  5
97
  8
0
 10
54.351999999999997
 20
85.875
 30
0.0
 11
64.462000000000003
 21
85.875
 31
0.0
  0
ARC
  5
98
  8
0
 10
65.561999999999998
 20
64.400000000000006
 30
0.0
 40
0.6
 50
90.0
 51
180.0
  0
ARC
  5
99
  8
0
 10
65.561999999999998
 20
75.599999999999994
 30
0.0
 40
0.6
 50
180.0
 51
270.0
  0
LINE
  5
9A
  8
0
 10
69.721999999999994
 20
65.0
 30
0.0
 11
69.721999999999994
 21
75.0
 31
0.0
  0
LINE
  5
9B
  8
3
 10
69.721999999999994
 20
65.811999999999983
 30
0.0
 11
68.315574999999995
 21
65.0
 31
0.0
  0
LINE
  5
9C
  8
3
 10
69.721999999999994
 20
74.188000000000002
 30
0.0
 11
68.315574999999995
 21
75.0
 31
0.0
  0
LINE
  5
9D
  8
0
 10
54.351999999999997
 20
85.875
 30
0.0
 11
53.851999999999997
 21
85.374999999999986
 31
0.0
  0
LINE
  5
9E
  8
0
 10
64.462000000000003
 20
85.875
 30
0.0
 11
64.962000000000003
 21
85.374999999999986
 31
0.0
  0
LINE
  5
9F
  8
0
 10
64.962000000000003
 20
54.625
 30
0.0
 11
64.462000000000003
 21
54.125
 31
0.0
  0
LINE
  5
A0
  8
0
 10
54.351999999999997
 20
54.125
 30
0.0
 11
53.851999999999997
 21
54.625
 31
0.0
  0
LINE
  5
A1
  8
0
 10
54.351999999999997
 20
54.125
 30
0.0
 11
54.351999999999997
 21
85.875
 31
0.0
  0
LINE
  5
A2
  8
0
 10
64.462000000000003
 20
85.875
 30
0.0
 11
64.462000000000003
 21
54.125
 31
0.0
  0
INSERT
  5
A3
  8
3
  2
*X1
 10
-16.335864000000001
 20
8.0077809999999996
 30
0.0
  0
CIRCLE
  5
A4
  8
0
 10
165.0
 20
70.0
 30
0.0
 40
15.875
  0
CIRCLE
  5
A5
  8
0
 10
165.0
 20
70.0
 30
0.0
 40
15.375
  0
LINE
  5
A6
  8
1
 10
165.0
 20
87.874999999999986
 30
0.0
 11
165.0
 21
52.125
 31
0.0
  0
LINE
  5
A7
  8
1
 10
182.875
 20
70.0
 30
0.0
 11
147.125
 21
70.0
 31
0.0
  0
LINE
  5
A8
  8
1
 10
37.875
 20
70.0
 30
0.0
 11
2.125
 21
70.0
 31
0.0
  0
LINE
  5
A9
  8
1
 10
20.0
 20
87.874999999999986
 30
0.0
 11
20.0
 21
52.125
 31
0.0
  0
CIRCLE
  5
AA
  8
0
 10
20.0
 20
70.0
 30
0.0
 40
15.375
  0
CIRCLE
  5
AB
  8
0
 10
20.0
 20
70.0
 30
0.0
 40
15.875
  0
TEXT
  5
1C3
  8
0
 62
     3
 10
0.0
 20
0.0
 30
0.0
 40
10.0
  1
BJ737-10075A
  7
STANDARD1
  0
ENDSEC
  0
EOF
