  0
SECTION
  2
HEADER
  9
$ACADVER
  1
AC1009
  9
$INSBASE
 10
82.638099999999994
 20
103.82319099999999
 30
0.0
  9
$EXTMIN
 10
0.0
 20
-2.960436562073669
 30
0.0
  9
$EXTMAX
 10
171.285
 20
86.284999999999997
 30
0.0
  9
$LIMMIN
 10
0.0
 20
0.0
  9
$LIMMAX
 10
187.5
 20
135.0
  9
$ORTHOMODE
 70
     1
  9
$REGENMODE
 70
     1
  9
$FILLMODE
 70
     1
  9
$QTEXTMODE
 70
     0
  9
$MIRRTEXT
 70
     0
  9
$DRAGMODE
 70
     2
  9
$LTSCALE
 40
5.0
  9
$OSMODE
 70
  3071
  9
$ATTMODE
 70
     1
  9
$TEXTSIZE
 40
0.06
  9
$TRACEWID
 40
0.05
  9
$TEXTSTYLE
  7
STANDARD
  9
$CLAYER
  8
0
  9
$CELTYPE
  6
BYLAYER
  9
$CECOLOR
 62
   256
  9
$DIMSCALE
 40
0.5
  9
$DIMASZ
 40
3.0
  9
$DIMEXO
 40
2.0
  9
$DIMDLI
 40
10.0
  9
$DIMRND
 40
0.0
  9
$DIMDLE
 40
0.0
  9
$DIMEXE
 40
2.0
  9
$DIMTP
 40
0.0
  9
$DIMTM
 40
0.0
  9
$DIMTXT
 40
3.0
  9
$DIMCEN
 40
0.0
  9
$DIMTSZ
 40
0.0
  9
$DIMTOL
 70
     0
  9
$DIMLIM
 70
     0
  9
$DIMTIH
 70
     0
  9
$DIMTOH
 70
     0
  9
$DIMSE1
 70
     0
  9
$DIMSE2
 70
     0
  9
$DIMTAD
 70
     1
  9
$DIMZIN
 70
     0
  9
$DIMBLK
  1

  9
$DIMASO
 70
     0
  9
$DIMSHO
 70
     0
  9
$DIMPOST
  1

  9
$DIMAPOST
  1

  9
$DIMALT
 70
     0
  9
$DIMALTD
 70
     2
  9
$DIMALTF
 40
25.399999999999999
  9
$DIMLFAC
 40
1.0
  9
$DIMTOFL
 70
     1
  9
$DIMTVP
 40
1.6000000000000001
  9
$DIMTIX
 70
     1
  9
$DIMSOXD
 70
     0
  9
$DIMSAH
 70
     0
  9
$DIMBLK1
  1

  9
$DIMBLK2
  1

  9
$DIMSTYLE
  2
STANDARD
  9
$DIMCLRD
 70
     0
  9
$DIMCLRE
 70
     0
  9
$DIMCLRT
 70
     0
  9
$DIMTFAC
 40
1.0
  9
$DIMGAP
 40
0.09
  9
$LUNITS
 70
     2
  9
$LUPREC
 70
     4
  9
$SKETCHINC
 40
0.1
  9
$FILLETRAD
 40
0.4
  9
$AUNITS
 70
     0
  9
$AUPREC
 70
     4
  9
$MENU
  1
E:\r13\win\SUPPORT\ACAD
  9
$ELEVATION
 40
0.0
  9
$PELEVATION
 40
0.0
  9
$THICKNESS
 40
0.0
  9
$LIMCHECK
 70
     0
  9
$BLIPMODE
 70
     0
  9
$CHAMFERA
 40
0.0
  9
$CHAMFERB
 40
0.0
  9
$SKPOLY
 70
     0
  9
$TDCREATE
 40
2449840.5888773152
  9
$TDUPDATE
 40
2456597.7004812621
  9
$TDINDWG
 40
0.0009001852
  9
$TDUSRTIMER
 40
0.0009001852
  9
$USRTIMER
 70
     1
  9
$ANGBASE
 50
0.0
  9
$ANGDIR
 70
     0
  9
$PDMODE
 70
     1
  9
$PDSIZE
 40
0.0
  9
$PLINEWID
 40
0.0
  9
$COORDS
 70
     1
  9
$SPLFRAME
 70
     0
  9
$SPLINETYPE
 70
     6
  9
$SPLINESEGS
 70
     8
  9
$ATTDIA
 70
     0
  9
$ATTREQ
 70
     1
  9
$HANDLING
 70
     1
  9
$HANDSEED
  5
247
  9
$SURFTAB1
 70
     6
  9
$SURFTAB2
 70
     6
  9
$SURFTYPE
 70
     6
  9
$SURFU
 70
     6
  9
$SURFV
 70
     6
  9
$UCSNAME
  2

  9
$UCSORG
 10
0.0
 20
0.0
 30
0.0
  9
$UCSXDIR
 10
1.0
 20
0.0
 30
0.0
  9
$UCSYDIR
 10
0.0
 20
1.0
 30
0.0
  9
$PUCSNAME
  2

  9
$PUCSORG
 10
0.0
 20
0.0
 30
0.0
  9
$PUCSXDIR
 10
1.0
 20
0.0
 30
0.0
  9
$PUCSYDIR
 10
0.0
 20
1.0
 30
0.0
  9
$USERI1
 70
     3
  9
$USERI2
 70
     1
  9
$USERI3
 70
     0
  9
$USERI4
 70
     0
  9
$USERI5
 70
     0
  9
$USERR1
 40
0.5
  9
$USERR2
 40
3.0
  9
$USERR3
 40
3.0
  9
$USERR4
 40
3.0
  9
$USERR5
 40
10.0
  9
$WORLDVIEW
 70
     1
  9
$SHADEDGE
 70
     3
  9
$SHADEDIF
 70
    70
  9
$TILEMODE
 70
     1
  9
$MAXACTVP
 70
    16
  9
$PLIMCHECK
 70
     0
  9
$PEXTMIN
 10
1.0000000000000000E+020
 20
1.0000000000000000E+020
 30
1.0000000000000000E+020
  9
$PEXTMAX
 10
-1.0000000000000000E+020
 20
-1.0000000000000000E+020
 30
-1.0000000000000000E+020
  9
$PLIMMIN
 10
0.0
 20
0.0
  9
$PLIMMAX
 10
12.0
 20
9.0
  9
$UNITMODE
 70
     0
  9
$VISRETAIN
 70
     0
  9
$PLINEGEN
 70
     0
  9
$PSLTSCALE
 70
     0
  0
ENDSEC
  0
SECTION
  2
TABLES
  0
TABLE
  2
VPORT
 70
     1
  0
VPORT
  2
*ACTIVE
 70
     0
 10
0.0
 20
0.0
 11
1.0
 21
1.0
 12
97.570150770051072
 22
66.014785922033241
 13
0.0
 23
0.0
 14
5.0
 24
5.0
 15
10.0
 25
10.0
 16
0.0
 26
0.0
 36
1.0
 17
0.0
 27
0.0
 37
0.0
 40
139.20783109903601
 41
1.831871345029239
 42
50.0
 43
0.0
 44
0.0
 50
0.0
 51
0.0
 71
     0
 72
   100
 73
     1
 74
     0
 75
     1
 76
     0
 77
     0
 78
     2
  0
ENDTAB
  0
TABLE
  2
LTYPE
 70
     3
  0
LTYPE
  2
CONTINUOUS
 70
     0
  3
Solid Line
 72
    65
 73
     0
 40
0.0
  0
LTYPE
  2
CENTER
 70
     0
  3
____ _ ____ _ ____ _ ____ _ ____ _ ____ _ ____
 72
    65
 73
     4
 40
2.0
 49
1.25
 49
-0.25
 49
0.25
 49
-0.25
  0
LTYPE
  2
PHANTOM2
 70
     0
  3
___ _ _ ___ _ _ ___ _ _ ___ _ _
 72
    65
 73
     6
 40
1.25
 49
0.625
 49
-0.125
 49
0.125
 49
-0.125
 49
0.125
 49
-0.125
  0
ENDTAB
  0
TABLE
  2
LAYER
 70
     3
  0
LAYER
  2
0
 70
     0
 62
     7
  6
CONTINUOUS
  0
LAYER
  2
1
 70
     0
 62
     1
  6
CENTER
  0
LAYER
  2
3
 70
     0
 62
     3
  6
CONTINUOUS
  0
ENDTAB
  0
TABLE
  2
STYLE
 70
     2
  0
STYLE
  2
STANDARD
 70
     0
 40
0.0
 41
1.0
 50
0.0
 71
     0
 42
0.06
  3
TXT
  4
BIGFONT
  0
STYLE
  2
STANDARD1
 70
     0
 40
0.0
 41
1.0
 50
0.0
 71
     0
 42
3.0
  3
txt
  4

  0
ENDTAB
  0
TABLE
  2
VIEW
 70
     0
  0
ENDTAB
  0
TABLE
  2
UCS
 70
     0
  0
ENDTAB
  0
TABLE
  2
APPID
 70
     3
  0
APPID
  2
ACAD
 70
     0
  0
APPID
  2
ACAD_MLEADERVER
 70
     0
  0
APPID
  2
ACAD_NAV_VCDISPLAY
 70
     0
  0
ENDTAB
  0
TABLE
  2
DIMSTYLE
 70
     1
  0
DIMSTYLE
  2
STANDARD
 70
     0
  3

  4

  5

  6

  7

 40
1.0
 41
0.18
 42
0.0625
 43
0.38
 44
0.18
 45
0.0
 46
0.0
 47
0.0
 48
0.0
140
0.18
141
0.09
142
0.0
143
25.399999999999999
144
1.0
145
0.0
146
1.0
147
0.09
 71
     0
 72
     0
 73
     1
 74
     1
 75
     0
 76
     0
 77
     0
 78
     0
170
     0
171
     2
172
     0
173
     0
174
     0
175
     0
176
     0
177
     0
178
     0
  0
ENDTAB
  0
ENDSEC
  0
SECTION
  2
BLOCKS
  0
BLOCK
  8
0
  2
$MODEL_SPACE
 70
     0
 10
0.0
 20
0.0
 30
0.0
  3
$MODEL_SPACE
  1

  0
ENDBLK
  5
101
  8
0
  0
BLOCK
 67
     1
  8
0
  2
$PAPER_SPACE
 70
     0
 10
0.0
 20
0.0
 30
0.0
  3
$PAPER_SPACE
  1

  0
ENDBLK
  5
FF
 67
     1
  8
0
  0
BLOCK
  8
0
  2
STDGX5
 70
     0
 10
0.0
 20
0.0
 30
0.0
  3
STDGX5
  1

  0
ENDBLK
  5
2C
  8
0
  0
BLOCK
  8
0
  2
*X1
 70
     1
 10
0.0
 20
0.0
 30
0.0
  3
*X1
  1

  0
LINE
  5
39
  8
0
 62
     0
 10
80.108365000000006
 20
43.338813000000002
 30
0.0
 11
88.628365000000002
 21
51.858812999999998
 31
0.0
  0
LINE
  5
3A
  8
0
 62
     0
 10
80.108365000000006
 20
44.753025999999998
 30
0.0
 11
88.628365000000002
 21
53.273026000000002
 31
0.0
  0
LINE
  5
3B
  8
0
 62
     0
 10
80.108365000000006
 20
46.16724
 30
0.0
 11
88.628365000000002
 21
54.687240000000003
 31
0.0
  0
LINE
  5
3C
  8
0
 62
     0
 10
80.108365000000006
 20
47.581453000000003
 30
0.0
 11
88.628365000000002
 21
56.101452999999999
 31
0.0
  0
LINE
  5
3D
  8
0
 62
     0
 10
80.108365000000006
 20
48.995666999999997
 30
0.0
 11
88.628365000000002
 21
57.515667000000008
 31
0.0
  0
LINE
  5
3E
  8
0
 62
     0
 10
80.108365000000006
 20
50.409880999999992
 30
0.0
 11
88.628365000000002
 21
58.929881000000009
 31
0.0
  0
LINE
  5
3F
  8
0
 62
     0
 10
80.108365000000006
 20
51.824094000000002
 30
0.0
 11
88.628365000000002
 21
60.344093999999991
 31
0.0
  0
LINE
  5
40
  8
0
 62
     0
 10
80.108365000000006
 20
53.238307999999989
 30
0.0
 11
88.320447999999999
 21
61.450391000000003
 31
0.0
  0
LINE
  5
41
  8
0
 62
     0
 10
80.108365000000006
 20
54.652520999999993
 30
0.0
 11
86.906234999999995
 21
61.450391000000003
 31
0.0
  0
LINE
  5
42
  8
0
 62
     0
 10
80.108365000000006
 20
56.066734999999987
 30
0.0
 11
85.492020999999994
 21
61.450391000000003
 31
0.0
  0
LINE
  5
43
  8
0
 62
     0
 10
80.108365000000006
 20
57.480947999999998
 30
0.0
 11
84.07780799999999
 21
61.450391000000003
 31
0.0
  0
LINE
  5
44
  8
0
 62
     0
 10
80.108365000000006
 20
58.895161999999999
 30
0.0
 11
82.663593999999975
 21
61.450391000000003
 31
0.0
  0
LINE
  5
45
  8
0
 62
     0
 10
80.108365000000006
 20
60.309376
 30
0.0
 11
81.249380000000002
 21
61.450391000000003
 31
0.0
  0
LINE
  5
46
  8
0
 62
     0
 10
80.108365000000006
 20
41.924599000000001
 30
0.0
 11
88.628365000000002
 21
50.44459899999999
 31
0.0
  0
LINE
  5
47
  8
0
 62
     0
 10
80.108365000000006
 20
40.510385999999997
 30
0.0
 11
88.628365000000002
 21
49.030386
 31
0.0
  0
LINE
  5
48
  8
0
 62
     0
 10
80.108365000000006
 20
39.096171999999989
 30
0.0
 11
88.628365000000002
 21
47.616171999999992
 31
0.0
  0
LINE
  5
49
  8
0
 62
     0
 10
80.108365000000006
 20
37.681958999999999
 30
0.0
 11
88.628365000000002
 21
46.201959000000002
 31
0.0
  0
LINE
  5
4A
  8
0
 62
     0
 10
80.108365000000006
 20
36.267744999999998
 30
0.0
 11
88.628365000000002
 21
44.787745000000001
 31
0.0
  0
LINE
  5
4B
  8
0
 62
     0
 10
80.108365000000006
 20
34.853530999999997
 30
0.0
 11
88.628365000000002
 21
43.373531
 31
0.0
  0
LINE
  5
4C
  8
0
 62
     0
 10
80.108365000000006
 20
33.439318
 30
0.0
 11
88.628365000000002
 21
41.959317999999989
 31
0.0
  0
LINE
  5
4D
  8
0
 62
     0
 10
80.963651999999996
 20
32.880391000000003
 30
0.0
 11
88.628365000000002
 21
40.545103999999988
 31
0.0
  0
LINE
  5
4E
  8
0
 62
     0
 10
82.377865
 20
32.880391000000003
 30
0.0
 11
88.628365000000002
 21
39.130890999999998
 31
0.0
  0
LINE
  5
4F
  8
0
 62
     0
 10
83.792079000000001
 20
32.880391000000003
 30
0.0
 11
88.628365000000002
 21
37.716676999999997
 31
0.0
  0
LINE
  5
50
  8
0
 62
     0
 10
85.206292000000005
 20
32.880391000000003
 30
0.0
 11
88.628365000000002
 21
36.302464000000001
 31
0.0
  0
LINE
  5
51
  8
0
 62
     0
 10
86.620506000000006
 20
32.880391000000003
 30
0.0
 11
88.628365000000002
 21
34.888249999999999
 31
0.0
  0
LINE
  5
52
  8
0
 62
     0
 10
88.034719999999993
 20
32.880391000000003
 30
0.0
 11
88.628365000000002
 21
33.474035999999998
 31
0.0
  0
LINE
  5
53
  8
0
 62
     0
 10
88.628365000000002
 20
42.893495999999999
 30
0.0
 11
80.108365000000006
 21
51.413496000000002
 31
0.0
  0
LINE
  5
54
  8
0
 62
     0
 10
88.628365000000002
 20
41.479281999999991
 30
0.0
 11
80.108365000000006
 21
49.999282000000001
 31
0.0
  0
LINE
  5
55
  8
0
 62
     0
 10
88.628365000000002
 20
40.065069000000001
 30
0.0
 11
80.108365000000006
 21
48.585068999999997
 31
0.0
  0
LINE
  5
56
  8
0
 62
     0
 10
88.628365000000002
 20
38.650855
 30
0.0
 11
80.108365000000006
 21
47.170854999999989
 31
0.0
  0
LINE
  5
57
  8
0
 62
     0
 10
88.628365000000002
 20
37.236642000000003
 30
0.0
 11
80.108365000000006
 21
45.756641999999999
 31
0.0
  0
LINE
  5
58
  8
0
 62
     0
 10
88.628365000000002
 20
35.822428000000002
 30
0.0
 11
80.108365000000006
 21
44.342427999999998
 31
0.0
  0
LINE
  5
59
  8
0
 62
     0
 10
88.628365000000002
 20
34.408215000000013
 30
0.0
 11
80.108365000000006
 21
42.928215000000002
 31
0.0
  0
LINE
  5
5A
  8
0
 62
     0
 10
88.628365000000002
 20
32.994001000000011
 30
0.0
 11
80.108365000000006
 21
41.514001
 31
0.0
  0
LINE
  5
5B
  8
0
 62
     0
 10
87.327761999999993
 20
32.880391000000003
 30
0.0
 11
80.108365000000006
 21
40.099786999999999
 31
0.0
  0
LINE
  5
5C
  8
0
 62
     0
 10
85.913549000000003
 20
32.880391000000003
 30
0.0
 11
80.108365000000006
 21
38.685574000000003
 31
0.0
  0
LINE
  5
5D
  8
0
 62
     0
 10
84.499335000000002
 20
32.880391000000003
 30
0.0
 11
80.108365000000006
 21
37.271360000000001
 31
0.0
  0
LINE
  5
5E
  8
0
 62
     0
 10
83.085121999999998
 20
32.880391000000003
 30
0.0
 11
80.108365000000006
 21
35.857146999999998
 31
0.0
  0
LINE
  5
5F
  8
0
 62
     0
 10
81.670907999999997
 20
32.880391000000003
 30
0.0
 11
80.108365000000006
 21
34.442932999999996
 31
0.0
  0
LINE
  5
60
  8
0
 62
     0
 10
80.256693999999996
 20
32.880391000000003
 30
0.0
 11
80.108365000000006
 21
33.02872
 31
0.0
  0
LINE
  5
61
  8
0
 62
     0
 10
88.628365000000002
 20
44.307709000000003
 30
0.0
 11
80.108365000000006
 21
52.827708999999999
 31
0.0
  0
LINE
  5
62
  8
0
 62
     0
 10
88.628365000000002
 20
45.721922999999997
 30
0.0
 11
80.108365000000006
 21
54.241923
 31
0.0
  0
LINE
  5
63
  8
0
 62
     0
 10
88.628365000000002
 20
47.136136999999991
 30
0.0
 11
80.108365000000006
 21
55.656137000000001
 31
0.0
  0
LINE
  5
64
  8
0
 62
     0
 10
88.628365000000002
 20
48.550350000000002
 30
0.0
 11
80.108365000000006
 21
57.070349999999998
 31
0.0
  0
LINE
  5
65
  8
0
 62
     0
 10
88.628365000000002
 20
49.964564000000003
 30
0.0
 11
80.108365000000006
 21
58.484563999999992
 31
0.0
  0
LINE
  5
66
  8
0
 62
     0
 10
88.628365000000002
 20
51.378776999999999
 30
0.0
 11
80.108365000000006
 21
59.898777000000003
 31
0.0
  0
LINE
  5
67
  8
0
 62
     0
 10
88.628365000000002
 20
52.792991000000001
 30
0.0
 11
80.108365000000006
 21
61.312990999999997
 31
0.0
  0
LINE
  5
68
  8
0
 62
     0
 10
88.628365000000002
 20
54.207203999999997
 30
0.0
 11
81.385179000000008
 21
61.450391000000003
 31
0.0
  0
LINE
  5
69
  8
0
 62
     0
 10
88.628365000000002
 20
55.621417999999998
 30
0.0
 11
82.799392999999995
 21
61.450391000000003
 31
0.0
  0
LINE
  5
6A
  8
0
 62
     0
 10
88.628365000000002
 20
57.035631999999993
 30
0.0
 11
84.213605999999984
 21
61.450391000000003
 31
0.0
  0
LINE
  5
6B
  8
0
 62
     0
 10
88.628365000000002
 20
58.449844999999989
 30
0.0
 11
85.62782
 21
61.450391000000003
 31
0.0
  0
LINE
  5
6C
  8
0
 62
     0
 10
88.628365000000002
 20
59.864058999999997
 30
0.0
 11
87.042032999999989
 21
61.450391000000003
 31
0.0
  0
LINE
  5
6D
  8
0
 62
     0
 10
88.628365000000002
 20
61.278271999999987
 30
0.0
 11
88.456247000000005
 21
61.450391000000003
 31
0.0
  0
ENDBLK
  5
6E
  8
0
  0
ENDSEC
  0
SECTION
  2
ENTITIES
  0
INSERT
  5
6F
  8
0
  2
STDGX5
 10
0.0
 20
0.0
 30
0.0
  0
INSERT
  5
79
  8
0
  2
STDGX5
 10
0.0
 20
0.0
 30
0.0
  0
INSERT
  5
7A
  8
0
  2
STDGX5
 10
0.0
 20
0.0
 30
0.0
  0
LINE
  5
7B
  8
1
 10
58.020032999999991
 20
70.0
 30
0.0
 11
123.872906
 21
70.0
 31
0.0
  0
LINE
  5
7C
  8
0
 10
60.588000000000001
 20
83.784999999999997
 30
0.0
 11
60.588000000000001
 21
56.215000000000011
 31
0.0
  0
LINE
  5
7D
  8
0
 10
70.108000000000004
 20
83.784999999999997
 30
0.0
 11
70.108000000000004
 21
56.215000000000011
 31
0.0
  0
LINE
  5
7E
  8
0
 10
61.088000000000001
 20
84.284999999999997
 30
0.0
 11
69.608000000000004
 21
84.284999999999997
 31
0.0
  0
LINE
  5
7F
  8
0
 10
61.088000000000001
 20
55.715000000000003
 30
0.0
 11
69.608000000000004
 21
55.715000000000003
 31
0.0
  0
LINE
  5
80
  8
0
 10
113.196
 20
67.75
 30
0.0
 11
113.196
 21
72.25
 31
0.0
  0
LINE
  5
81
  8
0
 10
114.81399999999999
 20
67.75
 30
0.0
 11
113.196
 21
67.75
 31
0.0
  0
LINE
  5
82
  8
0
 10
114.81399999999999
 20
72.25
 30
0.0
 11
113.196
 21
72.25
 31
0.0
  0
LINE
  5
83
  8
3
 10
112.1225
 20
73.323499999999996
 30
0.0
 11
74.867999999999995
 21
73.323499999999996
 31
0.0
  0
LINE
  5
84
  8
3
 10
112.1225
 20
66.676500000000004
 30
0.0
 11
74.867999999999995
 21
66.676500000000004
 31
0.0
  0
LINE
  5
85
  8
0
 10
70.507999999999996
 20
74.0
 30
0.0
 11
111.446
 21
74.0
 31
0.0
  0
LINE
  5
86
  8
0
 10
111.446
 20
66.0
 30
0.0
 11
70.507999999999996
 21
66.0
 31
0.0
  0
LINE
  5
87
  8
0
 10
111.446
 20
74.0
 30
0.0
 11
111.446
 21
66.0
 31
0.0
  0
LINE
  5
88
  8
0
 10
111.446
 20
74.0
 30
0.0
 11
113.196
 21
72.25
 31
0.0
  0
LINE
  5
89
  8
0
 10
113.196
 20
67.75
 30
0.0
 11
111.446
 21
66.0
 31
0.0
  0
LINE
  5
8A
  8
0
 10
74.867999999999995
 20
74.0
 30
0.0
 11
74.867999999999995
 21
66.0
 31
0.0
  0
LINE
  5
8B
  8
3
 10
74.867999999999995
 20
66.676500000000004
 30
0.0
 11
73.696268000000003
 21
66.0
 31
0.0
  0
LINE
  5
8C
  8
3
 10
74.867999999999995
 20
73.323499999999996
 30
0.0
 11
73.696268000000003
 21
74.0
 31
0.0
  0
ARC
  5
8D
  8
0
 10
70.507999999999996
 20
65.599999999999994
 30
0.0
 40
0.4
 50
90.0
 51
180.0
  0
ARC
  5
8E
  8
0
 10
70.507999999999996
 20
74.400000000000006
 30
0.0
 40
0.4
 50
180.0
 51
270.0
  0
LINE
  5
8F
  8
0
 10
61.088000000000001
 20
84.284999999999997
 30
0.0
 11
60.588000000000001
 21
83.784999999999997
 31
0.0
  0
LINE
  5
90
  8
0
 10
60.588000000000001
 20
56.215000000000011
 30
0.0
 11
61.088000000000001
 21
55.715000000000003
 31
0.0
  0
LINE
  5
91
  8
0
 10
70.108000000000004
 20
56.215000000000011
 30
0.0
 11
69.608000000000004
 21
55.715000000000003
 31
0.0
  0
LINE
  5
92
  8
0
 10
70.108000000000004
 20
83.784999999999997
 30
0.0
 11
69.608000000000004
 21
84.284999999999997
 31
0.0
  0
LINE
  5
93
  8
0
 10
69.608000000000004
 20
84.284999999999997
 30
0.0
 11
69.608000000000004
 21
55.715000000000003
 31
0.0
  0
LINE
  5
94
  8
0
 10
61.088000000000001
 20
55.715000000000003
 30
0.0
 11
61.088000000000001
 21
84.284999999999997
 31
0.0
  0
INSERT
  5
95
  8
3
  2
*X1
 10
-19.020365000000002
 20
22.834609
 30
0.0
  0
CIRCLE
  5
96
  8
0
 10
155.0
 20
70.0
 30
0.0
 40
14.285
  0
CIRCLE
  5
97
  8
0
 10
155.0
 20
70.0
 30
0.0
 40
13.785
  0
LINE
  5
98
  8
1
 10
155.0
 20
86.284999999999997
 30
0.0
 11
155.0
 21
53.715000000000011
 31
0.0
  0
LINE
  5
99
  8
1
 10
171.285
 20
70.0
 30
0.0
 11
138.715
 21
70.0
 31
0.0
  0
CIRCLE
  5
9A
  8
0
 10
30.0
 20
70.0
 30
0.0
 40
13.785
  0
CIRCLE
  5
9B
  8
0
 10
30.0
 20
70.0
 30
0.0
 40
14.285
  0
LINE
  5
9C
  8
1
 10
30.0
 20
86.284999999999997
 30
0.0
 11
30.0
 21
53.715000000000011
 31
0.0
  0
LINE
  5
9D
  8
1
 10
46.284999999999989
 20
70.0
 30
0.0
 11
13.715
 21
70.0
 31
0.0
  0
ARC
  5
9E
  8
0
 10
117.959
 20
70.0
 30
0.0
 40
3.964999999999999
 50
217.515332
 51
142.484668
  0
LINE
  5
9F
  8
0
 10
114.81399999999999
 20
72.414581000000013
 30
0.0
 11
114.81399999999999
 21
67.585418999999987
 31
0.0
  0
CIRCLE
  5
A0
  8
0
 10
155.0
 20
70.0
 30
0.0
 40
3.964999999999999
  0
TEXT
  5
1B8
  8
0
 62
     3
 10
0.0
 20
0.0
 30
0.0
 40
10.0
  1
BJ737-08050C
  7
STANDARD1
  0
ENDSEC
  0
EOF
