  0
SECTION
  2
HEADER
  9
$ACADVER
  1
AC1009
  9
$INSBASE
 10
0.0
 20
0.0
 30
0.0
  9
$EXTMIN
 10
0.0
 20
-1.4802182810368341
 30
0.0
  9
$EXTMAX
 10
140.7471560171158
 20
144.47725979092311
 30
0.0
  9
$LIMMIN
 10
0.0
 20
0.0
  9
$LIMMAX
 10
187.5
 20
135.0
  9
$ORTHOMODE
 70
     1
  9
$REGENMODE
 70
     1
  9
$FILLMODE
 70
     1
  9
$QTEXTMODE
 70
     0
  9
$MIRRTEXT
 70
     0
  9
$DRAGMODE
 70
     2
  9
$LTSCALE
 40
5.0
  9
$OSMODE
 70
  3071
  9
$ATTMODE
 70
     1
  9
$TEXTSIZE
 40
0.2
  9
$TRACEWID
 40
0.05
  9
$TEXTSTYLE
  7
STANDARD
  9
$CLAYER
  8
0
  9
$CELTYPE
  6
BYLAYER
  9
$CECOLOR
 62
   256
  9
$DIMSCALE
 40
0.5
  9
$DIMASZ
 40
3.0
  9
$DIMEXO
 40
2.0
  9
$DIMDLI
 40
0.38
  9
$DIMRND
 40
0.0
  9
$DIMDLE
 40
0.0
  9
$DIMEXE
 40
2.0
  9
$DIMTP
 40
0.0
  9
$DIMTM
 40
0.0
  9
$DIMTXT
 40
3.2000000000000002
  9
$DIMCEN
 40
0.0
  9
$DIMTSZ
 40
0.0
  9
$DIMTOL
 70
     0
  9
$DIMLIM
 70
     0
  9
$DIMTIH
 70
     0
  9
$DIMTOH
 70
     0
  9
$DIMSE1
 70
     0
  9
$DIMSE2
 70
     0
  9
$DIMTAD
 70
     1
  9
$DIMZIN
 70
     0
  9
$DIMBLK
  1

  9
$DIMASO
 70
     0
  9
$DIMSHO
 70
     0
  9
$DIMPOST
  1

  9
$DIMAPOST
  1

  9
$DIMALT
 70
     0
  9
$DIMALTD
 70
     2
  9
$DIMALTF
 40
25.399999999999999
  9
$DIMLFAC
 40
1.0
  9
$DIMTOFL
 70
     1
  9
$DIMTVP
 40
1.6000000000000001
  9
$DIMTIX
 70
     1
  9
$DIMSOXD
 70
     0
  9
$DIMSAH
 70
     0
  9
$DIMBLK1
  1

  9
$DIMBLK2
  1

  9
$DIMSTYLE
  2
STANDARD
  9
$DIMCLRD
 70
     0
  9
$DIMCLRE
 70
     0
  9
$DIMCLRT
 70
     0
  9
$DIMTFAC
 40
1.0
  9
$DIMGAP
 40
0.09
  9
$LUNITS
 70
     2
  9
$LUPREC
 70
     4
  9
$SKETCHINC
 40
0.1
  9
$FILLETRAD
 40
0.0
  9
$AUNITS
 70
     0
  9
$AUPREC
 70
     4
  9
$MENU
  1
E:\r13\win\SUPPORT\ACAD
  9
$ELEVATION
 40
0.0
  9
$PELEVATION
 40
0.0
  9
$THICKNESS
 40
0.0
  9
$LIMCHECK
 70
     0
  9
$BLIPMODE
 70
     0
  9
$CHAMFERA
 40
0.0
  9
$CHAMFERB
 40
0.0
  9
$SKPOLY
 70
     0
  9
$TDCREATE
 40
2449839.768298611
  9
$TDUPDATE
 40
2456597.6912470828
  9
$TDINDWG
 40
0.0271541435
  9
$TDUSRTIMER
 40
0.0271541435
  9
$USRTIMER
 70
     1
  9
$ANGBASE
 50
0.0
  9
$ANGDIR
 70
     0
  9
$PDMODE
 70
     0
  9
$PDSIZE
 40
0.0
  9
$PLINEWID
 40
0.0
  9
$COORDS
 70
     1
  9
$SPLFRAME
 70
     0
  9
$SPLINETYPE
 70
     6
  9
$SPLINESEGS
 70
     8
  9
$ATTDIA
 70
     0
  9
$ATTREQ
 70
     1
  9
$HANDLING
 70
     1
  9
$HANDSEED
  5
B0C
  9
$SURFTAB1
 70
     6
  9
$SURFTAB2
 70
     6
  9
$SURFTYPE
 70
     6
  9
$SURFU
 70
     6
  9
$SURFV
 70
     6
  9
$UCSNAME
  2

  9
$UCSORG
 10
0.0
 20
0.0
 30
0.0
  9
$UCSXDIR
 10
1.0
 20
0.0
 30
0.0
  9
$UCSYDIR
 10
0.0
 20
1.0
 30
0.0
  9
$PUCSNAME
  2

  9
$PUCSORG
 10
0.0
 20
0.0
 30
0.0
  9
$PUCSXDIR
 10
1.0
 20
0.0
 30
0.0
  9
$PUCSYDIR
 10
0.0
 20
1.0
 30
0.0
  9
$USERI1
 70
     0
  9
$USERI2
 70
     1
  9
$USERI3
 70
     0
  9
$USERI4
 70
     0
  9
$USERI5
 70
     0
  9
$USERR1
 40
0.0
  9
$USERR2
 40
0.0
  9
$USERR3
 40
0.0
  9
$USERR4
 40
0.0
  9
$USERR5
 40
0.0
  9
$WORLDVIEW
 70
     1
  9
$SHADEDGE
 70
     3
  9
$SHADEDIF
 70
    70
  9
$TILEMODE
 70
     1
  9
$MAXACTVP
 70
    16
  9
$PLIMCHECK
 70
     0
  9
$PEXTMIN
 10
1.0000000000000000E+020
 20
1.0000000000000000E+020
 30
1.0000000000000000E+020
  9
$PEXTMAX
 10
-1.0000000000000000E+020
 20
-1.0000000000000000E+020
 30
-1.0000000000000000E+020
  9
$PLIMMIN
 10
0.0
 20
0.0
  9
$PLIMMAX
 10
12.0
 20
9.0
  9
$UNITMODE
 70
     0
  9
$VISRETAIN
 70
     0
  9
$PLINEGEN
 70
     0
  9
$PSLTSCALE
 70
     0
  0
ENDSEC
  0
SECTION
  2
TABLES
  0
TABLE
  2
VPORT
 70
     1
  0
VPORT
  2
*ACTIVE
 70
     0
 10
0.0
 20
0.0
 11
1.0
 21
1.0
 12
97.791619773160335
 22
71.50010664044413
 13
0.0
 23
0.0
 14
5.0
 24
5.0
 15
5.0
 25
5.0
 16
0.0
 26
0.0
 36
1.0
 17
0.0
 27
0.0
 37
0.0
 40
147.2722114902264
 41
1.831871345029239
 42
50.0
 43
0.0
 44
0.0
 50
0.0
 51
0.0
 71
     0
 72
   500
 73
     1
 74
     0
 75
     0
 76
     0
 77
     0
 78
     2
  0
ENDTAB
  0
TABLE
  2
LTYPE
 70
     3
  0
LTYPE
  2
CONTINUOUS
 70
     0
  3
Solid Line
 72
    65
 73
     0
 40
0.0
  0
LTYPE
  2
CENTER
 70
     0
  3
____ _ ____ _ ____ _ ____ _ ____ _ ____ _ ____
 72
    65
 73
     4
 40
2.0
 49
1.25
 49
-0.25
 49
0.25
 49
-0.25
  0
LTYPE
  2
PHANTOM2
 70
     0
  3
___ _ _ ___ _ _ ___ _ _ ___ _ _
 72
    65
 73
     6
 40
1.25
 49
0.625
 49
-0.125
 49
0.125
 49
-0.125
 49
0.125
 49
-0.125
  0
ENDTAB
  0
TABLE
  2
LAYER
 70
     4
  0
LAYER
  2
0
 70
     0
 62
     7
  6
CONTINUOUS
  0
LAYER
  2
1
 70
     0
 62
     1
  6
CENTER
  0
LAYER
  2
3
 70
     0
 62
     3
  6
CONTINUOUS
  0
LAYER
  2
DEFPOINTS
 70
     0
 62
     7
  6
CONTINUOUS
  0
ENDTAB
  0
TABLE
  2
STYLE
 70
     2
  0
STYLE
  2
STANDARD
 70
     0
 40
0.0
 41
1.0
 50
0.0
 71
     0
 42
0.2
  3
TXT
  4
BIGFONT
  0
STYLE
  2
STANDARD1
 70
     0
 40
0.0
 41
1.0
 50
0.0
 71
     0
 42
3.0
  3
txt
  4

  0
ENDTAB
  0
TABLE
  2
VIEW
 70
     1
  0
VIEW
  2
ALL
 70
     0
 40
135.0
 10
110.4957983193277
 20
67.5
 41
0.0
 11
0.0
 21
0.0
 31
1.0
 12
0.0
 22
0.0
 32
0.0
 42
0.0
 43
0.0
 44
0.0
 50
0.0
 71
     0
  0
ENDTAB
  0
TABLE
  2
UCS
 70
     0
  0
ENDTAB
  0
TABLE
  2
APPID
 70
     3
  0
APPID
  2
ACAD
 70
     0
  0
APPID
  2
ACAD_MLEADERVER
 70
     0
  0
APPID
  2
ACAD_NAV_VCDISPLAY
 70
     0
  0
ENDTAB
  0
TABLE
  2
DIMSTYLE
 70
     1
  0
DIMSTYLE
  2
STANDARD
 70
     0
  3

  4

  5

  6

  7

 40
1.0
 41
0.18
 42
0.0625
 43
0.38
 44
0.18
 45
0.0
 46
0.0
 47
0.0
 48
0.0
140
0.18
141
0.09
142
0.0
143
25.399999999999999
144
1.0
145
0.0
146
1.0
147
0.09
 71
     0
 72
     0
 73
     1
 74
     1
 75
     0
 76
     0
 77
     0
 78
     0
170
     0
171
     2
172
     0
173
     0
174
     0
175
     0
176
     0
177
     0
178
     0
  0
ENDTAB
  0
ENDSEC
  0
SECTION
  2
BLOCKS
  0
BLOCK
  8
0
  2
$MODEL_SPACE
 70
     0
 10
0.0
 20
0.0
 30
0.0
  3
$MODEL_SPACE
  1

  0
ENDBLK
  5
13D
  8
0
  0
BLOCK
 67
     1
  8
0
  2
$PAPER_SPACE
 70
     0
 10
0.0
 20
0.0
 30
0.0
  3
$PAPER_SPACE
  1

  0
ENDBLK
  5
13B
 67
     1
  8
0
  0
ENDSEC
  0
SECTION
  2
ENTITIES
  0
LINE
  5
826
  8
0
 10
108.74715635984229
 20
67.130870780089765
 30
0.0
 11
137.74715552537751
 21
67.130870780089765
 31
0.0
  0
LINE
  5
827
  8
0
 10
108.74715635984229
 20
67.130870780089765
 30
0.0
 11
108.24715627788591
 21
66.842195648347854
 31
0.0
  0
LINE
  5
828
  8
0
 10
108.24715627788601
 20
61.419545801469951
 30
0.0
 11
108.24715627788591
 21
66.842195648347854
 31
0.0
  0
LINE
  5
829
  8
0
 10
108.24715627788601
 20
61.419545801469951
 30
0.0
 11
108.74715635984241
 21
61.130870727935701
 31
0.0
  0
ARC
  5
82A
  8
0
 10
108.5540321636678
 20
58.638341300623729
 30
0.0
 40
2.5000000000000142
 50
332.93518072629041
 51
85.569515066945016
  0
ARC
  5
82B
  8
0
 10
123.24715594260989
 20
51.130870780089801
 30
0.0
 40
14.00000000000002
 50
152.93518072629041
 51
167.6263680472762
  0
ARC
  5
82C
  8
0
 10
137.940279721552
 20
58.63834130062385
 30
0.0
 40
2.5000000000000142
 50
94.43048493305578
 51
207.0648192737099
  0
LINE
  5
82D
  8
0
 10
137.74715552537731
 20
61.130870727935807
 30
0.0
 11
138.2471556073337
 21
61.419545801470072
 31
0.0
  0
LINE
  5
82E
  8
0
 10
138.2471556073337
 20
66.842195648347968
 30
0.0
 11
138.2471556073337
 21
61.419545801470072
 31
0.0
  0
LINE
  5
82F
  8
0
 10
138.2471556073337
 20
66.842195648347968
 30
0.0
 11
137.74715552537731
 21
67.130870780089879
 31
0.0
  0
LINE
  5
83D
  8
0
 10
108.24715627788601
 20
54.130872411766909
 30
0.0
 11
105.7471558681041
 21
49.8007449117693
 31
0.0
  0
LINE
  5
83E
  8
0
 10
105.7471558681042
 20
29.130871107915311
 30
0.0
 11
105.7471558681041
 21
49.8007449117693
 31
0.0
  0
LINE
  5
83F
  8
0
 10
105.7471558681042
 20
29.130871107915311
 30
0.0
 11
107.7471561959297
 21
27.130870780089769
 31
0.0
  0
LINE
  5
840
  8
0
 10
107.7471561959297
 20
27.130870780089769
 30
0.0
 11
138.7471556892902
 21
27.130870780089879
 31
0.0
  0
LINE
  5
841
  8
0
 10
138.7471556892902
 20
27.130870780089879
 30
0.0
 11
140.7471560171158
 21
29.130871107915429
 31
0.0
  0
LINE
  5
842
  8
0
 10
140.74715601711571
 20
49.800744911769407
 30
0.0
 11
140.7471560171158
 21
29.130871107915429
 31
0.0
  0
LINE
  5
843
  8
0
 10
140.74715601711571
 20
49.800744911769407
 30
0.0
 11
138.2471556073337
 21
54.130872411767029
 31
0.0
  0
CIRCLE
  5
850
  8
3
 10
49.350389462435743
 20
121.977259790923
 30
0.0
 40
10.00000000000003
  0
CIRCLE
  5
853
  8
0
 10
49.350389462435771
 20
121.977259790923
 30
0.0
 40
8.7499999999999716
  0
CIRCLE
  5
855
  8
0
 10
49.350389462435743
 20
121.977259790923
 30
0.0
 40
14.49999999999997
  0
CIRCLE
  5
85C
  8
0
 10
49.350389462435828
 20
121.9772597909231
 30
0.0
 40
17.5
  0
LINE
  5
88B
  8
0
 10
63.850389462435821
 20
61.130870780089872
 30
0.0
 11
34.850389462435771
 21
61.130870780089772
 31
0.0
  0
LINE
  5
88C
  8
0
 10
32.029881386747043
 20
62.759291876840173
 30
0.0
 11
32.029881386747043
 21
65.502449683339336
 31
0.0
  0
LINE
  5
88F
  8
0
 10
66.670897538124564
 20
62.759291876840308
 30
0.0
 11
66.670897538124564
 21
65.502449683339449
 31
0.0
  0
LINE
  5
890
  8
0
 10
40.690135424591404
 20
62.75929187684013
 30
0.0
 11
40.690135424591404
 21
65.502449683339307
 31
0.0
  0
LINE
  5
892
  8
0
 10
58.010643500280132
 20
62.759291876840187
 30
0.0
 11
58.010643500280132
 21
65.502449683339393
 31
0.0
  0
LINE
  5
893
  8
0
 10
34.850389462435771
 20
67.130870780089765
 30
0.0
 11
63.850389462435771
 21
67.130870780089879
 31
0.0
  0
LINE
  5
897
  8
0
 10
64.850389462435942
 20
27.130872400217331
 30
0.0
 11
33.850389462435942
 21
27.130872400217211
 31
0.0
  0
LINE
  5
898
  8
0
 10
31.850389462435889
 20
29.130872400217221
 30
0.0
 11
66.850389462435999
 21
29.13087240021736
 31
0.0
  0
LINE
  5
89A
  8
0
 10
34.350389462435771
 20
54.130872400217129
 30
0.0
 11
64.350389462435828
 21
54.130872400217349
 31
0.0
  0
LINE
  5
89B
  8
0
 10
31.850389462435832
 20
49.80074538129503
 30
0.0
 11
66.850389462435885
 21
49.800745381295172
 31
0.0
  0
ARC
  5
89C
  8
0
 10
49.350389462435828
 20
51.130870780089801
 30
0.0
 40
13.99999999999998
 50
12.373631904332539
 51
27.064819273713031
  0
ARC
  5
89D
  8
0
 10
49.350389462435828
 20
51.130870780089801
 30
0.0
 40
14.00000000000003
 50
152.93518072629041
 51
167.62636809566791
  0
ARC
  5
89E
  8
0
 10
34.657265683493712
 20
58.638341300623729
 30
0.0
 40
2.500000000000012
 50
332.93518072629041
 51
85.569515066945883
  0
ARC
  5
89F
  8
0
 10
64.043513241377894
 20
58.63834130062385
 30
0.0
 40
2.5000000000000342
 50
94.430484933057386
 51
207.0648192737099
  0
LINE
  5
8A0
  8
0
 10
63.850389462435821
 20
61.130870780089872
 30
0.0
 11
66.670897538124564
 21
62.759291876840308
 31
0.0
  0
LINE
  5
8A1
  8
0
 10
32.029881386747043
 20
62.759291876840173
 30
0.0
 11
34.850389462435828
 21
61.130870780089772
 31
0.0
  0
LINE
  5
8A2
  8
0
 10
34.850389462435771
 20
67.130870780089765
 30
0.0
 11
32.029881386747043
 21
65.502449683339336
 31
0.0
  0
LINE
  5
8A3
  8
0
 10
66.670897538124564
 20
65.502449683339449
 30
0.0
 11
63.850389462435771
 21
67.130870780089879
 31
0.0
  0
LINE
  5
8A4
  8
0
 10
64.850389462435942
 20
27.130872400217331
 30
0.0
 11
66.850389462435942
 21
29.13087240021736
 31
0.0
  0
LINE
  5
8A5
  8
0
 10
31.850389462435889
 20
29.130872400217221
 30
0.0
 11
33.850389462435942
 21
27.130872400217211
 31
0.0
  0
LINE
  5
8A6
  8
0
 10
66.850389462435942
 20
29.13087240021736
 30
0.0
 11
66.850389462435885
 21
49.800745381295172
 31
0.0
  0
LINE
  5
8A7
  8
0
 10
31.850389462435832
 20
49.80074538129503
 30
0.0
 11
31.850389462435889
 21
29.130872400217221
 31
0.0
  0
LINE
  5
8A8
  8
0
 10
34.350389462435828
 20
54.130872400217243
 30
0.0
 11
31.850389462435832
 21
49.80074538129503
 31
0.0
  0
LINE
  5
8A9
  8
0
 10
66.850389462435885
 20
49.800745381295172
 30
0.0
 11
64.350389462435828
 21
54.130872400217349
 31
0.0
  0
ARC
  5
965
  8
0
 10
123.24715594260989
 20
51.130870780089801
 30
0.0
 40
14.00000000000002
 50
12.373631952724219
 51
27.064819273713031
  0
LINE
  5
966
  8
0
 10
40.690135424591404
 20
136.977259790923
 30
0.0
 11
58.010643500280111
 21
136.977259790923
 31
0.0
  0
LINE
  5
967
  8
0
 10
58.010643500280111
 20
136.977259790923
 30
0.0
 11
66.670897538124564
 21
121.977259790923
 31
0.0
  0
LINE
  5
968
  8
0
 10
66.670897538124564
 20
121.977259790923
 30
0.0
 11
58.010643500280132
 21
106.977259790923
 31
0.0
  0
LINE
  5
969
  8
0
 10
58.010643500280132
 20
106.977259790923
 30
0.0
 11
40.690135424591432
 21
106.977259790923
 31
0.0
  0
LINE
  5
96A
  8
0
 10
40.690135424591432
 20
106.977259790923
 30
0.0
 11
32.029881386747007
 21
121.977259790923
 31
0.0
  0
LINE
  5
96B
  8
0
 10
32.029881386747007
 20
121.977259790923
 30
0.0
 11
40.690135424591404
 21
136.977259790923
 31
0.0
  0
ARC
  5
96C
  8
0
 10
49.350389462435913
 20
38.16229700125794
 30
0.0
 40
28.678980956085649
 50
72.423905356491616
 51
107.5760946435089
  0
ARC
  5
96D
  8
0
 10
62.340770519202351
 20
59.173483405250451
 30
0.0
 40
7.6684949076847628
 50
55.62100157066817
 51
124.3789984293313
  0
ARC
  5
96E
  8
0
 10
36.360008405669248
 20
59.173483405250451
 30
0.0
 40
7.6684949076847628
 50
55.621001570668682
 51
124.3789984293318
  0
ARC
  5
96F
  8
0
 10
36.360008405669248
 20
69.088258154929136
 30
0.0
 40
7.6684949076847628
 50
235.6210015706682
 51
304.37899842933132
  0
ARC
  5
970
  8
0
 10
49.350389462435913
 20
90.099444558921647
 30
0.0
 40
28.678980956085649
 50
252.4239053564911
 51
287.57609464350838
  0
ARC
  5
971
  8
0
 10
62.340770519202351
 20
69.088258154929136
 30
0.0
 40
7.6684949076847628
 50
235.62100157066871
 51
304.37899842933177
  0
LINE
  5
972
  8
0
 10
105.74715594260989
 20
49.800743761167581
 30
0.0
 11
140.74715594260991
 21
49.800743761167723
 31
0.0
  0
LINE
  5
973
  8
0
 10
108.24715594260979
 20
54.13087078008968
 30
0.0
 11
138.24715594260991
 21
54.130870780089907
 31
0.0
  0
LINE
  5
974
  8
0
 10
105.74715594260989
 20
29.130870780089769
 30
0.0
 11
140.74715594260999
 21
29.130870780089911
 31
0.0
  0
ARC
  5
979
  8
0
 10
115.7471561102479
 20
45.176023158074067
 30
0.0
 40
21.665955154861141
 50
69.747059486722932
 51
110.2529405132772
  0
ARC
  5
97A
  8
0
 10
130.74715577497179
 20
45.176023158074067
 30
0.0
 40
21.665955154861141
 50
69.74705948672279
 51
110.252940513277
  0
ARC
  5
97B
  8
0
 10
130.74715577497179
 20
83.085718291743945
 30
0.0
 40
21.665955154861141
 50
249.74705948672289
 51
290.25294051327722
  0
ARC
  5
97C
  8
0
 10
115.7471561102479
 20
83.085718291743945
 30
0.0
 40
21.665955154861141
 50
249.7470594867228
 51
290.25294051327711
  0
LINE
  5
97D
  8
0
 10
108.74715635984229
 20
61.130870669728267
 30
0.0
 11
137.74715552537751
 21
61.130870669728267
 31
0.0
  0
LINE
  5
97E
  8
0
 10
123.24715594260989
 20
65.502449683339762
 30
0.0
 11
123.24715594260989
 21
62.75929176647827
 31
0.0
  0
LINE
  5
97F
  8
1
 10
123.24715594260989
 20
22.130870780089818
 30
0.0
 11
123.24715594260989
 21
72.130870780089765
 31
0.0
  0
LINE
  5
982
  8
1
 10
49.350389462435828
 20
22.130872400217271
 30
0.0
 11
49.350389462435828
 21
72.130872400217214
 31
0.0
  0
LINE
  5
98E
  8
1
 10
71.850389462435828
 20
121.977259790923
 30
0.0
 11
26.850389462435832
 21
121.977259790923
 31
0.0
  0
LINE
  5
98F
  8
1
 10
49.350389462435828
 20
144.47725979092311
 30
0.0
 11
49.350389462435828
 21
99.477259790923185
 31
0.0
  0
TEXT
  5
A7B
  8
0
 62
     3
 10
0.0
 20
0.0
 30
0.0
 40
5.0
  1
BJ731-20025
  7
STANDARD1
  0
ENDSEC
  0
EOF
