  0
SECTION
  2
HEADER
  9
$ACADVER
  1
AC1009
  9
$INSBASE
 10
0.0
 20
0.0
 30
0.0
  9
$EXTMIN
 10
0.0
 20
-1.4802182810368341
 30
0.0
  9
$EXTMAX
 10
101.2832523130641
 20
98.452434501833537
 30
0.0
  9
$LIMMIN
 10
0.0
 20
0.0
  9
$LIMMAX
 10
187.5
 20
135.0
  9
$ORTHOMODE
 70
     1
  9
$REGENMODE
 70
     1
  9
$FILLMODE
 70
     1
  9
$QTEXTMODE
 70
     0
  9
$MIRRTEXT
 70
     0
  9
$DRAGMODE
 70
     2
  9
$LTSCALE
 40
5.0
  9
$OSMODE
 70
  3071
  9
$ATTMODE
 70
     1
  9
$TEXTSIZE
 40
0.2
  9
$TRACEWID
 40
0.05
  9
$TEXTSTYLE
  7
STANDARD
  9
$CLAYER
  8
0
  9
$CELTYPE
  6
BYLAYER
  9
$CECOLOR
 62
   256
  9
$DIMSCALE
 40
0.5
  9
$DIMASZ
 40
3.0
  9
$DIMEXO
 40
2.0
  9
$DIMDLI
 40
0.38
  9
$DIMRND
 40
0.0
  9
$DIMDLE
 40
0.0
  9
$DIMEXE
 40
2.0
  9
$DIMTP
 40
0.0
  9
$DIMTM
 40
0.0
  9
$DIMTXT
 40
3.2000000000000002
  9
$DIMCEN
 40
0.0
  9
$DIMTSZ
 40
0.0
  9
$DIMTOL
 70
     0
  9
$DIMLIM
 70
     0
  9
$DIMTIH
 70
     0
  9
$DIMTOH
 70
     0
  9
$DIMSE1
 70
     0
  9
$DIMSE2
 70
     0
  9
$DIMTAD
 70
     1
  9
$DIMZIN
 70
     0
  9
$DIMBLK
  1

  9
$DIMASO
 70
     0
  9
$DIMSHO
 70
     0
  9
$DIMPOST
  1

  9
$DIMAPOST
  1

  9
$DIMALT
 70
     0
  9
$DIMALTD
 70
     2
  9
$DIMALTF
 40
25.399999999999999
  9
$DIMLFAC
 40
1.0
  9
$DIMTOFL
 70
     1
  9
$DIMTVP
 40
1.6000000000000001
  9
$DIMTIX
 70
     1
  9
$DIMSOXD
 70
     0
  9
$DIMSAH
 70
     0
  9
$DIMBLK1
  1

  9
$DIMBLK2
  1

  9
$DIMSTYLE
  2
STANDARD
  9
$DIMCLRD
 70
     0
  9
$DIMCLRE
 70
     0
  9
$DIMCLRT
 70
     0
  9
$DIMTFAC
 40
1.0
  9
$DIMGAP
 40
0.09
  9
$LUNITS
 70
     2
  9
$LUPREC
 70
     4
  9
$SKETCHINC
 40
0.1
  9
$FILLETRAD
 40
0.0
  9
$AUNITS
 70
     0
  9
$AUPREC
 70
     4
  9
$MENU
  1
E:\r13\win\SUPPORT\ACAD
  9
$ELEVATION
 40
0.0
  9
$PELEVATION
 40
0.0
  9
$THICKNESS
 40
0.0
  9
$LIMCHECK
 70
     0
  9
$BLIPMODE
 70
     0
  9
$CHAMFERA
 40
0.0
  9
$CHAMFERB
 40
0.0
  9
$SKPOLY
 70
     0
  9
$TDCREATE
 40
2449839.768298611
  9
$TDUPDATE
 40
2456597.6910759262
  9
$TDINDWG
 40
0.0176470255
  9
$TDUSRTIMER
 40
0.0176470255
  9
$USRTIMER
 70
     1
  9
$ANGBASE
 50
0.0
  9
$ANGDIR
 70
     0
  9
$PDMODE
 70
     0
  9
$PDSIZE
 40
0.0
  9
$PLINEWID
 40
0.0
  9
$COORDS
 70
     1
  9
$SPLFRAME
 70
     0
  9
$SPLINETYPE
 70
     6
  9
$SPLINESEGS
 70
     8
  9
$ATTDIA
 70
     0
  9
$ATTREQ
 70
     1
  9
$HANDLING
 70
     1
  9
$HANDSEED
  5
82A
  9
$SURFTAB1
 70
     6
  9
$SURFTAB2
 70
     6
  9
$SURFTYPE
 70
     6
  9
$SURFU
 70
     6
  9
$SURFV
 70
     6
  9
$UCSNAME
  2

  9
$UCSORG
 10
0.0
 20
0.0
 30
0.0
  9
$UCSXDIR
 10
1.0
 20
0.0
 30
0.0
  9
$UCSYDIR
 10
0.0
 20
1.0
 30
0.0
  9
$PUCSNAME
  2

  9
$PUCSORG
 10
0.0
 20
0.0
 30
0.0
  9
$PUCSXDIR
 10
1.0
 20
0.0
 30
0.0
  9
$PUCSYDIR
 10
0.0
 20
1.0
 30
0.0
  9
$USERI1
 70
     0
  9
$USERI2
 70
     1
  9
$USERI3
 70
     0
  9
$USERI4
 70
     0
  9
$USERI5
 70
     0
  9
$USERR1
 40
0.0
  9
$USERR2
 40
0.0
  9
$USERR3
 40
0.0
  9
$USERR4
 40
0.0
  9
$USERR5
 40
0.0
  9
$WORLDVIEW
 70
     1
  9
$SHADEDGE
 70
     3
  9
$SHADEDIF
 70
    70
  9
$TILEMODE
 70
     1
  9
$MAXACTVP
 70
    16
  9
$PLIMCHECK
 70
     0
  9
$PEXTMIN
 10
1.0000000000000000E+020
 20
1.0000000000000000E+020
 30
1.0000000000000000E+020
  9
$PEXTMAX
 10
-1.0000000000000000E+020
 20
-1.0000000000000000E+020
 30
-1.0000000000000000E+020
  9
$PLIMMIN
 10
0.0
 20
0.0
  9
$PLIMMAX
 10
12.0
 20
9.0
  9
$UNITMODE
 70
     0
  9
$VISRETAIN
 70
     0
  9
$PLINEGEN
 70
     0
  9
$PSLTSCALE
 70
     0
  0
ENDSEC
  0
SECTION
  2
TABLES
  0
TABLE
  2
VPORT
 70
     1
  0
VPORT
  2
*ACTIVE
 70
     0
 10
0.0
 20
0.0
 11
1.0
 21
1.0
 12
97.52905416604365
 22
66.75636307133405
 13
0.0
 23
0.0
 14
5.0
 24
5.0
 15
5.0
 25
5.0
 16
0.0
 26
0.0
 36
1.0
 17
0.0
 27
0.0
 37
0.0
 40
137.71137496815999
 41
1.831871345029239
 42
50.0
 43
0.0
 44
0.0
 50
0.0
 51
0.0
 71
     0
 72
   500
 73
     1
 74
     0
 75
     0
 76
     0
 77
     0
 78
     2
  0
ENDTAB
  0
TABLE
  2
LTYPE
 70
     3
  0
LTYPE
  2
CONTINUOUS
 70
     0
  3
Solid Line
 72
    65
 73
     0
 40
0.0
  0
LTYPE
  2
CENTER
 70
     0
  3
____ _ ____ _ ____ _ ____ _ ____ _ ____ _ ____
 72
    65
 73
     4
 40
2.0
 49
1.25
 49
-0.25
 49
0.25
 49
-0.25
  0
LTYPE
  2
PHANTOM2
 70
     0
  3
___ _ _ ___ _ _ ___ _ _ ___ _ _
 72
    65
 73
     6
 40
1.25
 49
0.625
 49
-0.125
 49
0.125
 49
-0.125
 49
0.125
 49
-0.125
  0
ENDTAB
  0
TABLE
  2
LAYER
 70
     4
  0
LAYER
  2
0
 70
     0
 62
     7
  6
CONTINUOUS
  0
LAYER
  2
1
 70
     0
 62
     1
  6
CENTER
  0
LAYER
  2
3
 70
     0
 62
     3
  6
CONTINUOUS
  0
LAYER
  2
DEFPOINTS
 70
     0
 62
     7
  6
CONTINUOUS
  0
ENDTAB
  0
TABLE
  2
STYLE
 70
     2
  0
STYLE
  2
STANDARD
 70
     0
 40
0.0
 41
1.0
 50
0.0
 71
     0
 42
0.2
  3
TXT
  4
BIGFONT
  0
STYLE
  2
STANDARD1
 70
     0
 40
0.0
 41
1.0
 50
0.0
 71
     0
 42
3.0
  3
txt
  4

  0
ENDTAB
  0
TABLE
  2
VIEW
 70
     1
  0
VIEW
  2
ALL
 70
     0
 40
135.0
 10
110.4957983193277
 20
67.5
 41
0.0
 11
0.0
 21
0.0
 31
1.0
 12
0.0
 22
0.0
 32
0.0
 42
0.0
 43
0.0
 44
0.0
 50
0.0
 71
     0
  0
ENDTAB
  0
TABLE
  2
UCS
 70
     0
  0
ENDTAB
  0
TABLE
  2
APPID
 70
     3
  0
APPID
  2
ACAD
 70
     0
  0
APPID
  2
ACAD_MLEADERVER
 70
     0
  0
APPID
  2
ACAD_NAV_VCDISPLAY
 70
     0
  0
ENDTAB
  0
TABLE
  2
DIMSTYLE
 70
     1
  0
DIMSTYLE
  2
STANDARD
 70
     0
  3

  4

  5

  6

  7

 40
1.0
 41
0.18
 42
0.0625
 43
0.38
 44
0.18
 45
0.0
 46
0.0
 47
0.0
 48
0.0
140
0.18
141
0.09
142
0.0
143
25.399999999999999
144
1.0
145
0.0
146
1.0
147
0.09
 71
     0
 72
     0
 73
     1
 74
     1
 75
     0
 76
     0
 77
     0
 78
     0
170
     0
171
     2
172
     0
173
     0
174
     0
175
     0
176
     0
177
     0
178
     0
  0
ENDTAB
  0
ENDSEC
  0
SECTION
  2
BLOCKS
  0
BLOCK
  8
0
  2
$MODEL_SPACE
 70
     0
 10
0.0
 20
0.0
 30
0.0
  3
$MODEL_SPACE
  1

  0
ENDBLK
  5
13D
  8
0
  0
BLOCK
 67
     1
  8
0
  2
$PAPER_SPACE
 70
     0
 10
0.0
 20
0.0
 30
0.0
  3
$PAPER_SPACE
  1

  0
ENDBLK
  5
13B
 67
     1
  8
0
  0
ENDSEC
  0
SECTION
  2
ENTITIES
  0
LINE
  5
430
  8
0
 10
38.30631526730491
 20
17.36031824540575
 30
0.0
 11
38.30631526730491
 21
27.628266977185799
 31
0.0
  0
LINE
  5
431
  8
0
 10
18.306315714339721
 20
27.628266977185799
 30
0.0
 11
18.306315714339721
 21
17.36031824540575
 31
0.0
  0
LINE
  5
432
  8
0
 10
18.306315714339721
 20
17.36031824540575
 30
0.0
 11
19.306315878252491
 21
16.36031808149297
 31
0.0
  0
LINE
  5
433
  8
0
 10
37.306315103392109
 20
16.36031808149297
 30
0.0
 11
38.30631526730491
 21
17.36031824540575
 31
0.0
  0
LINE
  5
434
  8
0
 10
38.30631526730491
 20
27.628266977185799
 30
0.0
 11
37.306315103392109
 21
29.3603174183913
 31
0.0
  0
LINE
  5
435
  8
0
 10
19.306315878252491
 20
29.3603174183913
 30
0.0
 11
18.306315714339721
 21
27.628266977185799
 31
0.0
  0
LINE
  5
436
  8
0
 10
18.491361128012642
 20
33.55251969214757
 30
0.0
 11
20.55631561748217
 21
32.36031736623724
 31
0.0
  0
LINE
  5
437
  8
0
 10
36.05631536416243
 20
32.36031736623724
 30
0.0
 11
38.121269853631993
 21
33.55251969214757
 31
0.0
  0
LINE
  5
438
  8
0
 10
38.121269853631993
 20
37.168115325311618
 30
0.0
 11
36.05631536416243
 21
38.360317418391311
 31
0.0
  0
LINE
  5
439
  8
0
 10
20.55631561748217
 20
38.360317418391311
 30
0.0
 11
18.491361128012642
 21
37.168115325311618
 31
0.0
  0
ARC
  5
43A
  8
0
 10
28.306315490822271
 20
27.360317418391311
 30
0.0
 40
7.0000000000000071
 50
150.00000000000011
 51
163.39845040097981
  0
ARC
  5
43B
  8
0
 10
28.306315490822271
 20
27.360317418391311
 30
0.0
 40
6.9999999999999876
 50
16.60154959902027
 51
30.000000000000131
  0
ARC
  5
43C
  8
0
 10
35.234518721097743
 20
31.360317418391311
 30
0.0
 40
1.0
 50
90.0
 51
210.00000000000011
  0
ARC
  5
43D
  8
0
 10
21.37811226054674
 20
31.360317418391311
 30
0.0
 40
1.000000000000008
 50
330.00000000000171
 51
90.0
  0
LINE
  5
43E
  8
0
 10
38.30631526730491
 20
27.628266977185799
 30
0.0
 11
18.306315714339721
 21
27.628266977185799
 31
0.0
  0
LINE
  5
43F
  8
0
 10
18.306315714339771
 20
17.36031824540575
 30
0.0
 11
38.30631526730491
 21
17.36031824540575
 31
0.0
  0
LINE
  5
442
  8
0
 10
37.306315103392109
 20
16.36031808149297
 30
0.0
 11
19.306315878252519
 21
16.360318081492981
 31
0.0
  0
LINE
  5
443
  8
0
 10
37.306315103392109
 20
29.3603174183913
 30
0.0
 11
19.306315878252491
 21
29.3603174183913
 31
0.0
  0
LINE
  5
444
  8
0
 10
33.213792672227129
 20
33.55251969214757
 30
0.0
 11
33.213792672227129
 21
37.168115325311618
 31
0.0
  0
LINE
  5
446
  8
0
 10
23.398838309417471
 20
33.55251969214757
 30
0.0
 11
23.398838309417471
 21
37.168115325311618
 31
0.0
  0
LINE
  5
448
  8
0
 10
38.121269853631993
 20
33.55251969214757
 30
0.0
 11
38.121269853631993
 21
37.168115325311618
 31
0.0
  0
LINE
  5
44C
  8
0
 10
36.05631536416243
 20
32.36031736623724
 30
0.0
 11
20.55631561748217
 21
32.36031736623724
 31
0.0
  0
LINE
  5
44D
  8
0
 10
18.491361128012642
 20
33.55251969214757
 30
0.0
 11
18.491361128012642
 21
37.168115325311618
 31
0.0
  0
LINE
  5
44F
  8
0
 10
20.55631561748217
 20
38.360317418391311
 30
0.0
 11
36.05631536416243
 21
38.360317418391311
 31
0.0
  0
ARC
  5
481
  8
0
 10
28.3063154908223
 20
83.452434501833551
 30
0.0
 40
8.9999999999999893
 50
10.83093608877734
 51
48.914503827359567
  0
ARC
  5
482
  8
0
 10
28.3063154908223
 20
83.452434501833551
 30
0.0
 40
8.9999999999999911
 50
311.07313002659129
 51
349.17566072000722
  0
ARC
  5
483
  8
0
 10
28.3063154908223
 20
83.452434501833551
 30
0.0
 40
9.0000000000000302
 50
251.12962432263521
 51
288.88562664724691
  0
ARC
  5
484
  8
0
 10
28.3063154908223
 20
83.452434501833551
 30
0.0
 40
9.0000000000000284
 50
190.8663891712564
 51
228.9032954973373
  0
ARC
  5
485
  8
0
 10
28.3063154908223
 20
83.452434501833551
 30
0.0
 40
9.0000000000000053
 50
131.05963609780881
 51
169.1508193687385
  0
CIRCLE
  5
487
  8
0
 10
28.3063154908223
 20
83.452434501833551
 30
0.0
 40
9.9999999999999716
  0
CIRCLE
  5
48E
  8
0
 10
28.3063154908223
 20
83.452434501833494
 30
0.0
 40
7.7499999999999707
  0
CIRCLE
  5
490
  8
0
 10
28.3063154908223
 20
83.452434501833494
 30
0.0
 40
4.349999999999965
  0
LINE
  5
49D
  8
0
 10
100.28325214915129
 20
29.3603174183913
 30
0.0
 11
101.283252313064
 21
27.628266977185799
 31
0.0
  0
LINE
  5
49E
  8
0
 10
101.283252313064
 20
27.628266977185799
 30
0.0
 11
101.283252313064
 21
17.36031824540575
 31
0.0
  0
LINE
  5
49F
  8
0
 10
100.28325214915129
 20
16.36031808149297
 30
0.0
 11
101.283252313064
 21
17.36031824540575
 31
0.0
  0
LINE
  5
4A0
  8
0
 10
100.28325214915129
 20
16.36031808149297
 30
0.0
 11
82.283252924011705
 21
16.36031808149297
 31
0.0
  0
LINE
  5
4A1
  8
0
 10
81.283252760098947
 20
17.36031824540575
 30
0.0
 11
82.283252924011705
 21
16.36031808149297
 31
0.0
  0
LINE
  5
4A2
  8
0
 10
81.283252760098947
 20
17.36031824540575
 30
0.0
 11
81.283252760098947
 21
27.628266977185799
 31
0.0
  0
LINE
  5
4A3
  8
0
 10
81.283252760098947
 20
27.628266977185799
 30
0.0
 11
82.283252924011705
 21
29.3603174183913
 31
0.0
  0
LINE
  5
4B2
  8
0
 10
99.033252409921602
 20
32.36031736623724
 30
0.0
 11
99.783252998517455
 21
32.793330209369259
 31
0.0
  0
LINE
  5
4B3
  8
0
 10
82.783252074645517
 20
32.793330209369259
 30
0.0
 11
83.533252663241385
 21
32.36031736623724
 31
0.0
  0
LINE
  5
4B4
  8
0
 10
83.533252663241385
 20
38.360317418391311
 30
0.0
 11
82.783252074645517
 21
37.927304720778437
 31
0.0
  0
LINE
  5
4B5
  8
0
 10
99.783252998517455
 20
37.927304720778437
 30
0.0
 11
99.033252409921602
 21
38.360317418391311
 31
0.0
  0
LINE
  5
4B6
  8
0
 10
82.783252074645517
 20
32.793330209369259
 30
0.0
 11
82.783252074645517
 21
37.927304720778437
 31
0.0
  0
LINE
  5
4BE
  8
0
 10
83.533252663241385
 20
38.360317418391311
 30
0.0
 11
99.033252409921602
 21
38.360317418391311
 31
0.0
  0
LINE
  5
4BF
  8
0
 10
99.783252998517455
 20
37.927304720778437
 30
0.0
 11
99.783252998517455
 21
32.793330209369259
 31
0.0
  0
ARC
  5
4C1
  8
0
 10
98.211455766856943
 20
31.360317418391311
 30
0.0
 40
1.0
 50
90.0
 51
210.00000000000011
  0
ARC
  5
4C2
  8
0
 10
91.283252536581472
 20
27.360317418391311
 30
0.0
 40
7.0000000000000071
 50
150.00000000000011
 51
163.39845040097981
  0
ARC
  5
4C3
  8
0
 10
84.355049306305943
 20
31.360317418391311
 30
0.0
 40
1.0
 50
330.00000000000011
 51
90.0
  0
LINE
  5
5E7
  8
0
 10
23.398838309417499
 20
91.952434963769491
 30
0.0
 11
33.213792672227129
 21
91.952434963769491
 31
0.0
  0
LINE
  5
5E8
  8
0
 10
33.213792672227129
 20
91.952434963769491
 30
0.0
 11
38.121269853631993
 21
83.452434501833494
 31
0.0
  0
LINE
  5
5E9
  8
0
 10
38.121269853631993
 20
83.452434501833494
 30
0.0
 11
33.213792672227129
 21
74.952434039897497
 31
0.0
  0
LINE
  5
5EA
  8
0
 10
33.213792672227129
 20
74.952434039897497
 30
0.0
 11
23.398838309417471
 21
74.952434039897497
 31
0.0
  0
LINE
  5
5EB
  8
0
 10
23.398838309417471
 20
74.952434039897497
 30
0.0
 11
18.491361128012642
 21
83.452434501833494
 31
0.0
  0
LINE
  5
5EC
  8
0
 10
18.491361128012642
 20
83.452434501833494
 30
0.0
 11
23.398838309417499
 21
91.952434963769491
 31
0.0
  0
ARC
  5
5ED
  8
0
 10
28.3063154908223
 20
83.452434501833437
 30
0.0
 40
9.0000000000000302
 50
71.114373352753105
 51
108.87037567736481
  0
ARC
  5
5EE
  8
0
 10
20.94509971871506
 20
33.581701659680959
 30
0.0
 40
4.3454799565208742
 50
55.620997992233441
 51
124.3790020077661
  0
ARC
  5
5F0
  8
0
 10
28.30631549082225
 20
21.676900861521641
 30
0.0
 40
16.249955626066939
 50
72.422267398925086
 51
107.5777326010745
  0
ARC
  5
5F1
  8
0
 10
35.667531262929487
 20
33.581701659680959
 30
0.0
 40
4.3454799565208742
 50
55.620997992233917
 51
124.3790020077665
  0
ARC
  5
5F2
  8
0
 10
35.667531262929487
 20
37.138933357778242
 30
0.0
 40
4.3454799565208742
 50
235.6209979922335
 51
304.37900200776608
  0
ARC
  5
5F3
  8
0
 10
28.30631549082225
 20
49.043734155937557
 30
0.0
 40
16.249955626066939
 50
252.4222673989255
 51
287.5777326010749
  0
ARC
  5
5F4
  8
0
 10
20.94509971871506
 20
37.138933357778242
 30
0.0
 40
4.3454799565208742
 50
235.6209979922339
 51
304.37900200776647
  0
ARC
  5
5F5
  8
0
 10
91.283252536581472
 20
27.360317418391311
 30
0.0
 40
7.0000000000000071
 50
16.601549599020231
 51
30.000000000000131
  0
LINE
  5
5F7
  8
0
 10
100.28325214915129
 20
29.3603174183913
 30
0.0
 11
82.283252924011705
 21
29.3603174183913
 31
0.0
  0
LINE
  5
5F8
  8
0
 10
81.283252760098947
 20
17.36031824540575
 30
0.0
 11
101.2832523130641
 21
17.36031824540575
 31
0.0
  0
LINE
  5
5F9
  8
0
 10
101.2832523130641
 20
27.628266977185799
 30
0.0
 11
81.283252760098947
 21
27.628266977185799
 31
0.0
  0
LINE
  5
5FA
  8
0
 10
99.033252409921673
 20
32.36031736623724
 30
0.0
 11
83.533252663241385
 21
32.36031736623724
 31
0.0
  0
ARC
  5
5FF
  8
0
 10
87.033252305613516
 20
25.644545311216142
 30
0.0
 40
12.28231117636204
 50
69.755554713286514
 51
110.2444452867134
  0
ARC
  5
600
  8
0
 10
95.533252767549584
 20
25.644545311216142
 30
0.0
 40
12.28231117636204
 50
69.755554713286543
 51
110.2444452867135
  0
ARC
  5
601
  8
0
 10
95.533252767549584
 20
45.076089618931547
 30
0.0
 40
12.28231117636204
 50
249.7555547132865
 51
290.24444528671353
  0
ARC
  5
602
  8
0
 10
87.033252305613516
 20
45.076089618931547
 30
0.0
 40
12.28231117636204
 50
249.7555547132865
 51
290.24444528671353
  0
LINE
  5
603
  8
0
 10
91.283252536581585
 20
37.168115325311597
 30
0.0
 11
91.283252536581585
 21
33.5525196048361
 31
0.0
  0
CIRCLE
  5
620
  8
3
 10
28.3063154908223
 20
83.452434501833494
 30
0.0
 40
5.0
  0
LINE
  5
629
  8
1
 10
43.306315490822271
 20
83.452434501833494
 30
0.0
 11
13.30631549082233
 21
83.452434501833494
 31
0.0
  0
LINE
  5
62A
  8
1
 10
28.3063154908223
 20
11.36031808149297
 30
0.0
 11
28.3063154908223
 21
43.360317418391297
 31
0.0
  0
LINE
  5
62B
  8
1
 10
91.283252536581514
 20
11.36031808149297
 30
0.0
 11
91.283252536581514
 21
43.360317418391311
 31
0.0
  0
LINE
  5
631
  8
1
 10
28.3063154908223
 20
68.452434501833579
 30
0.0
 11
28.3063154908223
 21
98.452434501833537
 31
0.0
  0
TEXT
  5
799
  8
0
 62
     3
 10
0.0
 20
0.0
 30
0.0
 40
5.0
  1
BJ731-10022
  7
STANDARD1
  0
ENDSEC
  0
EOF
