  0
SECTION
  2
HEADER
  9
$ACADVER
  1
AC1009
  9
$INSBASE
 10
0.0
 20
0.0
 30
0.0
  9
$EXTMIN
 10
0.0
 20
-1.4802182810368341
 30
0.0
  9
$EXTMAX
 10
84.999999664723873
 20
92.5
 30
0.0
  9
$LIMMIN
 10
0.0
 20
0.0
  9
$LIMMAX
 10
187.5
 20
135.0
  9
$ORTHOMODE
 70
     1
  9
$REGENMODE
 70
     1
  9
$FILLMODE
 70
     1
  9
$QTEXTMODE
 70
     0
  9
$MIRRTEXT
 70
     0
  9
$DRAGMODE
 70
     2
  9
$LTSCALE
 40
5.0
  9
$OSMODE
 70
  3071
  9
$ATTMODE
 70
     1
  9
$TEXTSIZE
 40
0.2
  9
$TRACEWID
 40
0.05
  9
$TEXTSTYLE
  7
STANDARD
  9
$CLAYER
  8
0
  9
$CELTYPE
  6
BYLAYER
  9
$CECOLOR
 62
   256
  9
$DIMSCALE
 40
0.5
  9
$DIMASZ
 40
3.0
  9
$DIMEXO
 40
2.0
  9
$DIMDLI
 40
0.38
  9
$DIMRND
 40
0.0
  9
$DIMDLE
 40
0.0
  9
$DIMEXE
 40
2.0
  9
$DIMTP
 40
0.0
  9
$DIMTM
 40
0.0
  9
$DIMTXT
 40
3.2000000000000002
  9
$DIMCEN
 40
0.0
  9
$DIMTSZ
 40
0.0
  9
$DIMTOL
 70
     0
  9
$DIMLIM
 70
     0
  9
$DIMTIH
 70
     0
  9
$DIMTOH
 70
     0
  9
$DIMSE1
 70
     0
  9
$DIMSE2
 70
     0
  9
$DIMTAD
 70
     1
  9
$DIMZIN
 70
     0
  9
$DIMBLK
  1

  9
$DIMASO
 70
     0
  9
$DIMSHO
 70
     0
  9
$DIMPOST
  1

  9
$DIMAPOST
  1

  9
$DIMALT
 70
     0
  9
$DIMALTD
 70
     2
  9
$DIMALTF
 40
25.399999999999999
  9
$DIMLFAC
 40
1.0
  9
$DIMTOFL
 70
     1
  9
$DIMTVP
 40
1.6000000000000001
  9
$DIMTIX
 70
     1
  9
$DIMSOXD
 70
     0
  9
$DIMSAH
 70
     0
  9
$DIMBLK1
  1

  9
$DIMBLK2
  1

  9
$DIMSTYLE
  2
STANDARD
  9
$DIMCLRD
 70
     0
  9
$DIMCLRE
 70
     0
  9
$DIMCLRT
 70
     0
  9
$DIMTFAC
 40
1.0
  9
$DIMGAP
 40
0.09
  9
$LUNITS
 70
     2
  9
$LUPREC
 70
     4
  9
$SKETCHINC
 40
0.1
  9
$FILLETRAD
 40
0.0
  9
$AUNITS
 70
     0
  9
$AUPREC
 70
     4
  9
$MENU
  1
E:\r13\win\SUPPORT\ACAD
  9
$ELEVATION
 40
0.0
  9
$PELEVATION
 40
0.0
  9
$THICKNESS
 40
0.0
  9
$LIMCHECK
 70
     0
  9
$BLIPMODE
 70
     0
  9
$CHAMFERA
 40
0.0
  9
$CHAMFERB
 40
0.0
  9
$SKPOLY
 70
     0
  9
$TDCREATE
 40
2449839.768298611
  9
$TDUPDATE
 40
2456597.6910423958
  9
$TDINDWG
 40
0.0422490394
  9
$TDUSRTIMER
 40
0.0422490394
  9
$USRTIMER
 70
     1
  9
$ANGBASE
 50
0.0
  9
$ANGDIR
 70
     0
  9
$PDMODE
 70
     0
  9
$PDSIZE
 40
0.0
  9
$PLINEWID
 40
0.0
  9
$COORDS
 70
     1
  9
$SPLFRAME
 70
     0
  9
$SPLINETYPE
 70
     6
  9
$SPLINESEGS
 70
     8
  9
$ATTDIA
 70
     0
  9
$ATTREQ
 70
     1
  9
$HANDLING
 70
     1
  9
$HANDSEED
  5
82A
  9
$SURFTAB1
 70
     6
  9
$SURFTAB2
 70
     6
  9
$SURFTYPE
 70
     6
  9
$SURFU
 70
     6
  9
$SURFV
 70
     6
  9
$UCSNAME
  2

  9
$UCSORG
 10
0.0
 20
0.0
 30
0.0
  9
$UCSXDIR
 10
1.0
 20
0.0
 30
0.0
  9
$UCSYDIR
 10
0.0
 20
1.0
 30
0.0
  9
$PUCSNAME
  2

  9
$PUCSORG
 10
0.0
 20
0.0
 30
0.0
  9
$PUCSXDIR
 10
1.0
 20
0.0
 30
0.0
  9
$PUCSYDIR
 10
0.0
 20
1.0
 30
0.0
  9
$USERI1
 70
     0
  9
$USERI2
 70
     1
  9
$USERI3
 70
     0
  9
$USERI4
 70
     0
  9
$USERI5
 70
     0
  9
$USERR1
 40
0.0
  9
$USERR2
 40
0.0
  9
$USERR3
 40
0.0
  9
$USERR4
 40
0.0
  9
$USERR5
 40
0.0
  9
$WORLDVIEW
 70
     1
  9
$SHADEDGE
 70
     3
  9
$SHADEDIF
 70
    70
  9
$TILEMODE
 70
     1
  9
$MAXACTVP
 70
    16
  9
$PLIMCHECK
 70
     0
  9
$PEXTMIN
 10
1.0000000000000000E+020
 20
1.0000000000000000E+020
 30
1.0000000000000000E+020
  9
$PEXTMAX
 10
-1.0000000000000000E+020
 20
-1.0000000000000000E+020
 30
-1.0000000000000000E+020
  9
$PLIMMIN
 10
0.0
 20
0.0
  9
$PLIMMAX
 10
12.0
 20
9.0
  9
$UNITMODE
 70
     0
  9
$VISRETAIN
 70
     0
  9
$PLINEGEN
 70
     0
  9
$PSLTSCALE
 70
     0
  0
ENDSEC
  0
SECTION
  2
TABLES
  0
TABLE
  2
VPORT
 70
     1
  0
VPORT
  2
*ACTIVE
 70
     0
 10
0.0
 20
0.0
 11
1.0
 21
1.0
 12
97.52905416604365
 22
66.75636307133405
 13
0.0
 23
0.0
 14
5.0
 24
5.0
 15
5.0
 25
5.0
 16
0.0
 26
0.0
 36
1.0
 17
0.0
 27
0.0
 37
0.0
 40
137.71137496815999
 41
1.831871345029239
 42
50.0
 43
0.0
 44
0.0
 50
0.0
 51
0.0
 71
     0
 72
   500
 73
     1
 74
     0
 75
     0
 76
     0
 77
     0
 78
     2
  0
ENDTAB
  0
TABLE
  2
LTYPE
 70
     3
  0
LTYPE
  2
CONTINUOUS
 70
     0
  3
Solid Line
 72
    65
 73
     0
 40
0.0
  0
LTYPE
  2
CENTER
 70
     0
  3
____ _ ____ _ ____ _ ____ _ ____ _ ____ _ ____
 72
    65
 73
     4
 40
2.0
 49
1.25
 49
-0.25
 49
0.25
 49
-0.25
  0
LTYPE
  2
PHANTOM2
 70
     0
  3
___ _ _ ___ _ _ ___ _ _ ___ _ _
 72
    65
 73
     6
 40
1.25
 49
0.625
 49
-0.125
 49
0.125
 49
-0.125
 49
0.125
 49
-0.125
  0
ENDTAB
  0
TABLE
  2
LAYER
 70
     4
  0
LAYER
  2
0
 70
     0
 62
     7
  6
CONTINUOUS
  0
LAYER
  2
1
 70
     0
 62
     1
  6
CENTER
  0
LAYER
  2
3
 70
     0
 62
     3
  6
CONTINUOUS
  0
LAYER
  2
DEFPOINTS
 70
     0
 62
     7
  6
CONTINUOUS
  0
ENDTAB
  0
TABLE
  2
STYLE
 70
     2
  0
STYLE
  2
STANDARD
 70
     0
 40
0.0
 41
1.0
 50
0.0
 71
     0
 42
0.2
  3
TXT
  4
BIGFONT
  0
STYLE
  2
STANDARD1
 70
     0
 40
0.0
 41
1.0
 50
0.0
 71
     0
 42
3.0
  3
txt
  4

  0
ENDTAB
  0
TABLE
  2
VIEW
 70
     1
  0
VIEW
  2
ALL
 70
     0
 40
135.0
 10
110.4957983193277
 20
67.5
 41
0.0
 11
0.0
 21
0.0
 31
1.0
 12
0.0
 22
0.0
 32
0.0
 42
0.0
 43
0.0
 44
0.0
 50
0.0
 71
     0
  0
ENDTAB
  0
TABLE
  2
UCS
 70
     0
  0
ENDTAB
  0
TABLE
  2
APPID
 70
     4
  0
APPID
  2
ACAD
 70
     0
  0
APPID
  2
ACAD_EXEMPT_FROM_CAD_STANDARDS
 70
     0
  0
APPID
  2
ACAD_MLEADERVER
 70
     0
  0
APPID
  2
ACAD_NAV_VCDISPLAY
 70
     0
  0
ENDTAB
  0
TABLE
  2
DIMSTYLE
 70
     1
  0
DIMSTYLE
  2
STANDARD
 70
     0
  3

  4

  5

  6

  7

 40
1.0
 41
0.18
 42
0.0625
 43
0.38
 44
0.18
 45
0.0
 46
0.0
 47
0.0
 48
0.0
140
0.18
141
0.09
142
0.0
143
25.399999999999999
144
1.0
145
0.0
146
1.0
147
0.09
 71
     0
 72
     0
 73
     1
 74
     1
 75
     0
 76
     0
 77
     0
 78
     0
170
     0
171
     2
172
     0
173
     0
174
     0
175
     0
176
     0
177
     0
178
     0
  0
ENDTAB
  0
ENDSEC
  0
SECTION
  2
BLOCKS
  0
BLOCK
  8
0
  2
$MODEL_SPACE
 70
     0
 10
0.0
 20
0.0
 30
0.0
  3
$MODEL_SPACE
  1

  0
ENDBLK
  5
13D
  8
0
  0
BLOCK
 67
     1
  8
0
  2
$PAPER_SPACE
 70
     0
 10
0.0
 20
0.0
 30
0.0
  3
$PAPER_SPACE
  1

  0
ENDBLK
  5
13B
 67
     1
  8
0
  0
ENDSEC
  0
SECTION
  2
ENTITIES
  0
LINE
  5
4AE
  8
0
 10
30.0
 20
31.00000016391277
 30
0.0
 11
30.999999698251489
 21
30.0
 31
0.0
  0
LINE
  5
4AF
  8
0
 10
43.99999996647238
 20
30.0
 30
0.0
 11
44.999999664723873
 21
31.00000016391277
 31
0.0
  0
LINE
  5
4B0
  8
0
 10
44.999999664723873
 20
31.00000016391277
 30
0.0
 11
44.999999664723873
 21
38.767949417233467
 31
0.0
  0
LINE
  5
4B1
  8
0
 10
30.0
 20
38.767949417233467
 30
0.0
 11
30.0
 21
31.00000016391277
 31
0.0
  0
LINE
  5
4B2
  8
0
 10
44.999999664723873
 20
38.767949417233467
 30
0.0
 11
43.99999996647238
 21
40.500000324100249
 31
0.0
  0
LINE
  5
4B3
  8
0
 10
30.999999698251489
 20
40.500000324100249
 30
0.0
 11
30.0
 21
38.767949417233467
 31
0.0
  0
LINE
  5
4B4
  8
0
 10
29.41709591075778
 20
44.582033036276691
 30
0.0
 11
31.249999739229679
 21
43.52380542084574
 31
0.0
  0
LINE
  5
4B5
  8
0
 10
43.749999925494187
 20
43.52380542084574
 30
0.0
 11
45.582903753966093
 21
44.582033036276691
 31
0.0
  0
LINE
  5
4B6
  8
0
 10
45.582903753966093
 20
45.965578029863529
 30
0.0
 11
43.749999925494187
 21
47.023805528879159
 31
0.0
  0
LINE
  5
4B7
  8
0
 10
31.249999739229679
 20
47.023805528879159
 30
0.0
 11
29.41709591075778
 21
45.965578029863529
 31
0.0
  0
ARC
  5
4B8
  8
0
 10
44.109939274093897
 20
42.067631226714177
 30
0.0
 40
1.500000000000004
 50
103.8841575771346
 51
208.19735585393741
  0
ARC
  5
4B9
  8
0
 10
30.890060390629969
 20
42.067631226714177
 30
0.0
 40
1.5000000000000031
 50
331.80264414606251
 51
76.115842422868795
  0
ARC
  5
4BA
  8
0
 10
37.499999832361937
 20
38.523805528879173
 30
0.0
 40
5.9999999999999929
 50
151.80264414606259
 51
160.76971164178369
  0
ARC
  5
4BB
  8
0
 10
37.499999832361937
 20
38.523805528879173
 30
0.0
 40
6.0000000000000053
 50
19.230288358217571
 51
28.197355853940032
  0
LINE
  5
4BC
  8
0
 10
43.99999996647238
 20
30.0
 30
0.0
 11
30.999999698251489
 21
30.0
 31
0.0
  0
LINE
  5
4BF
  8
0
 10
30.0
 20
31.00000016391277
 30
0.0
 11
44.999999664723873
 21
31.00000016391278
 31
0.0
  0
LINE
  5
4C0
  8
0
 10
44.999999664723873
 20
38.767949417233467
 30
0.0
 11
30.0
 21
38.767949417233467
 31
0.0
  0
LINE
  5
4C1
  8
0
 10
43.99999996647238
 20
40.500000324100249
 30
0.0
 11
30.999999698251489
 21
40.500000324100249
 31
0.0
  0
ARC
  5
4C2
  8
0
 10
37.499999832361937
 20
57.652410719200581
 30
0.0
 40
13.680939541045699
 50
252.81802636095139
 51
287.18197363904858
  0
ARC
  5
4C3
  8
0
 10
43.562177773565047
 20
47.63494866837641
 30
0.0
 40
3.6610964675335689
 50
236.49941007800729
 51
296.4994146105131
  0
ARC
  5
4C4
  8
0
 10
31.437821891158819
 20
47.676034779832207
 30
0.0
 40
3.695426941097947
 50
243.14898282803989
 51
303.1489873605446
  0
LINE
  5
4C5
  8
0
 10
43.749999925494187
 20
43.52380542084574
 30
0.0
 11
31.249999739229679
 21
43.52380542084574
 31
0.0
  0
ARC
  5
4C6
  8
0
 10
31.437821891158819
 20
42.890053194787242
 30
0.0
 40
3.6799709916028842
 50
56.693704608499317
 51
116.69370368237961
  0
ARC
  5
4C7
  8
0
 10
43.562177773565047
 20
42.913626994691057
 30
0.0
 40
3.6602921480337578
 50
63.508924762024151
 51
123.5089238359156
  0
ARC
  5
4C8
  8
0
 10
37.499999832361937
 20
32.917142006859422
 30
0.0
 40
13.65997864558733
 50
72.790839215858043
 51
107.2091607841453
  0
LINE
  5
4C9
  8
0
 10
31.249999739229679
 20
47.023805528879159
 30
0.0
 11
43.749999925494187
 21
47.023805528879159
 31
0.0
  0
LINE
  5
4CA
  8
0
 10
41.541451793164008
 20
44.582033036276691
 30
0.0
 11
41.541451793164008
 21
45.965578029863529
 31
0.0
  0
LINE
  5
4CB
  8
0
 10
33.458547871559858
 20
44.582033036276691
 30
0.0
 11
33.458547871559858
 21
45.965578029863529
 31
0.0
  0
LINE
  5
4CC
  8
0
 10
45.582903753966093
 20
44.582033036276691
 30
0.0
 11
45.582903753966093
 21
45.965578029863529
 31
0.0
  0
LINE
  5
4CD
  8
0
 10
29.41709591075778
 20
44.582033036276691
 30
0.0
 11
29.41709591075778
 21
45.965578029863529
 31
0.0
  0
LINE
  5
4CE
  8
0
 10
42.787951156497002
 20
41.35886600241065
 30
0.0
 11
32.212048508226871
 21
41.35886600241065
 31
0.0
  0
LINE
  5
4DC
  8
1
 10
37.499999832361972
 20
25.0
 30
0.0
 11
37.499999832361937
 21
52.023805528879159
 31
0.0
  0
ARC
  5
4FE
  8
0
 10
37.499999832361937
 20
80.0
 30
0.0
 40
7.5000000000000098
 50
9.2353434639642682
 51
50.75477341492433
  0
ARC
  5
4FF
  8
0
 10
37.499999832361937
 20
80.0
 30
0.0
 40
7.5000000000000071
 50
309.06912090982547
 51
351.01117068592248
  0
ARC
  5
500
  8
0
 10
37.499999832361937
 20
80.0
 30
0.0
 40
7.500000000000008
 50
249.21803208310709
 51
290.75280128590418
  0
ARC
  5
501
  8
0
 10
37.499999832361937
 20
80.0
 30
0.0
 40
7.5000000000000089
 50
189.12562044151821
 51
230.9583263618475
  0
ARC
  5
502
  8
0
 10
37.499999832361937
 20
80.0
 30
0.0
 40
7.5000000000000062
 50
129.19373902972239
 51
170.7592628227199
  0
LINE
  5
506
  8
0
 10
41.541451793164008
 20
87.000000216066823
 30
0.0
 11
33.458547871559858
 21
87.000000216066823
 31
0.0
  0
LINE
  5
509
  8
0
 10
33.458547871559858
 20
72.999999783933163
 30
0.0
 11
41.541451793164008
 21
72.999999783933163
 31
0.0
  0
CIRCLE
  5
50A
  8
0
 10
37.499999832361937
 20
80.0
 30
0.0
 40
6.25
  0
LINE
  5
6CF
  8
1
 10
49.999999832361929
 20
80.0
 30
0.0
 11
24.99999983236194
 21
80.0
 31
0.0
  0
LINE
  5
6D0
  8
1
 10
37.499999832361937
 20
92.5
 30
0.0
 11
37.499999832361937
 21
67.499999999999972
 31
0.0
  0
CIRCLE
  5
6D5
  8
0
 10
37.499996989049038
 20
80.0
 30
0.0
 40
3.4000066027213469
  0
CIRCLE
  5
6D6
  8
3
 10
37.499996989049038
 20
80.0
 30
0.0
 40
4.0000077679074684
  0
ARC
  5
6D7
  8
0
 10
37.499999832361937
 20
80.0
 30
0.0
 40
7.5
 50
68.960534816395253
 51
111.0394651836047
  0
LINE
  5
6D8
  8
0
 10
33.458547871559858
 20
87.000000216066823
 30
0.0
 11
29.41709591075778
 21
80.0
 31
0.0
  0
LINE
  5
6D9
  8
0
 10
29.41709591075778
 20
80.0
 30
0.0
 11
33.458547871559858
 21
72.999999783933163
 31
0.0
  0
LINE
  5
6DA
  8
0
 10
41.541451793164008
 20
72.999999783933163
 30
0.0
 11
45.582903753966093
 21
80.0
 31
0.0
  0
LINE
  5
6DB
  8
0
 10
41.541451793164008
 20
87.000000216066823
 30
0.0
 11
45.582903753966093
 21
80.0
 31
0.0
  0
LINE
  5
6DC
  8
0
 10
70.0
 20
31.00000016391277
 30
0.0
 11
70.999999698251486
 21
30.0
 31
0.0
  0
LINE
  5
6DD
  8
0
 10
83.999999966472373
 20
30.0
 30
0.0
 11
84.999999664723873
 21
31.00000016391277
 31
0.0
  0
LINE
  5
6DE
  8
0
 10
84.999999664723873
 20
31.00000016391277
 30
0.0
 11
84.999999664723873
 21
38.767949417233467
 31
0.0
  0
LINE
  5
6DF
  8
0
 10
70.0
 20
38.767949417233467
 30
0.0
 11
70.0
 21
31.00000016391277
 31
0.0
  0
LINE
  5
6E0
  8
0
 10
84.999999664723873
 20
38.767949417233467
 30
0.0
 11
83.999999966472373
 21
40.500000324100249
 31
0.0
  0
LINE
  5
6E1
  8
0
 10
70.999999698251486
 20
40.500000324100249
 30
0.0
 11
70.0
 21
38.767949417233467
 31
0.0
  0
LINE
  5
6E2
  8
0
 10
70.499999616295128
 20
43.971471178154893
 30
0.0
 11
71.249999739229665
 21
43.52380542084574
 31
0.0
  0
LINE
  5
6E3
  8
0
 10
83.749999925494194
 20
43.52380542084574
 30
0.0
 11
84.500000048428802
 21
43.971471178154893
 31
0.0
  0
LINE
  5
6E4
  8
0
 10
84.500000048428802
 20
46.577120652446759
 30
0.0
 11
83.749999925494194
 21
47.023805528879159
 31
0.0
  0
LINE
  5
6E5
  8
0
 10
71.249999739229665
 20
47.023805528879159
 30
0.0
 11
70.499999616295128
 21
46.577120652446759
 31
0.0
  0
ARC
  5
6E6
  8
0
 10
84.109939274093904
 20
42.067631226714177
 30
0.0
 40
1.500000000000004
 50
103.8841575771346
 51
208.1973558539373
  0
ARC
  5
6E7
  8
0
 10
70.890060390629969
 20
42.067631226714177
 30
0.0
 40
1.5000000000000031
 50
331.80264414606262
 51
76.115842422868795
  0
ARC
  5
6E8
  8
0
 10
77.499999832361937
 20
38.523805528879173
 30
0.0
 40
5.9999999999999929
 50
151.80264414606259
 51
160.76971164178369
  0
ARC
  5
6E9
  8
0
 10
77.499999832361937
 20
38.523805528879173
 30
0.0
 40
6.0000000000000053
 50
19.23028835821756
 51
28.197355853940099
  0
LINE
  5
6EA
  8
0
 10
83.999999966472373
 20
30.0
 30
0.0
 11
70.999999698251486
 21
30.0
 31
0.0
  0
LINE
  5
6EB
  8
0
 10
70.0
 20
31.00000016391277
 30
0.0
 11
84.999999664723873
 21
31.00000016391278
 31
0.0
  0
LINE
  5
6EC
  8
0
 10
84.999999664723873
 20
38.767949417233467
 30
0.0
 11
70.0
 21
38.767949417233467
 31
0.0
  0
LINE
  5
6ED
  8
0
 10
83.999999966472373
 20
40.500000324100249
 30
0.0
 11
70.999999698251486
 21
40.500000324100249
 31
0.0
  0
LINE
  5
6F1
  8
0
 10
83.749999925494194
 20
43.52380542084574
 30
0.0
 11
71.249999739229665
 21
43.52380542084574
 31
0.0
  0
LINE
  5
6F5
  8
0
 10
71.249999739229665
 20
47.023805528879159
 30
0.0
 11
83.749999925494194
 21
47.023805528879159
 31
0.0
  0
LINE
  5
6F6
  8
0
 10
77.499999832362249
 20
44.582033036276691
 30
0.0
 11
77.499999832362249
 21
45.965578029863529
 31
0.0
  0
LINE
  5
6FA
  8
0
 10
82.787951156497002
 20
41.35886600241065
 30
0.0
 11
72.212048508226871
 21
41.35886600241065
 31
0.0
  0
LINE
  5
6FB
  8
1
 10
77.499999832361965
 20
25.0
 30
0.0
 11
77.499999832361937
 21
52.023805528879159
 31
0.0
  0
ARC
  5
6FC
  8
0
 10
80.999999940394957
 20
54.308496305844699
 30
0.0
 40
10.33702512768981
 50
250.2090854151555
 51
289.79091458484532
  0
ARC
  5
6FD
  8
0
 10
80.999999940395355
 20
36.255693601175423
 30
0.0
 40
10.32142705127133
 50
70.177924546524963
 51
109.82207545347499
  0
LINE
  5
713
  8
0
 10
70.499999616295128
 20
46.577120652446759
 30
0.0
 11
70.499999616295128
 21
43.971471178154893
 31
0.0
  0
LINE
  5
714
  8
0
 10
84.500000048428802
 20
46.577120652446759
 30
0.0
 11
84.500000048428802
 21
43.971471178154893
 31
0.0
  0
ARC
  5
73C
  8
0
 10
73.99999972432903
 20
54.30849630584472
 30
0.0
 40
10.33702512768981
 50
250.2090854151547
 51
289.79091458484532
  0
ARC
  5
73D
  8
0
 10
73.999999724328433
 20
36.255693601175473
 30
0.0
 40
10.32142705127133
 50
70.177924546525844
 51
109.8220754534741
  0
TEXT
  5
7C9
  8
0
 62
     3
 10
0.0
 20
0.0
 30
0.0
 40
5.0
  1
BJ731-08017-SUS
  7
STANDARD1
  0
ENDSEC
  0
EOF
