  0
SECTION
  2
HEADER
  9
$ACADVER
  1
AC1009
  9
$INSBASE
 10
0.0
 20
0.0
 30
0.0
  9
$EXTMIN
 10
0.0
 20
-1.4802182810368341
 30
0.0
  9
$EXTMAX
 10
125.1976425362657
 20
110.6976425362656
 30
0.0
  9
$LIMMIN
 10
0.0
 20
0.0
  9
$LIMMAX
 10
187.5
 20
135.0
  9
$ORTHOMODE
 70
     1
  9
$REGENMODE
 70
     1
  9
$FILLMODE
 70
     1
  9
$QTEXTMODE
 70
     0
  9
$MIRRTEXT
 70
     0
  9
$DRAGMODE
 70
     2
  9
$LTSCALE
 40
5.0
  9
$OSMODE
 70
  3071
  9
$ATTMODE
 70
     1
  9
$TEXTSIZE
 40
0.2
  9
$TRACEWID
 40
0.05
  9
$TEXTSTYLE
  7
STANDARD
  9
$CLAYER
  8
0
  9
$CELTYPE
  6
BYLAYER
  9
$CECOLOR
 62
   256
  9
$DIMSCALE
 40
0.5
  9
$DIMASZ
 40
3.0
  9
$DIMEXO
 40
2.0
  9
$DIMDLI
 40
0.38
  9
$DIMRND
 40
0.0
  9
$DIMDLE
 40
0.0
  9
$DIMEXE
 40
2.0
  9
$DIMTP
 40
0.0
  9
$DIMTM
 40
0.0
  9
$DIMTXT
 40
3.2000000000000002
  9
$DIMCEN
 40
0.0
  9
$DIMTSZ
 40
0.0
  9
$DIMTOL
 70
     0
  9
$DIMLIM
 70
     0
  9
$DIMTIH
 70
     0
  9
$DIMTOH
 70
     0
  9
$DIMSE1
 70
     0
  9
$DIMSE2
 70
     0
  9
$DIMTAD
 70
     1
  9
$DIMZIN
 70
     0
  9
$DIMBLK
  1

  9
$DIMASO
 70
     0
  9
$DIMSHO
 70
     0
  9
$DIMPOST
  1

  9
$DIMAPOST
  1

  9
$DIMALT
 70
     0
  9
$DIMALTD
 70
     2
  9
$DIMALTF
 40
25.399999999999999
  9
$DIMLFAC
 40
1.0
  9
$DIMTOFL
 70
     1
  9
$DIMTVP
 40
1.6000000000000001
  9
$DIMTIX
 70
     1
  9
$DIMSOXD
 70
     0
  9
$DIMSAH
 70
     0
  9
$DIMBLK1
  1

  9
$DIMBLK2
  1

  9
$DIMSTYLE
  2
STANDARD
  9
$DIMCLRD
 70
     0
  9
$DIMCLRE
 70
     0
  9
$DIMCLRT
 70
     0
  9
$DIMTFAC
 40
1.0
  9
$DIMGAP
 40
0.09
  9
$LUNITS
 70
     2
  9
$LUPREC
 70
     4
  9
$SKETCHINC
 40
0.1
  9
$FILLETRAD
 40
0.0
  9
$AUNITS
 70
     0
  9
$AUPREC
 70
     4
  9
$MENU
  1
E:\r13\win\SUPPORT\ACAD
  9
$ELEVATION
 40
0.0
  9
$PELEVATION
 40
0.0
  9
$THICKNESS
 40
0.0
  9
$LIMCHECK
 70
     0
  9
$BLIPMODE
 70
     0
  9
$CHAMFERA
 40
0.0
  9
$CHAMFERB
 40
0.0
  9
$SKPOLY
 70
     0
  9
$TDCREATE
 40
2449839.7680787039
  9
$TDUPDATE
 40
2456597.6902938662
  9
$TDINDWG
 40
0.0005795833
  9
$TDUSRTIMER
 40
0.0005795833
  9
$USRTIMER
 70
     1
  9
$ANGBASE
 50
0.0
  9
$ANGDIR
 70
     0
  9
$PDMODE
 70
     0
  9
$PDSIZE
 40
0.0
  9
$PLINEWID
 40
0.0
  9
$COORDS
 70
     1
  9
$SPLFRAME
 70
     0
  9
$SPLINETYPE
 70
     6
  9
$SPLINESEGS
 70
     8
  9
$ATTDIA
 70
     0
  9
$ATTREQ
 70
     1
  9
$HANDLING
 70
     1
  9
$HANDSEED
  5
29C
  9
$SURFTAB1
 70
     6
  9
$SURFTAB2
 70
     6
  9
$SURFTYPE
 70
     6
  9
$SURFU
 70
     6
  9
$SURFV
 70
     6
  9
$UCSNAME
  2

  9
$UCSORG
 10
0.0
 20
0.0
 30
0.0
  9
$UCSXDIR
 10
1.0
 20
0.0
 30
0.0
  9
$UCSYDIR
 10
0.0
 20
1.0
 30
0.0
  9
$PUCSNAME
  2

  9
$PUCSORG
 10
0.0
 20
0.0
 30
0.0
  9
$PUCSXDIR
 10
1.0
 20
0.0
 30
0.0
  9
$PUCSYDIR
 10
0.0
 20
1.0
 30
0.0
  9
$USERI1
 70
     3
  9
$USERI2
 70
     1
  9
$USERI3
 70
     1
  9
$USERI4
 70
     0
  9
$USERI5
 70
     0
  9
$USERR1
 40
0.0
  9
$USERR2
 40
0.0
  9
$USERR3
 40
0.0
  9
$USERR4
 40
0.0
  9
$USERR5
 40
0.0
  9
$WORLDVIEW
 70
     1
  9
$SHADEDGE
 70
     3
  9
$SHADEDIF
 70
    70
  9
$TILEMODE
 70
     1
  9
$MAXACTVP
 70
    16
  9
$PLIMCHECK
 70
     0
  9
$PEXTMIN
 10
1.0000000000000000E+020
 20
1.0000000000000000E+020
 30
1.0000000000000000E+020
  9
$PEXTMAX
 10
-1.0000000000000000E+020
 20
-1.0000000000000000E+020
 30
-1.0000000000000000E+020
  9
$PLIMMIN
 10
0.0
 20
0.0
  9
$PLIMMAX
 10
12.0
 20
9.0
  9
$UNITMODE
 70
     0
  9
$VISRETAIN
 70
     0
  9
$PLINEGEN
 70
     0
  9
$PSLTSCALE
 70
     0
  0
ENDSEC
  0
SECTION
  2
TABLES
  0
TABLE
  2
VPORT
 70
     1
  0
VPORT
  2
*ACTIVE
 70
     0
 10
0.0
 20
0.0
 11
1.0
 21
1.0
 12
97.52905416604365
 22
66.75636307133405
 13
0.0
 23
0.0
 14
5.0
 24
5.0
 15
5.0
 25
5.0
 16
0.0
 26
0.0
 36
1.0
 17
0.0
 27
0.0
 37
0.0
 40
137.71137496815999
 41
1.831871345029239
 42
50.0
 43
0.0
 44
0.0
 50
0.0
 51
0.0
 71
     0
 72
   500
 73
     1
 74
     0
 75
     0
 76
     0
 77
     0
 78
     2
  0
ENDTAB
  0
TABLE
  2
LTYPE
 70
     3
  0
LTYPE
  2
CONTINUOUS
 70
     0
  3
Solid Line
 72
    65
 73
     0
 40
0.0
  0
LTYPE
  2
CENTER
 70
     0
  3
____ _ ____ _ ____ _ ____ _ ____ _ ____ _ ____
 72
    65
 73
     4
 40
2.0
 49
1.25
 49
-0.25
 49
0.25
 49
-0.25
  0
LTYPE
  2
PHANTOM2
 70
     0
  3
___ _ _ ___ _ _ ___ _ _ ___ _ _
 72
    65
 73
     6
 40
1.25
 49
0.625
 49
-0.125
 49
0.125
 49
-0.125
 49
0.125
 49
-0.125
  0
ENDTAB
  0
TABLE
  2
LAYER
 70
     3
  0
LAYER
  2
0
 70
     0
 62
     7
  6
CONTINUOUS
  0
LAYER
  2
1
 70
     0
 62
     1
  6
CENTER
  0
LAYER
  2
3
 70
     0
 62
     3
  6
CONTINUOUS
  0
ENDTAB
  0
TABLE
  2
STYLE
 70
     2
  0
STYLE
  2
STANDARD
 70
     0
 40
0.0
 41
1.0
 50
0.0
 71
     0
 42
0.2
  3
TXT
  4
BIGFONT
  0
STYLE
  2
STANDARD1
 70
     0
 40
0.0
 41
1.0
 50
0.0
 71
     0
 42
3.0
  3
txt
  4

  0
ENDTAB
  0
TABLE
  2
VIEW
 70
     1
  0
VIEW
  2
ALL
 70
     0
 40
179.5384664489153
 10
135.0
 20
89.769233224457665
 41
0.0
 11
0.0
 21
0.0
 31
1.0
 12
0.0
 22
0.0
 32
0.0
 42
0.0
 43
0.0
 44
0.0
 50
0.0
 71
     0
  0
ENDTAB
  0
TABLE
  2
UCS
 70
     0
  0
ENDTAB
  0
TABLE
  2
APPID
 70
     3
  0
APPID
  2
ACAD
 70
     0
  0
APPID
  2
ACAD_MLEADERVER
 70
     0
  0
APPID
  2
ACAD_NAV_VCDISPLAY
 70
     0
  0
ENDTAB
  0
TABLE
  2
DIMSTYLE
 70
     1
  0
DIMSTYLE
  2
STANDARD
 70
     0
  3

  4

  5

  6

  7

 40
1.0
 41
0.18
 42
0.0625
 43
0.38
 44
0.18
 45
0.0
 46
0.0
 47
0.0
 48
0.0
140
0.18
141
0.09
142
0.0
143
25.399999999999999
144
1.0
145
0.0
146
1.0
147
0.09
 71
     0
 72
     0
 73
     1
 74
     1
 75
     0
 76
     0
 77
     0
 78
     0
170
     0
171
     2
172
     0
173
     0
174
     0
175
     0
176
     0
177
     0
178
     0
  0
ENDTAB
  0
ENDSEC
  0
SECTION
  2
BLOCKS
  0
BLOCK
  8
0
  2
$MODEL_SPACE
 70
     0
 10
0.0
 20
0.0
 30
0.0
  3
$MODEL_SPACE
  1

  0
ENDBLK
  5
152
  8
0
  0
BLOCK
 67
     1
  8
0
  2
$PAPER_SPACE
 70
     0
 10
0.0
 20
0.0
 30
0.0
  3
$PAPER_SPACE
  1

  0
ENDBLK
  5
150
 67
     1
  8
0
  0
ENDSEC
  0
SECTION
  2
ENTITIES
  0
LINE
  5
35
  8
1
 10
67.5
 20
20.000000000000021
 30
0.0
 11
67.5
 21
65.000000000000014
 31
0.0
  0
LINE
  5
36
  8
0
 10
76.0
 20
45.000000000000007
 30
0.0
 11
59.000000000000043
 21
45.000000000000007
 31
0.0
  0
LINE
  5
37
  8
0
 10
58.5
 20
45.500000000000007
 30
0.0
 11
58.5
 21
55.000000000000007
 31
0.0
  0
LINE
  5
38
  8
0
 10
73.613248654044725
 20
60.000000000000007
 30
0.0
 11
76.5
 21
55.000000000000007
 31
0.0
  0
LINE
  5
39
  8
0
 10
61.386751345955268
 20
60.000000000000007
 30
0.0
 11
58.5
 21
55.000000000000007
 31
0.0
  0
LINE
  5
3A
  8
0
 10
76.5
 20
55.000000000000007
 30
0.0
 11
76.5
 21
45.500000000000007
 31
0.0
  0
LINE
  5
3B
  8
0
 10
61.386751345955268
 20
60.000000000000007
 30
0.0
 11
73.613248654044725
 21
60.000000000000007
 31
0.0
  0
LINE
  5
3C
  8
0
 10
61.577350269189743
 20
25.000000000000021
 30
0.0
 11
73.422649730810278
 21
25.000000000000021
 31
0.0
  0
LINE
  5
3D
  8
0
 10
61.0
 20
26.000000000000021
 30
0.0
 11
61.0
 21
43.800000000000203
 31
0.0
  0
LINE
  5
3E
  8
0
 10
73.500000000000014
 20
44.666025403784609
 30
0.0
 11
73.500000000000014
 21
45.000000000000178
 31
0.0
  0
LINE
  5
3F
  8
0
 10
74.000000000000014
 20
43.800000000000168
 30
0.0
 11
73.500000000000014
 21
44.666025403784609
 31
0.0
  0
LINE
  5
40
  8
0
 10
74.0
 20
26.000000000000021
 30
0.0
 11
74.0
 21
43.800000000000203
 31
0.0
  0
LINE
  5
41
  8
0
 10
61.5
 20
44.666025403784609
 30
0.0
 11
73.500000000000014
 21
44.666025403784609
 31
0.0
  0
LINE
  5
42
  8
0
 10
60.999999999999993
 20
43.800000000000217
 30
0.0
 11
74.0
 21
43.800000000000203
 31
0.0
  0
LINE
  5
43
  8
0
 10
61.5
 20
44.666025403784609
 30
0.0
 11
61.5
 21
45.0
 31
0.0
  0
LINE
  5
44
  8
0
 10
61.0
 20
43.800000000000168
 30
0.0
 11
61.5
 21
44.666025403784609
 31
0.0
  0
LINE
  5
45
  8
0
 10
76.0
 20
45.000000000000007
 30
0.0
 11
76.5
 21
45.500000000000007
 31
0.0
  0
LINE
  5
46
  8
0
 10
58.99999999999995
 20
45.000000000000107
 30
0.0
 11
58.5
 21
45.500000000000007
 31
0.0
  0
LINE
  5
47
  8
0
 10
61.0
 20
26.000000000000021
 30
0.0
 11
74.0
 21
26.000000000000021
 31
0.0
  0
LINE
  5
4A
  8
0
 10
74.0
 20
26.000000000000021
 30
0.0
 11
73.422649730810264
 21
25.000000000000021
 31
0.0
  0
LINE
  5
4B
  8
0
 10
61.0
 20
26.000000000000021
 30
0.0
 11
61.577350269189743
 21
25.000000000000021
 31
0.0
  0
LINE
  5
4C
  8
0
 10
67.499999999999972
 20
57.300919686557741
 30
0.0
 11
67.5
 21
45.0
 31
0.0
  0
CIRCLE
  5
4D
  8
0
 10
67.500000000000014
 20
100.0
 30
0.0
 40
6.1393277907353569
  0
CIRCLE
  5
4E
  8
0
 10
67.500000000000014
 20
100.0
 30
0.0
 40
2.0669999999999988
  0
CIRCLE
  5
4F
  8
3
 10
67.500000000000014
 20
100.0
 30
0.0
 40
2.5
  0
LINE
  5
50
  8
1
 10
67.5
 20
89.302357463734282
 30
0.0
 11
67.500000000000014
 21
110.6976425362656
 31
0.0
  0
LINE
  5
51
  8
1
 10
55.499999999999979
 20
100.0
 30
0.0
 11
79.500000000000014
 21
100.0
 31
0.0
  0
LINE
  5
52
  8
0
 10
76.069568250501291
 20
102.7500000000001
 30
0.0
 11
67.5
 21
107.6976425362659
 31
0.0
  0
LINE
  5
53
  8
0
 10
76.069568250501234
 20
97.250000000000014
 30
0.0
 11
67.499999999999986
 21
92.302357463734296
 31
0.0
  0
LINE
  5
54
  8
0
 10
58.930431749498752
 20
102.7500000000001
 30
0.0
 11
67.5
 21
107.6976425362659
 31
0.0
  0
LINE
  5
55
  8
0
 10
58.930431749498439
 20
97.250000000000213
 30
0.0
 11
67.499999999999986
 21
92.302357463734296
 31
0.0
  0
LINE
  5
56
  8
0
 10
76.095647387192386
 20
54.999999999999993
 30
0.0
 11
76.0956473871924
 21
45.095647387192408
 31
0.0
  0
LINE
  5
57
  8
3
 10
76.051435362910922
 20
45.051435362910929
 30
0.0
 11
67.499999999999972
 21
57.300919686557663
 31
0.0
  0
LINE
  5
58
  8
3
 10
67.5
 20
45.000000000000007
 30
0.0
 11
76.095647387192386
 21
54.999999999999993
 31
0.0
  0
ARC
  5
59
  8
0
 10
67.500000000000014
 20
100.0
 30
0.0
 40
9.0
 50
162.20840942699161
 51
197.79159057300589
  0
ARC
  5
5A
  8
0
 10
67.500000000000014
 20
100.0
 30
0.0
 40
9.0
 50
342.20840942699363
 51
17.791590573007941
  0
CIRCLE
  5
5B
  8
0
 10
67.500000000000014
 20
100.0
 30
0.0
 40
3.026079136690718
  0
LINE
  5
5C
  8
0
 10
76.5
 20
45.500000000000007
 30
0.0
 11
76.095647387192386
 21
45.500000000000007
 31
0.0
  0
LINE
  5
5D
  8
0
 10
76.5
 20
55.000000000000007
 30
0.0
 11
76.095647387192386
 21
55.000000000000007
 31
0.0
  0
ARC
  5
5E
  8
0
 10
70.826390730877989
 20
55.35642377838532
 30
0.0
 40
3.853042905466852
 50
89.899086415847435
 51
149.69088297996271
  0
ARC
  5
5F
  8
0
 10
69.785685488590175
 20
52.505758727786699
 30
0.0
 40
6.7850466973944874
 50
21.56820662155743
 51
81.119023225227039
  0
ARC
  5
60
  8
0
 10
65.214314511409825
 20
52.505758727786699
 30
0.0
 40
6.7850466973944874
 50
98.880976774772975
 51
158.43179337844259
  0
ARC
  5
61
  8
0
 10
64.173609269122011
 20
55.35642377838532
 30
0.0
 40
3.853042905466852
 50
30.309117020037309
 51
90.100913584152565
  0
LINE
  5
62
  8
0
 10
58.5
 20
55.000000000000007
 30
0.0
 11
58.904352612807607
 21
55.000000000000007
 31
0.0
  0
LINE
  5
63
  8
0
 10
58.5
 20
45.500000000000007
 30
0.0
 11
58.904352612807607
 21
45.500000000000007
 31
0.0
  0
LINE
  5
64
  8
3
 10
67.5
 20
45.000000000000007
 30
0.0
 11
58.904352612807607
 21
54.999999999999993
 31
0.0
  0
LINE
  5
65
  8
3
 10
58.948564637089078
 20
45.051435362910929
 30
0.0
 11
67.500000000000028
 21
57.300919686557663
 31
0.0
  0
LINE
  5
66
  8
0
 10
58.904352612807607
 20
54.999999999999993
 30
0.0
 11
58.9043526128076
 21
45.095647387192408
 31
0.0
  0
LINE
  5
67
  8
0
 10
111.0
 20
26.000000000000021
 30
0.0
 11
111.57735026918969
 21
25.000000000000021
 31
0.0
  0
LINE
  5
68
  8
0
 10
124.0
 20
26.000000000000021
 30
0.0
 11
123.42264973081021
 21
25.000000000000021
 31
0.0
  0
LINE
  5
69
  8
0
 10
111.0
 20
26.000000000000021
 30
0.0
 11
124.0
 21
26.000000000000021
 31
0.0
  0
LINE
  5
6A
  8
0
 10
111.0
 20
43.800000000000168
 30
0.0
 11
111.5
 21
44.666025403784609
 31
0.0
  0
LINE
  5
6B
  8
0
 10
111.5
 20
44.666025403784609
 30
0.0
 11
111.5
 21
45.0
 31
0.0
  0
LINE
  5
6C
  8
0
 10
111.0
 20
43.800000000000217
 30
0.0
 11
124.0
 21
43.800000000000203
 31
0.0
  0
LINE
  5
6D
  8
0
 10
111.5
 20
44.666025403784609
 30
0.0
 11
123.5
 21
44.666025403784609
 31
0.0
  0
LINE
  5
6E
  8
0
 10
124.0
 20
26.000000000000021
 30
0.0
 11
124.0
 21
43.800000000000203
 31
0.0
  0
LINE
  5
6F
  8
0
 10
124.0
 20
43.800000000000168
 30
0.0
 11
123.5
 21
44.666025403784609
 31
0.0
  0
LINE
  5
70
  8
0
 10
123.5
 20
44.666025403784609
 30
0.0
 11
123.5
 21
45.000000000000178
 31
0.0
  0
LINE
  5
71
  8
0
 10
111.0
 20
26.000000000000021
 30
0.0
 11
111.0
 21
43.800000000000203
 31
0.0
  0
LINE
  5
72
  8
0
 10
111.57735026918969
 20
25.000000000000021
 30
0.0
 11
123.42264973081031
 21
25.000000000000021
 31
0.0
  0
LINE
  5
73
  8
0
 10
111.3867513459553
 20
60.000000000000007
 30
0.0
 11
123.6132486540447
 21
60.000000000000007
 31
0.0
  0
LINE
  5
74
  8
0
 10
123.6132486540447
 20
60.000000000000007
 30
0.0
 11
125.1976425362657
 21
57.255749296798712
 31
0.0
  0
LINE
  5
75
  8
0
 10
125.1976425362657
 20
45.000000000000021
 30
0.0
 11
109.8023574637343
 21
45.000000000000021
 31
0.0
  0
LINE
  5
76
  8
1
 10
117.5
 20
20.000000000000021
 30
0.0
 11
117.5
 21
65.000000000000014
 31
0.0
  0
LINE
  5
77
  8
0
 10
125.1976425362657
 20
57.255749296798761
 30
0.0
 11
125.1976425362657
 21
45.000000000000007
 31
0.0
  0
LINE
  5
78
  8
0
 10
120.2499999999999
 20
54.999999999999993
 30
0.0
 11
120.2499999999999
 21
45.000000000000021
 31
0.0
  0
LINE
  5
79
  8
0
 10
114.7500000000001
 20
54.999999999999993
 30
0.0
 11
120.2499999999999
 21
54.999999999999993
 31
0.0
  0
LINE
  5
7A
  8
0
 10
114.7500000000001
 20
54.999999999999993
 30
0.0
 11
114.7500000000001
 21
45.000000000000021
 31
0.0
  0
LINE
  5
7B
  8
0
 10
109.8023574637342
 20
57.255749296798761
 30
0.0
 11
109.8023574637343
 21
45.000000000000007
 31
0.0
  0
LINE
  5
7C
  8
0
 10
111.3867513459553
 20
60.000000000000007
 30
0.0
 11
109.8023574637342
 21
57.255749296798712
 31
0.0
  0
LINE
  5
7D
  8
3
 10
109.8023574637342
 20
57.255749296798712
 30
0.0
 11
114.7500000000001
 21
45.000000000000021
 31
0.0
  0
LINE
  5
7E
  8
3
 10
114.7500000000001
 20
55.0
 30
0.0
 11
109.8023574637343
 21
45.000000000000021
 31
0.0
  0
LINE
  5
7F
  8
3
 10
120.2499999999998
 20
55.0
 30
0.0
 11
125.1976425362657
 21
45.000000000000021
 31
0.0
  0
LINE
  5
80
  8
3
 10
125.1976425362657
 20
57.255749296798712
 30
0.0
 11
120.2499999999998
 21
45.000000000000021
 31
0.0
  0
POLYLINE
  5
81
  8
0
 66
     1
 10
0.0
 20
0.0
 30
0.0
  0
VERTEX
  5
82
  8
0
 10
124.6178109753866
 20
58.260047020070921
 30
0.0
 42
0.0792532057528438
 70
     2
 50
122.4604840053963
  0
VERTEX
  5
83
  8
0
 10
123.8813003868686
 20
58.926329759855697
 30
0.0
 42
0.1453102987338058
 50
122.4604840053963
  0
VERTEX
  5
84
  8
0
 10
122.92764253626569
 20
59.209460707616252
 30
0.0
 42
0.1453102987338046
  0
VERTEX
  5
85
  8
0
 10
121.9739846856628
 20
58.926329759855733
 30
0.0
 42
0.1071706840646032
  0
VERTEX
  5
86
  8
0
 10
121.0342633412786
 20
57.976538211493732
 30
0.0
 42
0.077382856483734
 70
     2
 50
237.5395159946041
  0
VERTEX
  5
87
  8
0
 10
120.46764481691621
 20
56.680259457513557
 30
0.0
 42
0.064495836045369
 50
237.5395159946041
  0
VERTEX
  5
88
  8
0
 10
120.2499999999999
 20
54.999999999999858
 30
0.0
 42
0.0644958360453649
  0
SEQEND
  5
89
  8
0
  0
POLYLINE
  5
8A
  8
0
 66
     1
 10
0.0
 20
0.0
 30
0.0
  0
VERTEX
  5
8B
  8
0
 10
110.3821890246134
 20
58.260047020070921
 30
0.0
 42
-0.0792532057528438
 70
     2
 50
57.539515994603697
  0
VERTEX
  5
8C
  8
0
 10
111.1186996131313
 20
58.926329759855697
 30
0.0
 42
-0.1453102987338058
  0
VERTEX
  5
8D
  8
0
 10
112.07235746373421
 20
59.209460707616252
 30
0.0
 42
-0.1453102987338046
  0
VERTEX
  5
8E
  8
0
 10
113.0260153143371
 20
58.926329759855733
 30
0.0
 42
-0.1071706840646032
  0
VERTEX
  5
8F
  8
0
 10
113.9657366587214
 20
57.976538211493732
 30
0.0
 42
-0.077382856483734
 70
     2
 50
302.46048400539598
  0
VERTEX
  5
90
  8
0
 10
114.53235518308369
 20
56.680259457513557
 30
0.0
 42
-0.064495836045369
  0
VERTEX
  5
91
  8
0
 10
114.7500000000001
 20
54.999999999999858
 30
0.0
 42
-0.0644958360453649
  0
SEQEND
  5
92
  8
0
  0
TEXT
  5
20B
  8
0
 62
     3
 10
0.0
 20
0.0
 30
0.0
 40
5.0
  1
BJ723-18021
  7
STANDARD1
  0
ENDSEC
  0
EOF
