  0
SECTION
  2
HEADER
  9
$ACADVER
  1
AC1009
  9
$INSBASE
 10
0.0
 20
0.0
 30
0.0
  9
$EXTMIN
 10
0.0
 20
-1.4802182810368341
 30
0.0
  9
$EXTMAX
 10
130.0231766365678
 20
111.30752676776009
 30
0.0
  9
$LIMMIN
 10
0.0
 20
0.0
  9
$LIMMAX
 10
187.5
 20
135.0
  9
$ORTHOMODE
 70
     1
  9
$REGENMODE
 70
     1
  9
$FILLMODE
 70
     1
  9
$QTEXTMODE
 70
     0
  9
$MIRRTEXT
 70
     0
  9
$DRAGMODE
 70
     2
  9
$LTSCALE
 40
5.0
  9
$OSMODE
 70
  3071
  9
$ATTMODE
 70
     1
  9
$TEXTSIZE
 40
0.2
  9
$TRACEWID
 40
0.05
  9
$TEXTSTYLE
  7
STANDARD
  9
$CLAYER
  8
0
  9
$CELTYPE
  6
BYLAYER
  9
$CECOLOR
 62
   256
  9
$DIMSCALE
 40
0.5
  9
$DIMASZ
 40
3.0
  9
$DIMEXO
 40
2.0
  9
$DIMDLI
 40
0.38
  9
$DIMRND
 40
0.0
  9
$DIMDLE
 40
0.0
  9
$DIMEXE
 40
2.0
  9
$DIMTP
 40
0.0
  9
$DIMTM
 40
0.0
  9
$DIMTXT
 40
3.2000000000000002
  9
$DIMCEN
 40
0.0
  9
$DIMTSZ
 40
0.0
  9
$DIMTOL
 70
     0
  9
$DIMLIM
 70
     0
  9
$DIMTIH
 70
     0
  9
$DIMTOH
 70
     0
  9
$DIMSE1
 70
     0
  9
$DIMSE2
 70
     0
  9
$DIMTAD
 70
     1
  9
$DIMZIN
 70
     0
  9
$DIMBLK
  1

  9
$DIMASO
 70
     0
  9
$DIMSHO
 70
     0
  9
$DIMPOST
  1

  9
$DIMAPOST
  1

  9
$DIMALT
 70
     0
  9
$DIMALTD
 70
     2
  9
$DIMALTF
 40
25.399999999999999
  9
$DIMLFAC
 40
1.0
  9
$DIMTOFL
 70
     1
  9
$DIMTVP
 40
1.6000000000000001
  9
$DIMTIX
 70
     1
  9
$DIMSOXD
 70
     0
  9
$DIMSAH
 70
     0
  9
$DIMBLK1
  1

  9
$DIMBLK2
  1

  9
$DIMSTYLE
  2
STANDARD
  9
$DIMCLRD
 70
     0
  9
$DIMCLRE
 70
     0
  9
$DIMCLRT
 70
     0
  9
$DIMTFAC
 40
1.0
  9
$DIMGAP
 40
0.09
  9
$LUNITS
 70
     2
  9
$LUPREC
 70
     4
  9
$SKETCHINC
 40
0.1
  9
$FILLETRAD
 40
0.0
  9
$AUNITS
 70
     0
  9
$AUPREC
 70
     4
  9
$MENU
  1
E:\r13\win\SUPPORT\ACAD
  9
$ELEVATION
 40
0.0
  9
$PELEVATION
 40
0.0
  9
$THICKNESS
 40
0.0
  9
$LIMCHECK
 70
     0
  9
$BLIPMODE
 70
     0
  9
$CHAMFERA
 40
0.0
  9
$CHAMFERB
 40
0.0
  9
$SKPOLY
 70
     0
  9
$TDCREATE
 40
2449839.7677199072
  9
$TDUPDATE
 40
2456597.6899465048
  9
$TDINDWG
 40
0.0009204167
  9
$TDUSRTIMER
 40
0.0009204167
  9
$USRTIMER
 70
     1
  9
$ANGBASE
 50
0.0
  9
$ANGDIR
 70
     0
  9
$PDMODE
 70
     0
  9
$PDSIZE
 40
0.0
  9
$PLINEWID
 40
0.0
  9
$COORDS
 70
     1
  9
$SPLFRAME
 70
     0
  9
$SPLINETYPE
 70
     6
  9
$SPLINESEGS
 70
     8
  9
$ATTDIA
 70
     0
  9
$ATTREQ
 70
     1
  9
$HANDLING
 70
     1
  9
$HANDSEED
  5
27D
  9
$SURFTAB1
 70
     6
  9
$SURFTAB2
 70
     6
  9
$SURFTYPE
 70
     6
  9
$SURFU
 70
     6
  9
$SURFV
 70
     6
  9
$UCSNAME
  2

  9
$UCSORG
 10
0.0
 20
0.0
 30
0.0
  9
$UCSXDIR
 10
1.0
 20
0.0
 30
0.0
  9
$UCSYDIR
 10
0.0
 20
1.0
 30
0.0
  9
$PUCSNAME
  2

  9
$PUCSORG
 10
0.0
 20
0.0
 30
0.0
  9
$PUCSXDIR
 10
1.0
 20
0.0
 30
0.0
  9
$PUCSYDIR
 10
0.0
 20
1.0
 30
0.0
  9
$USERI1
 70
     0
  9
$USERI2
 70
     1
  9
$USERI3
 70
     0
  9
$USERI4
 70
     0
  9
$USERI5
 70
     0
  9
$USERR1
 40
0.0
  9
$USERR2
 40
0.0
  9
$USERR3
 40
0.0
  9
$USERR4
 40
0.0
  9
$USERR5
 40
0.0
  9
$WORLDVIEW
 70
     1
  9
$SHADEDGE
 70
     3
  9
$SHADEDIF
 70
    70
  9
$TILEMODE
 70
     1
  9
$MAXACTVP
 70
    16
  9
$PLIMCHECK
 70
     0
  9
$PEXTMIN
 10
1.0000000000000000E+020
 20
1.0000000000000000E+020
 30
1.0000000000000000E+020
  9
$PEXTMAX
 10
-1.0000000000000000E+020
 20
-1.0000000000000000E+020
 30
-1.0000000000000000E+020
  9
$PLIMMIN
 10
0.0
 20
0.0
  9
$PLIMMAX
 10
12.0
 20
9.0
  9
$UNITMODE
 70
     0
  9
$VISRETAIN
 70
     0
  9
$PLINEGEN
 70
     0
  9
$PSLTSCALE
 70
     0
  0
ENDSEC
  0
SECTION
  2
TABLES
  0
TABLE
  2
VPORT
 70
     1
  0
VPORT
  2
*ACTIVE
 70
     0
 10
0.0
 20
0.0
 11
1.0
 21
1.0
 12
97.52905416604365
 22
66.75636307133405
 13
0.0
 23
0.0
 14
5.0
 24
5.0
 15
5.0
 25
5.0
 16
0.0
 26
0.0
 36
1.0
 17
0.0
 27
0.0
 37
0.0
 40
137.71137496815999
 41
1.831871345029239
 42
50.0
 43
0.0
 44
0.0
 50
0.0
 51
0.0
 71
     0
 72
   500
 73
     1
 74
     0
 75
     0
 76
     0
 77
     0
 78
     2
  0
ENDTAB
  0
TABLE
  2
LTYPE
 70
     3
  0
LTYPE
  2
CONTINUOUS
 70
     0
  3
Solid Line
 72
    65
 73
     0
 40
0.0
  0
LTYPE
  2
CENTER
 70
     0
  3
____ _ ____ _ ____ _ ____ _ ____ _ ____ _ ____
 72
    65
 73
     4
 40
2.0
 49
1.25
 49
-0.25
 49
0.25
 49
-0.25
  0
LTYPE
  2
PHANTOM2
 70
     0
  3
___ _ _ ___ _ _ ___ _ _ ___ _ _
 72
    65
 73
     6
 40
1.25
 49
0.625
 49
-0.125
 49
0.125
 49
-0.125
 49
0.125
 49
-0.125
  0
ENDTAB
  0
TABLE
  2
LAYER
 70
     3
  0
LAYER
  2
0
 70
     0
 62
     7
  6
CONTINUOUS
  0
LAYER
  2
1
 70
     0
 62
     1
  6
CENTER
  0
LAYER
  2
3
 70
     0
 62
     3
  6
CONTINUOUS
  0
ENDTAB
  0
TABLE
  2
STYLE
 70
     2
  0
STYLE
  2
STANDARD
 70
     0
 40
0.0
 41
1.0
 50
0.0
 71
     0
 42
0.2
  3
TXT
  4
BIGFONT
  0
STYLE
  2
STANDARD1
 70
     0
 40
0.0
 41
1.0
 50
0.0
 71
     0
 42
3.0
  3
txt
  4

  0
ENDTAB
  0
TABLE
  2
VIEW
 70
     1
  0
VIEW
  2
ALL
 70
     0
 40
135.0
 10
110.4957983193277
 20
67.5
 41
0.0
 11
0.0
 21
0.0
 31
1.0
 12
0.0
 22
0.0
 32
0.0
 42
0.0
 43
0.0
 44
0.0
 50
0.0
 71
     0
  0
ENDTAB
  0
TABLE
  2
UCS
 70
     0
  0
ENDTAB
  0
TABLE
  2
APPID
 70
     3
  0
APPID
  2
ACAD
 70
     0
  0
APPID
  2
ACAD_MLEADERVER
 70
     0
  0
APPID
  2
ACAD_NAV_VCDISPLAY
 70
     0
  0
ENDTAB
  0
TABLE
  2
DIMSTYLE
 70
     1
  0
DIMSTYLE
  2
STANDARD
 70
     0
  3

  4

  5

  6

  7

 40
1.0
 41
0.18
 42
0.0625
 43
0.38
 44
0.18
 45
0.0
 46
0.0
 47
0.0
 48
0.0
140
0.18
141
0.09
142
0.0
143
25.399999999999999
144
1.0
145
0.0
146
1.0
147
0.09
 71
     0
 72
     0
 73
     1
 74
     1
 75
     0
 76
     0
 77
     0
 78
     0
170
     0
171
     2
172
     0
173
     0
174
     0
175
     0
176
     0
177
     0
178
     0
  0
ENDTAB
  0
ENDSEC
  0
SECTION
  2
BLOCKS
  0
BLOCK
  8
0
  2
$MODEL_SPACE
 70
     0
 10
0.0
 20
0.0
 30
0.0
  3
$MODEL_SPACE
  1

  0
ENDBLK
  5
133
  8
0
  0
BLOCK
 67
     1
  8
0
  2
$PAPER_SPACE
 70
     0
 10
0.0
 20
0.0
 30
0.0
  3
$PAPER_SPACE
  1

  0
ENDBLK
  5
131
 67
     1
  8
0
  0
ENDSEC
  0
SECTION
  2
ENTITIES
  0
CIRCLE
  5
3F
  8
3
 10
75.421735400853592
 20
101.30752676776009
 30
0.0
 40
2.5
  0
CIRCLE
  5
40
  8
0
 10
75.421735400853592
 20
101.30752676776009
 30
0.0
 40
3.6905989232412182
  0
LINE
  5
41
  8
1
 10
65.421735400853592
 20
101.30752676776009
 30
0.0
 11
85.421735400853592
 21
101.30752676776009
 31
0.0
  0
LINE
  5
42
  8
1
 10
75.421735400853592
 20
91.307526767760081
 30
0.0
 11
75.421735400853606
 21
111.30752676776009
 31
0.0
  0
LINE
  5
43
  8
0
 10
81.101114517046184
 20
103.2426373213341
 30
0.0
 11
75.421735400853592
 21
106.5216283828978
 31
0.0
  0
LINE
  5
44
  8
0
 10
81.101114517046298
 20
99.372416214186117
 30
0.0
 11
75.421735400853592
 21
96.093425152622345
 31
0.0
  0
LINE
  5
45
  8
0
 10
69.720577083023912
 20
103.2426373213341
 30
0.0
 11
75.39995619921649
 21
106.5216283828978
 31
0.0
  0
LINE
  5
46
  8
0
 10
69.720577083023755
 20
99.372416214186117
 30
0.0
 11
75.39995619921649
 21
96.093425152622345
 31
0.0
  0
CIRCLE
  5
47
  8
0
 10
75.421735400853592
 20
101.30752676776009
 30
0.0
 40
2.0
  0
CIRCLE
  5
48
  8
0
 10
75.421735400853592
 20
101.30752676776009
 30
0.0
 40
6.0
  0
ARC
  5
49
  8
0
 10
72.960966478023053
 20
63.150546045384772
 30
0.0
 40
2.5
 50
10.1637110860423
 51
102.456153861998
  0
ARC
  5
4A
  8
0
 10
75.086468724186204
 20
59.227015909177979
 30
0.0
 40
6.9000000000000004
 50
112.71783776240569
 51
140.7605424645144
  0
LINE
  5
4B
  8
0
 10
69.742356284660659
 20
53.591699429630559
 30
0.0
 11
69.742356284660332
 21
63.591699429629941
 31
0.0
  0
LINE
  5
4C
  8
3
 10
75.421735400853564
 20
53.591699429630552
 30
0.0
 11
69.742356284660332
 21
63.591699429629969
 31
0.0
  0
LINE
  5
4D
  8
3
 10
69.742356284660659
 20
53.591699429630559
 30
0.0
 11
75.421735400853564
 21
63.591699429630772
 31
0.0
  0
LINE
  5
4E
  8
0
 10
75.421735400853564
 20
53.591699429630559
 30
0.0
 11
69.742356284660659
 21
53.591699429630559
 31
0.0
  0
LINE
  5
4F
  8
0
 10
81.421735400853549
 20
35.591699429630573
 30
0.0
 11
69.421735400853549
 21
35.59169942963058
 31
0.0
  0
LINE
  5
50
  8
1
 10
75.421735400853549
 20
28.591699429630559
 30
0.0
 11
75.421735400853564
 21
72.591699429630566
 31
0.0
  0
LINE
  5
51
  8
0
 10
81.421735400853564
 20
63.591699429630559
 30
0.0
 11
79.112334324094789
 21
67.591699429630566
 31
0.0
  0
LINE
  5
52
  8
0
 10
69.421735400853578
 20
63.591699429630559
 30
0.0
 11
71.731136477612353
 21
67.591699429630566
 31
0.0
  0
LINE
  5
53
  8
0
 10
71.731136477612353
 20
67.591699429630566
 30
0.0
 11
79.112334324094789
 21
67.591699429630566
 31
0.0
  0
LINE
  5
54
  8
0
 10
75.421735400853564
 20
53.591699429630559
 30
0.0
 11
81.101114517046483
 21
53.591699429630559
 31
0.0
  0
LINE
  5
55
  8
0
 10
75.421735400853564
 20
53.591699429630559
 30
0.0
 11
75.421735400853919
 21
63.591699429629891
 31
0.0
  0
ARC
  5
56
  8
0
 10
77.882504323684103
 20
63.150546045384772
 30
0.0
 40
2.5
 50
77.543846138001911
 51
169.83628891395759
  0
LINE
  5
57
  8
0
 10
81.101114517046483
 20
53.591699429630559
 30
0.0
 11
81.101114517046796
 21
63.591699429629941
 31
0.0
  0
ARC
  5
58
  8
0
 10
75.757002077520951
 20
59.227015909177979
 30
0.0
 40
6.9000000000000004
 50
39.239457535485521
 51
67.282162237594335
  0
LINE
  5
59
  8
3
 10
75.421735400853564
 20
53.591699429630552
 30
0.0
 11
81.101114517046796
 21
63.591699429629969
 31
0.0
  0
LINE
  5
5A
  8
3
 10
81.101114517046483
 20
53.591699429630559
 30
0.0
 11
75.421735400853564
 21
63.591699429630772
 31
0.0
  0
LINE
  5
5B
  8
0
 10
81.421735400853549
 20
35.591699429630573
 30
0.0
 11
80.267034862474304
 21
33.591699429630573
 31
0.0
  0
LINE
  5
5C
  8
0
 10
80.267034862474304
 20
33.591699429630573
 30
0.0
 11
70.576435939232795
 21
33.591699429630573
 31
0.0
  0
LINE
  5
5D
  8
0
 10
81.421735400853549
 20
35.591699429630573
 30
0.0
 11
81.421735400853564
 21
63.591699429630559
 31
0.0
  0
LINE
  5
5E
  8
0
 10
69.421735400853549
 20
35.59169942963058
 30
0.0
 11
70.576435939232795
 21
33.591699429630573
 31
0.0
  0
LINE
  5
5F
  8
0
 10
69.421735400853549
 20
35.59169942963058
 30
0.0
 11
69.421735400853578
 21
63.591699429630559
 31
0.0
  0
LINE
  5
60
  8
0
 10
129.2372782517055
 20
64.952915361798034
 30
0.0
 11
129.2372782517055
 21
53.59169942963053
 31
0.0
  0
LINE
  5
61
  8
0
 10
125.97395811762399
 20
63.59169942963058
 30
0.0
 11
125.97395811762399
 21
53.59169942963053
 31
0.0
  0
ARC
  5
62
  8
0
 10
127.9181777763301
 20
63.911227153868133
 30
0.0
 40
1.680815393397594
 50
38.298005014463101
 51
91.157727981780766
  0
ARC
  5
63
  8
0
 10
127.9008484776021
 20
63.663541964180688
 30
0.0
 40
1.9282291899945161
 50
90.494189557199647
 51
182.13523734177431
  0
LINE
  5
64
  8
3
 10
129.2372782517055
 20
53.591699429630459
 30
0.0
 11
125.97395811762399
 21
63.59169942963053
 31
0.0
  0
LINE
  5
65
  8
3
 10
125.97395811762399
 20
53.59169942963053
 30
0.0
 11
129.2372782517055
 21
64.952915361798119
 31
0.0
  0
LINE
  5
66
  8
3
 10
122.0723951555115
 20
53.59169942963053
 30
0.0
 11
118.80907502143
 21
64.952915361797494
 31
0.0
  0
LINE
  5
67
  8
3
 10
118.80907502143
 20
53.591699429630459
 30
0.0
 11
122.0723951555116
 21
63.59169942963053
 31
0.0
  0
ARC
  5
68
  8
0
 10
120.1455047955335
 20
63.663541964180688
 30
0.0
 40
1.9282291899945161
 50
357.86476265822557
 51
89.505810442800325
  0
ARC
  5
69
  8
0
 10
120.1281754968055
 20
63.911227153868133
 30
0.0
 40
1.680815393397594
 50
88.842272018219205
 51
141.7019949855368
  0
LINE
  5
6A
  8
0
 10
122.0723951555115
 20
63.59169942963053
 30
0.0
 11
125.97395811762399
 21
63.59169942963053
 31
0.0
  0
LINE
  5
6B
  8
0
 10
122.0723951555116
 20
63.59169942963058
 30
0.0
 11
122.0723951555116
 21
53.59169942963053
 31
0.0
  0
LINE
  5
6C
  8
0
 10
118.80907502143
 20
64.952915361798034
 30
0.0
 11
118.80907502143
 21
53.59169942963053
 31
0.0
  0
LINE
  5
6D
  8
0
 10
118.0231766365678
 20
35.591699429630523
 30
0.0
 11
118.0231766365678
 21
53.59169942963053
 31
0.0
  0
LINE
  5
6E
  8
0
 10
118.0231766365678
 20
35.591699429630523
 30
0.0
 11
119.177877174947
 21
33.59169942963053
 31
0.0
  0
LINE
  5
6F
  8
0
 10
130.02317663656771
 20
35.591699429630523
 30
0.0
 11
130.0231766365678
 21
53.59169942963053
 31
0.0
  0
LINE
  5
70
  8
0
 10
128.86847609818849
 20
33.59169942963053
 30
0.0
 11
119.177877174947
 21
33.59169942963053
 31
0.0
  0
LINE
  5
71
  8
0
 10
130.02317663656771
 20
35.591699429630523
 30
0.0
 11
128.86847609818849
 21
33.59169942963053
 31
0.0
  0
LINE
  5
72
  8
0
 10
125.97395811762399
 20
53.59169942963053
 30
0.0
 11
130.0231766365678
 21
53.59169942963053
 31
0.0
  0
LINE
  5
73
  8
0
 10
120.3325777133266
 20
67.591699429630523
 30
0.0
 11
127.71377555980899
 21
67.591699429630523
 31
0.0
  0
LINE
  5
74
  8
0
 10
118.80907502143
 20
64.952915361798034
 30
0.0
 11
120.3325777133266
 21
67.591699429630523
 31
0.0
  0
LINE
  5
75
  8
0
 10
129.2372782517055
 20
64.952915361798034
 30
0.0
 11
127.71377555980899
 21
67.591699429630523
 31
0.0
  0
LINE
  5
76
  8
1
 10
124.0231766365678
 20
28.59169942963053
 30
0.0
 11
124.0231766365678
 21
72.591699429630523
 31
0.0
  0
LINE
  5
77
  8
0
 10
130.02317663656771
 20
35.591699429630523
 30
0.0
 11
118.0231766365678
 21
35.591699429630523
 31
0.0
  0
LINE
  5
78
  8
0
 10
122.0723951555116
 20
53.59169942963053
 30
0.0
 11
118.0231766365678
 21
53.59169942963053
 31
0.0
  0
TEXT
  5
1EC
  8
0
 62
     3
 10
0.0
 20
0.0
 30
0.0
 40
5.0
  1
BJ722-12001
  7
STANDARD1
  0
ENDSEC
  0
EOF
