  0
SECTION
  2
HEADER
  9
$ACADVER
  1
AC1009
  9
$INSBASE
 10
0.0
 20
0.0
 30
0.0
  9
$EXTMIN
 10
0.0
 20
-2.960436562073669
 30
0.0
  9
$EXTMAX
 10
249.81095121077351
 20
170.57098398127519
 30
0.0
  9
$LIMMIN
 10
0.0
 20
0.0
  9
$LIMMAX
 10
375.0
 20
270.0
  9
$ORTHOMODE
 70
     0
  9
$REGENMODE
 70
     1
  9
$FILLMODE
 70
     1
  9
$QTEXTMODE
 70
     0
  9
$MIRRTEXT
 70
     0
  9
$DRAGMODE
 70
     2
  9
$LTSCALE
 40
10.0
  9
$OSMODE
 70
  3071
  9
$ATTMODE
 70
     1
  9
$TEXTSIZE
 40
0.2
  9
$TRACEWID
 40
0.05
  9
$TEXTSTYLE
  7
STANDARD
  9
$CLAYER
  8
0
  9
$CELTYPE
  6
BYLAYER
  9
$CECOLOR
 62
   256
  9
$DIMSCALE
 40
1.0
  9
$DIMASZ
 40
3.0
  9
$DIMEXO
 40
2.0
  9
$DIMDLI
 40
0.38
  9
$DIMRND
 40
0.0
  9
$DIMDLE
 40
0.0
  9
$DIMEXE
 40
2.0
  9
$DIMTP
 40
0.0
  9
$DIMTM
 40
0.0
  9
$DIMTXT
 40
3.2000000000000002
  9
$DIMCEN
 40
0.0
  9
$DIMTSZ
 40
0.0
  9
$DIMTOL
 70
     0
  9
$DIMLIM
 70
     0
  9
$DIMTIH
 70
     0
  9
$DIMTOH
 70
     0
  9
$DIMSE1
 70
     0
  9
$DIMSE2
 70
     0
  9
$DIMTAD
 70
     1
  9
$DIMZIN
 70
     0
  9
$DIMBLK
  1

  9
$DIMASO
 70
     0
  9
$DIMSHO
 70
     0
  9
$DIMPOST
  1

  9
$DIMAPOST
  1

  9
$DIMALT
 70
     0
  9
$DIMALTD
 70
     2
  9
$DIMALTF
 40
25.399999999999999
  9
$DIMLFAC
 40
1.0
  9
$DIMTOFL
 70
     1
  9
$DIMTVP
 40
1.6000000000000001
  9
$DIMTIX
 70
     1
  9
$DIMSOXD
 70
     0
  9
$DIMSAH
 70
     0
  9
$DIMBLK1
  1

  9
$DIMBLK2
  1

  9
$DIMSTYLE
  2
STANDARD
  9
$DIMCLRD
 70
     0
  9
$DIMCLRE
 70
     0
  9
$DIMCLRT
 70
     0
  9
$DIMTFAC
 40
1.0
  9
$DIMGAP
 40
0.09
  9
$LUNITS
 70
     2
  9
$LUPREC
 70
     4
  9
$SKETCHINC
 40
0.1
  9
$FILLETRAD
 40
0.0
  9
$AUNITS
 70
     0
  9
$AUPREC
 70
     4
  9
$MENU
  1
E:\r13\win\SUPPORT\ACAD
  9
$ELEVATION
 40
0.0
  9
$PELEVATION
 40
0.0
  9
$THICKNESS
 40
0.0
  9
$LIMCHECK
 70
     0
  9
$BLIPMODE
 70
     0
  9
$CHAMFERA
 40
0.0
  9
$CHAMFERB
 40
0.0
  9
$SKPOLY
 70
     0
  9
$TDCREATE
 40
2449840.6513888892
  9
$TDUPDATE
 40
2456597.6829129509
  9
$TDINDWG
 40
0.0495633681
  9
$TDUSRTIMER
 40
0.0495633681
  9
$USRTIMER
 70
     1
  9
$ANGBASE
 50
0.0
  9
$ANGDIR
 70
     0
  9
$PDMODE
 70
     0
  9
$PDSIZE
 40
0.0
  9
$PLINEWID
 40
0.0
  9
$COORDS
 70
     1
  9
$SPLFRAME
 70
     0
  9
$SPLINETYPE
 70
     6
  9
$SPLINESEGS
 70
     8
  9
$ATTDIA
 70
     0
  9
$ATTREQ
 70
     1
  9
$HANDLING
 70
     1
  9
$HANDSEED
  5
D75
  9
$SURFTAB1
 70
     6
  9
$SURFTAB2
 70
     6
  9
$SURFTYPE
 70
     6
  9
$SURFU
 70
     6
  9
$SURFV
 70
     6
  9
$UCSNAME
  2

  9
$UCSORG
 10
0.0
 20
0.0
 30
0.0
  9
$UCSXDIR
 10
1.0
 20
0.0
 30
0.0
  9
$UCSYDIR
 10
0.0
 20
1.0
 30
0.0
  9
$PUCSNAME
  2

  9
$PUCSORG
 10
0.0
 20
0.0
 30
0.0
  9
$PUCSXDIR
 10
1.0
 20
0.0
 30
0.0
  9
$PUCSYDIR
 10
0.0
 20
1.0
 30
0.0
  9
$USERI1
 70
     0
  9
$USERI2
 70
     1
  9
$USERI3
 70
     0
  9
$USERI4
 70
     0
  9
$USERI5
 70
     0
  9
$USERR1
 40
0.0
  9
$USERR2
 40
0.0
  9
$USERR3
 40
0.0
  9
$USERR4
 40
0.0
  9
$USERR5
 40
0.0
  9
$WORLDVIEW
 70
     1
  9
$SHADEDGE
 70
     3
  9
$SHADEDIF
 70
    70
  9
$TILEMODE
 70
     1
  9
$MAXACTVP
 70
    16
  9
$PLIMCHECK
 70
     0
  9
$PEXTMIN
 10
1.0000000000000000E+020
 20
1.0000000000000000E+020
 30
1.0000000000000000E+020
  9
$PEXTMAX
 10
-1.0000000000000000E+020
 20
-1.0000000000000000E+020
 30
-1.0000000000000000E+020
  9
$PLIMMIN
 10
0.0
 20
0.0
  9
$PLIMMAX
 10
12.0
 20
9.0
  9
$UNITMODE
 70
     0
  9
$VISRETAIN
 70
     0
  9
$PLINEGEN
 70
     0
  9
$PSLTSCALE
 70
     0
  0
ENDSEC
  0
SECTION
  2
TABLES
  0
TABLE
  2
VPORT
 70
     1
  0
VPORT
  2
*ACTIVE
 70
     0
 10
0.0
 20
0.0
 11
1.0
 21
1.0
 12
195.0581083320873
 22
133.5127261426681
 13
0.0
 23
0.0
 14
5.0
 24
5.0
 15
10.0
 25
10.0
 16
0.0
 26
0.0
 36
1.0
 17
0.0
 27
0.0
 37
0.0
 40
275.42274993631997
 41
1.831871345029239
 42
50.0
 43
0.0
 44
0.0
 50
0.0
 51
0.0
 71
     0
 72
   500
 73
     1
 74
     0
 75
     0
 76
     0
 77
     0
 78
     2
  0
ENDTAB
  0
TABLE
  2
LTYPE
 70
     4
  0
LTYPE
  2
CONTINUOUS
 70
     0
  3
Solid Line
 72
    65
 73
     0
 40
0.0
  0
LTYPE
  2
CENTER
 70
     0
  3
____ _ ____ _ ____ _ ____ _ ____ _ ____ _ ____
 72
    65
 73
     4
 40
2.0
 49
1.25
 49
-0.25
 49
0.25
 49
-0.25
  0
LTYPE
  2
HIDDEN
 70
     0
  3
_ _ _ _ _ _ _ _ _ _ _ _ _ _ _ _ _ _ _ _ _ _ _
 72
    65
 73
     2
 40
0.375
 49
0.25
 49
-0.125
  0
LTYPE
  2
PHANTOM2
 70
     0
  3
___ _ _ ___ _ _ ___ _ _ ___ _ _
 72
    65
 73
     6
 40
1.25
 49
0.625
 49
-0.125
 49
0.125
 49
-0.125
 49
0.125
 49
-0.125
  0
ENDTAB
  0
TABLE
  2
LAYER
 70
     4
  0
LAYER
  2
0
 70
     0
 62
     7
  6
CONTINUOUS
  0
LAYER
  2
1
 70
     0
 62
     1
  6
CENTER
  0
LAYER
  2
3
 70
     0
 62
     3
  6
CONTINUOUS
  0
LAYER
  2
2
 70
     0
 62
     2
  6
HIDDEN
  0
ENDTAB
  0
TABLE
  2
STYLE
 70
     2
  0
STYLE
  2
STANDARD
 70
     0
 40
0.0
 41
1.0
 50
0.0
 71
     0
 42
0.2
  3
TXT
  4
BIGFONT
  0
STYLE
  2
STANDARD1
 70
     0
 40
0.0
 41
1.0
 50
0.0
 71
     0
 42
3.0
  3
txt
  4

  0
ENDTAB
  0
TABLE
  2
VIEW
 70
     1
  0
VIEW
  2
ALL
 70
     0
 40
270.0
 10
220.99159663865549
 20
135.0
 41
0.0
 11
0.0
 21
0.0
 31
1.0
 12
0.0
 22
0.0
 32
0.0
 42
0.0
 43
0.0
 44
0.0
 50
0.0
 71
     0
  0
ENDTAB
  0
TABLE
  2
UCS
 70
     0
  0
ENDTAB
  0
TABLE
  2
APPID
 70
     4
  0
APPID
  2
ACAD
 70
     0
  0
APPID
  2
_CALL_MAC$
 70
     0
  0
APPID
  2
ACAD_MLEADERVER
 70
     0
  0
APPID
  2
ACAD_NAV_VCDISPLAY
 70
     0
  0
ENDTAB
  0
TABLE
  2
DIMSTYLE
 70
     1
  0
DIMSTYLE
  2
STANDARD
 70
     0
  3

  4

  5

  6

  7

 40
1.0
 41
0.18
 42
0.0625
 43
0.38
 44
0.18
 45
0.0
 46
0.0
 47
0.0
 48
0.0
140
0.18
141
0.09
142
0.0
143
25.399999999999999
144
1.0
145
0.0
146
1.0
147
0.09
 71
     0
 72
     0
 73
     1
 74
     1
 75
     0
 76
     0
 77
     0
 78
     0
170
     0
171
     2
172
     0
173
     0
174
     0
175
     0
176
     0
177
     0
178
     0
  0
ENDTAB
  0
ENDSEC
  0
SECTION
  2
BLOCKS
  0
BLOCK
  8
0
  2
$MODEL_SPACE
 70
     0
 10
0.0
 20
0.0
 30
0.0
  3
$MODEL_SPACE
  1

  0
ENDBLK
  5
6E2
  8
0
  0
BLOCK
 67
     1
  8
0
  2
$PAPER_SPACE
 70
     0
 10
0.0
 20
0.0
 30
0.0
  3
$PAPER_SPACE
  1

  0
ENDBLK
  5
6E0
 67
     1
  8
0
  0
BLOCK
  8
0
  2
STDGX5
 70
     0
 10
0.0
 20
0.0
 30
0.0
  3
STDGX5
  1

  0
ENDBLK
  5
2C7
  8
0
  0
ENDSEC
  0
SECTION
  2
ENTITIES
  0
INSERT
  5
364
  8
0
  2
STDGX5
 10
0.0
 20
0.0
 30
0.0
  0
INSERT
  5
365
  8
0
  2
STDGX5
 10
0.0
 20
0.0
 30
0.0
  0
INSERT
  5
366
  8
0
  2
STDGX5
 10
275.0
 20
0.0
 30
0.0
  0
INSERT
  5
367
  8
0
  2
STDGX5
 10
275.0
 20
0.0
 30
0.0
  0
INSERT
  5
4ED
  8
0
  2
STDGX5
 10
0.0
 20
0.0
 30
0.0
  0
INSERT
  5
4EE
  8
0
  2
STDGX5
 10
0.0
 20
0.0
 30
0.0
  0
INSERT
  5
4EF
  8
0
  2
STDGX5
 10
275.0
 20
0.0
 30
0.0
  0
INSERT
  5
4F0
  8
0
  2
STDGX5
 10
275.0
 20
0.0
 30
0.0
  0
INSERT
  5
500
  8
0
  2
STDGX5
 10
471.79233269980392
 20
233.9519585625761
 30
0.0
  0
INSERT
  5
501
  8
0
  2
STDGX5
 10
471.79233269980392
 20
233.9519585625761
 30
0.0
  0
INSERT
  5
502
  8
0
  2
STDGX5
 10
471.79233269980392
 20
233.9519585625761
 30
0.0
  0
INSERT
  5
503
  8
0
  2
STDGX5
 10
471.79233269980392
 20
233.9519585625761
 30
0.0
  0
INSERT
  5
67F
  8
0
  2
STDGX5
 10
0.0
 20
0.0
 30
0.0
  0
INSERT
  5
680
  8
0
  2
STDGX5
 10
0.0
 20
0.0
 30
0.0
  0
INSERT
  5
681
  8
0
  2
STDGX5
 10
275.0
 20
0.0
 30
0.0
  0
INSERT
  5
682
  8
0
  2
STDGX5
 10
275.0
 20
0.0
 30
0.0
  0
INSERT
  5
692
  8
0
  2
STDGX5
 10
471.79233269980392
 20
233.9519585625761
 30
0.0
  0
INSERT
  5
693
  8
0
  2
STDGX5
 10
471.79233269980392
 20
233.9519585625761
 30
0.0
  0
INSERT
  5
694
  8
0
  2
STDGX5
 10
471.79233269980392
 20
233.9519585625761
 30
0.0
  0
INSERT
  5
695
  8
0
  2
STDGX5
 10
471.79233269980392
 20
233.9519585625761
 30
0.0
  0
INSERT
  5
698
  8
0
  2
STDGX5
 10
625.17172490477549
 20
209.60057380630951
 30
0.0
  0
INSERT
  5
699
  8
0
  2
STDGX5
 10
625.17172490477549
 20
209.60057380630951
 30
0.0
  0
INSERT
  5
69A
  8
0
  2
STDGX5
 10
625.17172490477549
 20
209.60057380630951
 30
0.0
  0
INSERT
  5
69B
  8
0
  2
STDGX5
 10
625.17172490477549
 20
209.60057380630951
 30
0.0
  0
INSERT
  5
69C
  8
0
  2
STDGX5
 10
611.48701390477561
 20
209.6279228063095
 30
0.0
 41
0.1
 42
0.1
 43
0.1
  0
INSERT
  5
69D
  8
0
  2
STDGX5
 10
611.48701390477561
 20
209.6279228063095
 30
0.0
 41
0.1
 42
0.1
 43
0.1
  0
INSERT
  5
69E
  8
0
  2
STDGX5
 10
611.48701390477561
 20
209.6279228063095
 30
0.0
 41
0.1
 42
0.1
 43
0.1
  0
LINE
  5
B96
  8
0
 10
205.81095121077351
 20
91.570983981275205
 30
0.0
 11
205.81095121077351
 21
55.570983981275212
 31
0.0
  0
LINE
  5
B97
  8
0
 10
249.81095121077351
 20
91.570983981275205
 30
0.0
 11
228.10480248902971
 21
91.570983981275205
 31
0.0
  0
LINE
  5
B98
  8
0
 10
249.81095121077351
 20
55.570983981275212
 30
0.0
 11
249.81095121077351
 21
91.570983981275205
 31
0.0
  0
LINE
  5
B99
  8
0
 10
205.81095121077351
 20
55.570983981275212
 30
0.0
 11
249.81095121077351
 21
55.570983981275212
 31
0.0
  0
LINE
  5
B9A
  8
1
 10
239.8109512107734
 20
80.770983981275208
 30
0.0
 11
215.81095121077351
 21
80.770983981275194
 31
0.0
  0
LINE
  5
B9B
  8
1
 10
227.81095121077351
 20
96.570983981275234
 30
0.0
 11
227.81095121077351
 21
50.570983981275212
 31
0.0
  0
LINE
  5
B9C
  8
1
 10
212.81095121077351
 20
53.070983981275212
 30
0.0
 11
212.81095121077351
 21
94.070983981275205
 31
0.0
  0
LINE
  5
B9D
  8
1
 10
242.81095121077351
 20
53.070983981275212
 30
0.0
 11
242.81095121077351
 21
94.070983981275205
 31
0.0
  0
CIRCLE
  5
B9E
  8
0
 10
47.810972558938708
 20
80.770983981275208
 30
0.0
 40
10.0
  0
LINE
  5
B9F
  8
0
 10
50.697723904886857
 20
85.770983981275208
 30
0.0
 11
44.924221212990567
 21
85.770983981275208
 31
0.0
  0
LINE
  5
BA0
  8
0
 10
53.584475250834998
 20
80.770983981275208
 30
0.0
 11
50.697723904886857
 21
85.770983981275208
 31
0.0
  0
LINE
  5
BA1
  8
0
 10
50.697723904886857
 20
75.770983981275208
 30
0.0
 11
53.584475250834998
 21
80.770983981275208
 31
0.0
  0
LINE
  5
BA2
  8
0
 10
44.924221212990567
 20
75.770983981275208
 30
0.0
 11
50.697723904886857
 21
75.770983981275208
 31
0.0
  0
LINE
  5
BA3
  8
0
 10
42.037469867042432
 20
80.770983981275208
 30
0.0
 11
44.924221212990567
 21
75.770983981275208
 31
0.0
  0
LINE
  5
BA4
  8
0
 10
44.924221212990567
 20
85.770983981275208
 30
0.0
 11
42.037469867042432
 21
80.770983981275208
 31
0.0
  0
LINE
  5
BA5
  8
1
 10
99.810972558938715
 20
88.250320901917448
 30
0.0
 11
99.810972558938715
 21
73.250320901917434
 31
0.0
  0
LINE
  5
BA6
  8
0
 10
107.60835798507421
 20
75.770983981275194
 30
0.0
 11
108.8109512107735
 21
75.770983981275194
 31
0.0
  0
LINE
  5
BA7
  8
0
 10
94.810951210773496
 20
80.770983981275194
 30
0.0
 11
108.8109512107735
 21
80.770983981275194
 31
0.0
  0
LINE
  5
BA8
  8
0
 10
107.60835798507421
 20
85.770983981275194
 30
0.0
 11
108.8109512107735
 21
85.770983981275208
 31
0.0
  0
LINE
  5
BA9
  8
0
 10
133.81095121077351
 20
55.570983981275212
 30
0.0
 11
133.81095121077351
 21
91.570983981275205
 31
0.0
  0
LINE
  5
BAA
  8
0
 10
149.81095121077351
 20
55.570983981275212
 30
0.0
 11
133.81095121077351
 21
55.570983981275212
 31
0.0
  0
LINE
  5
BAB
  8
0
 10
149.81095121077351
 20
91.570983981275205
 30
0.0
 11
149.81095121077351
 21
55.570983981275212
 31
0.0
  0
LINE
  5
BAC
  8
0
 10
133.81095121077351
 20
91.570983981275205
 30
0.0
 11
149.81095121077351
 21
91.570983981275205
 31
0.0
  0
ARC
  5
BAD
  8
0
 10
99.810951210773524
 20
80.770983981275194
 30
0.0
 40
5.0
 50
53.130102354154587
 51
306.86989764584541
  0
LINE
  5
BAE
  8
0
 10
102.8109512107735
 20
84.770983981275194
 30
0.0
 11
105.8763071775054
 21
84.770983981275194
 31
0.0
  0
LINE
  5
BAF
  8
0
 10
105.8763071775054
 20
84.770983981275194
 30
0.0
 11
107.60835798507421
 21
85.770983981275194
 31
0.0
  0
LINE
  5
BB0
  8
0
 10
105.8763071775054
 20
76.770983981275194
 30
0.0
 11
107.60835798507421
 21
75.770983981275194
 31
0.0
  0
LINE
  5
BB1
  8
0
 10
102.8109512107735
 20
76.770983981275194
 30
0.0
 11
105.8763071775054
 21
76.770983981275194
 31
0.0
  0
LINE
  5
BB2
  8
0
 10
102.8109512107735
 20
84.770983981275194
 30
0.0
 11
102.8109512107735
 21
76.770983981275194
 31
0.0
  0
LINE
  5
BB3
  8
0
 10
105.8763071775054
 20
84.770983981275194
 30
0.0
 11
105.8763071775054
 21
76.770983981275194
 31
0.0
  0
LINE
  5
BB4
  8
0
 10
107.60835798507421
 20
85.770983981275194
 30
0.0
 11
107.60835798507421
 21
75.770983981275194
 31
0.0
  0
LINE
  5
BB5
  8
0
 10
108.8109512107735
 20
72.983419546570858
 30
0.0
 11
109.5109512107738
 21
71.770983981272465
 31
0.0
  0
LINE
  5
BB6
  8
0
 10
109.51095121077191
 20
71.770983981275194
 30
0.0
 11
109.8109512107735
 21
71.770983981275194
 31
0.0
  0
LINE
  5
BB7
  8
3
 10
156.81095121077351
 20
75.670983981275739
 30
0.0
 11
180.210951210774
 21
75.670983981275739
 31
0.0
  0
LINE
  5
BB8
  8
0
 10
179.31095121077351
 20
74.770983981275194
 30
0.0
 11
180.81095121077351
 21
76.270983981275194
 31
0.0
  0
LINE
  5
BB9
  8
0
 10
156.81095121077351
 20
74.770983981275194
 30
0.0
 11
179.31095121077351
 21
74.770983981275194
 31
0.0
  0
LINE
  5
BBA
  8
0
 10
108.8109512107735
 20
88.558548415979516
 30
0.0
 11
108.8109512107735
 21
72.983419546570858
 31
0.0
  0
LINE
  5
BBB
  8
0
 10
109.51095121077191
 20
89.770983981275194
 30
0.0
 11
109.8109512107734
 21
89.770983981275194
 31
0.0
  0
LINE
  5
BBC
  8
0
 10
108.8109512107735
 20
88.558548415979516
 30
0.0
 11
109.5109512107738
 21
89.770983981277908
 31
0.0
  0
LINE
  5
BBD
  8
0
 10
109.51095121077191
 20
89.770983981275194
 30
0.0
 11
109.51095121077191
 21
71.770983981275194
 31
0.0
  0
LINE
  5
BBE
  8
0
 10
156.81095121077351
 20
86.770983981275194
 30
0.0
 11
179.31095121077351
 21
86.770983981275194
 31
0.0
  0
LINE
  5
BBF
  8
3
 10
156.81095121077351
 20
85.870983981274634
 30
0.0
 11
180.210951210774
 21
85.870983981274634
 31
0.0
  0
LINE
  5
BC0
  8
0
 10
180.81095121077351
 20
76.270983981275194
 30
0.0
 11
180.81095121077351
 21
85.270983981275194
 31
0.0
  0
LINE
  5
BC1
  8
0
 10
179.31095121077351
 20
86.770983981275194
 30
0.0
 11
180.81095121077351
 21
85.270983981275194
 31
0.0
  0
LINE
  5
BC2
  8
0
 10
179.31095121077351
 20
86.770983981275194
 30
0.0
 11
179.31095121077351
 21
74.770983981275194
 31
0.0
  0
LINE
  5
BC3
  8
0
 10
155.67377030014771
 20
91.740639095877839
 30
0.0
 11
156.81095121077351
 21
89.770983981276189
 31
0.0
  0
ARC
  5
BC4
  8
0
 10
151.6662128541702
 20
88.99822531722721
 30
0.0
 40
4.8560632220084576
 50
325.61575253199402
 51
25.615752531914978
  0
ARC
  5
BC5
  8
0
 10
138.3707818521932
 20
80.770983981274824
 30
0.0
 40
18.15149422398537
 50
342.41204622602328
 51
17.587953773976679
  0
ARC
  5
BC6
  8
0
 10
151.6662128541702
 20
72.543742645322439
 30
0.0
 40
4.8560632220084576
 50
334.38424746808499
 51
34.384247468006002
  0
LINE
  5
BC7
  8
0
 10
155.67377030014771
 20
69.801328866671795
 30
0.0
 11
156.81095121077351
 21
71.77098398127346
 31
0.0
  0
LINE
  5
BC8
  8
0
 10
156.81095121077351
 20
89.770983981276189
 30
0.0
 11
156.81095121077351
 21
71.77098398127346
 31
0.0
  0
LINE
  5
BC9
  8
0
 10
149.81095121077351
 20
89.770983981276189
 30
0.0
 11
149.81095121077351
 21
71.77098398127346
 31
0.0
  0
LINE
  5
BCA
  8
0
 10
150.94813212139931
 20
69.801328866671795
 30
0.0
 11
149.81095121077351
 21
71.77098398127346
 31
0.0
  0
ARC
  5
BCB
  8
0
 10
154.95568956737679
 20
72.543742645322439
 30
0.0
 40
4.8560632220084576
 50
145.61575253199399
 51
205.61575253191501
  0
ARC
  5
BCC
  8
0
 10
168.25112056935379
 20
80.770983981274824
 30
0.0
 40
18.15149422398537
 50
162.41204622602331
 51
197.58795377397661
  0
ARC
  5
BCD
  8
0
 10
154.95568956737679
 20
88.99822531722721
 30
0.0
 40
4.8560632220084576
 50
154.38424746808499
 51
214.38424746800601
  0
LINE
  5
BCE
  8
0
 10
150.94813212139931
 20
91.740639095877839
 30
0.0
 11
149.81095121077351
 21
89.770983981276189
 31
0.0
  0
LINE
  5
BCF
  8
0
 10
155.67377030014771
 20
91.740639095877839
 30
0.0
 11
150.9481321213992
 21
91.740639095877839
 31
0.0
  0
LINE
  5
BD0
  8
0
 10
155.67377030014771
 20
86.255811538572019
 30
0.0
 11
150.948132121399
 21
86.255811538576111
 31
0.0
  0
LINE
  5
BD1
  8
0
 10
155.67377030014771
 20
69.801328866671795
 30
0.0
 11
150.9481321213992
 21
69.801328866671795
 31
0.0
  0
LINE
  5
BD2
  8
0
 10
155.67377030014771
 20
75.28615642397763
 30
0.0
 11
150.948132121399
 21
75.286156423973537
 31
0.0
  0
LINE
  5
BD3
  8
0
 10
107.60835798507421
 20
138.57098398127519
 30
0.0
 11
108.8109512107735
 21
138.57098398127519
 31
0.0
  0
LINE
  5
BD4
  8
0
 10
94.810951210773496
 20
143.57098398127519
 30
0.0
 11
108.8109512107735
 21
143.57098398127519
 31
0.0
  0
LINE
  5
BD5
  8
0
 10
107.60835798507421
 20
148.57098398127519
 30
0.0
 11
108.8109512107735
 21
148.57098398127519
 31
0.0
  0
ARC
  5
BD6
  8
0
 10
99.810951210773524
 20
143.57098398127519
 30
0.0
 40
5.0
 50
53.130102354154722
 51
306.8698976458453
  0
LINE
  5
BD7
  8
0
 10
102.8109512107735
 20
147.57098398127519
 30
0.0
 11
105.8763071775054
 21
147.57098398127519
 31
0.0
  0
LINE
  5
BD8
  8
0
 10
105.8763071775054
 20
147.57098398127519
 30
0.0
 11
107.60835798507421
 21
148.57098398127519
 31
0.0
  0
LINE
  5
BD9
  8
0
 10
105.8763071775054
 20
139.57098398127519
 30
0.0
 11
107.60835798507421
 21
138.57098398127519
 31
0.0
  0
LINE
  5
BDA
  8
0
 10
102.8109512107735
 20
139.57098398127519
 30
0.0
 11
105.8763071775054
 21
139.57098398127519
 31
0.0
  0
LINE
  5
BDB
  8
0
 10
102.8109512107735
 20
147.57098398127519
 30
0.0
 11
102.8109512107735
 21
139.57098398127519
 31
0.0
  0
LINE
  5
BDC
  8
0
 10
105.8763071775054
 20
147.57098398127519
 30
0.0
 11
105.8763071775054
 21
139.57098398127519
 31
0.0
  0
LINE
  5
BDD
  8
0
 10
107.60835798507421
 20
148.57098398127519
 30
0.0
 11
107.60835798507421
 21
138.57098398127519
 31
0.0
  0
LINE
  5
BDE
  8
0
 10
108.8109512107735
 20
135.7834195465708
 30
0.0
 11
109.5109512107738
 21
134.57098398127241
 31
0.0
  0
LINE
  5
BDF
  8
0
 10
109.51095121077191
 20
134.57098398127519
 30
0.0
 11
109.8109512107735
 21
134.57098398127519
 31
0.0
  0
LINE
  5
BE0
  8
3
 10
156.81095121077351
 20
138.47098398127571
 30
0.0
 11
180.210951210774
 21
138.47098398127571
 31
0.0
  0
LINE
  5
BE1
  8
0
 10
179.31095121077351
 20
137.57098398127519
 30
0.0
 11
180.81095121077351
 21
139.07098398127519
 31
0.0
  0
LINE
  5
BE2
  8
0
 10
156.81095121077351
 20
137.57098398127511
 30
0.0
 11
179.31095121077351
 21
137.57098398127519
 31
0.0
  0
LINE
  5
BE3
  8
0
 10
108.8109512107735
 20
151.3585484159795
 30
0.0
 11
108.8109512107735
 21
135.7834195465708
 31
0.0
  0
LINE
  5
BE4
  8
0
 10
109.51095121077191
 20
152.57098398127519
 30
0.0
 11
109.8109512107734
 21
152.57098398127519
 31
0.0
  0
LINE
  5
BE5
  8
0
 10
108.8109512107735
 20
151.3585484159795
 30
0.0
 11
109.5109512107738
 21
152.57098398127789
 31
0.0
  0
LINE
  5
BE6
  8
0
 10
109.51095121077191
 20
152.57098398127519
 30
0.0
 11
109.51095121077191
 21
134.57098398127519
 31
0.0
  0
LINE
  5
BE7
  8
0
 10
156.81095121077351
 20
149.57098398127511
 30
0.0
 11
179.31095121077351
 21
149.57098398127519
 31
0.0
  0
LINE
  5
BE8
  8
3
 10
156.81095121077351
 20
148.67098398127459
 30
0.0
 11
180.210951210774
 21
148.67098398127459
 31
0.0
  0
LINE
  5
BE9
  8
0
 10
180.81095121077351
 20
139.07098398127519
 30
0.0
 11
180.81095121077351
 21
148.07098398127519
 31
0.0
  0
LINE
  5
BEA
  8
0
 10
179.31095121077351
 20
149.57098398127519
 30
0.0
 11
180.81095121077351
 21
148.07098398127519
 31
0.0
  0
LINE
  5
BEB
  8
0
 10
179.31095121077351
 20
149.57098398127519
 30
0.0
 11
179.31095121077351
 21
137.57098398127519
 31
0.0
  0
LINE
  5
BEC
  8
1
 10
89.810951210773496
 20
143.57098398127519
 30
0.0
 11
185.81095121077351
 21
143.57098398127519
 31
0.0
  0
LINE
  5
BED
  8
0
 10
109.8109512107735
 20
70.770983981275194
 30
0.0
 11
133.81095121077351
 21
70.770983981275137
 31
0.0
  0
LINE
  5
BEE
  8
0
 10
109.8109512107735
 20
70.770983981275194
 30
0.0
 11
109.8109512107734
 21
90.770983981275194
 31
0.0
  0
LINE
  5
BEF
  8
0
 10
109.8109512107735
 20
90.770983981275194
 30
0.0
 11
133.81095121077351
 21
90.770983981275251
 31
0.0
  0
LINE
  5
BF0
  8
1
 10
89.810972558938715
 20
80.770983981275208
 30
0.0
 11
185.81095121077351
 21
80.770983981275194
 31
0.0
  0
LINE
  5
BF1
  8
1
 10
141.81095121077351
 20
50.570983981275212
 30
0.0
 11
141.81095121077351
 21
96.570983981275234
 31
0.0
  0
LINE
  5
BF2
  8
2
 10
146.31095121077351
 20
55.570983981275212
 30
0.0
 11
146.31095121077351
 21
91.570983981275205
 31
0.0
  0
LINE
  5
BF3
  8
2
 10
137.31095121077351
 20
91.570983981275205
 30
0.0
 11
137.31095121077351
 21
55.570983981275212
 31
0.0
  0
LINE
  5
BF4
  8
0
 10
149.81095121077351
 20
121.57098398127521
 30
0.0
 11
149.81095121077351
 21
165.57098398127519
 31
0.0
  0
CIRCLE
  5
BF5
  8
0
 10
141.81095121077351
 20
158.57098398127519
 30
0.0
 40
4.5
  0
LINE
  5
BF6
  8
1
 10
148.81095121077351
 20
158.57098398127519
 30
0.0
 11
134.81095121077351
 21
158.57098398127519
 31
0.0
  0
LINE
  5
BF7
  8
0
 10
149.81095121077351
 20
165.57098398127519
 30
0.0
 11
133.81095121077351
 21
165.57098398127519
 31
0.0
  0
LINE
  5
BF8
  8
0
 10
133.81095121077351
 20
165.57098398127519
 30
0.0
 11
133.81095121077351
 21
121.57098398127521
 31
0.0
  0
LINE
  5
BF9
  8
1
 10
141.81095121077351
 20
170.57098398127519
 30
0.0
 11
141.81095121077351
 21
116.57098398127521
 31
0.0
  0
LINE
  5
BFA
  8
0
 10
133.81095121077351
 20
121.57098398127521
 30
0.0
 11
149.81095121077351
 21
121.57098398127521
 31
0.0
  0
CIRCLE
  5
BFB
  8
0
 10
141.81095121077351
 20
128.57098398127519
 30
0.0
 40
4.5
  0
LINE
  5
BFC
  8
1
 10
148.81095121077351
 20
128.57098398127519
 30
0.0
 11
134.81095121077351
 21
128.57098398127519
 31
0.0
  0
LINE
  5
BFD
  8
0
 10
109.8109512107735
 20
153.57098398127519
 30
0.0
 11
133.81095121077351
 21
153.5709839812753
 31
0.0
  0
LINE
  5
BFE
  8
0
 10
109.8109512107735
 20
133.57098398127519
 30
0.0
 11
109.8109512107734
 21
153.57098398127519
 31
0.0
  0
LINE
  5
BFF
  8
0
 10
109.8109512107735
 20
133.57098398127519
 30
0.0
 11
133.81095121077351
 21
133.57098398127511
 31
0.0
  0
LINE
  5
C00
  8
1
 10
99.810951210773524
 20
151.07098398127519
 30
0.0
 11
99.810951210773524
 21
136.07098398127519
 31
0.0
  0
CIRCLE
  5
C01
  8
0
 10
47.810972558938708
 20
80.770983981275208
 30
0.0
 40
9.0
  0
CIRCLE
  5
C02
  8
0
 10
47.810972558938708
 20
80.770983981275208
 30
0.0
 40
7.7875644347017641
  0
LINE
  5
C03
  8
0
 10
156.81095121077351
 20
152.57098398127681
 30
0.0
 11
156.45047930645339
 21
153.07098398127681
 31
0.0
  0
ARC
  5
C04
  8
0
 10
163.81931023536151
 20
148.3209839812767
 30
0.0
 40
13.719683889993171
 50
159.7438419996088
 51
200.2561580003912
  0
LINE
  5
C05
  8
0
 10
150.09962634536839
 20
153.07098398127681
 30
0.0
 11
149.81095121077351
 21
152.57098398127681
 31
0.0
  0
LINE
  5
C06
  8
0
 10
150.94813212139931
 20
143.5709839812736
 30
0.0
 11
155.67377030014771
 21
143.57098398127681
 31
0.0
  0
LINE
  5
C07
  8
0
 10
156.81095121077351
 20
152.57098398127681
 30
0.0
 11
156.81095121077351
 21
134.57098398127681
 31
0.0
  0
LINE
  5
C08
  8
0
 10
149.81095121077351
 20
134.57098398127681
 30
0.0
 11
149.81095121077351
 21
152.57098398127681
 31
0.0
  0
LINE
  5
C09
  8
0
 10
150.09962634536839
 20
134.07098398127681
 30
0.0
 11
149.81095121077351
 21
134.57098398127681
 31
0.0
  0
ARC
  5
C0A
  8
0
 10
163.81931023536151
 20
138.8209839812767
 30
0.0
 40
13.719683889993171
 50
159.7438419996088
 51
200.2561580003912
  0
LINE
  5
C0B
  8
0
 10
156.81095121077351
 20
134.57098398127681
 30
0.0
 11
156.45047930645339
 21
134.07098398127681
 31
0.0
  0
LINE
  5
C0C
  8
0
 10
156.45047930645339
 20
134.07098398127681
 30
0.0
 11
150.09962634536839
 21
134.07098398127681
 31
0.0
  0
ARC
  5
C0D
  8
0
 10
142.80259218618551
 20
138.8209839812767
 30
0.0
 40
13.719683889993171
 50
339.74384199960878
 51
20.256158000391189
  0
ARC
  5
C0E
  8
0
 10
142.80259218618551
 20
148.3209839812767
 30
0.0
 40
13.719683889993171
 50
339.74384199960878
 51
20.256158000391189
  0
LINE
  5
C0F
  8
0
 10
156.45047930645339
 20
153.07098398127681
 30
0.0
 11
150.09962634536839
 21
153.07098398127681
 31
0.0
  0
LINE
  5
C10
  8
0
 10
227.81095121077351
 20
91.740639095878123
 30
0.0
 11
218.31095121077351
 21
86.255811538576609
 31
0.0
  0
LINE
  5
C11
  8
0
 10
237.31095121077351
 20
86.255811538576495
 30
0.0
 11
227.81095121077351
 21
91.740639095878123
 31
0.0
  0
LINE
  5
C12
  8
0
 10
237.31095121077351
 20
75.286156423973694
 30
0.0
 11
237.31095121077351
 21
86.255811538576495
 31
0.0
  0
LINE
  5
C13
  8
0
 10
227.81095121077351
 20
69.801328866672407
 30
0.0
 11
237.31095121077351
 21
75.286156423973694
 31
0.0
  0
LINE
  5
C14
  8
0
 10
218.31095121077351
 20
75.286156423973921
 30
0.0
 11
227.81095121077351
 21
69.801328866672407
 31
0.0
  0
CIRCLE
  5
C15
  8
3
 10
227.81095121077351
 20
80.770983981275208
 30
0.0
 40
5.052999999999999
  0
CIRCLE
  5
C16
  8
0
 10
227.81095121077351
 20
80.770983981275208
 30
0.0
 40
6.0
  0
CIRCLE
  5
C17
  8
0
 10
227.81095121077351
 20
80.770983981275208
 30
0.0
 40
9.0
  0
LINE
  5
C18
  8
0
 10
218.31095121077351
 20
86.255811538576609
 30
0.0
 11
218.31095121077351
 21
75.286156423973921
 31
0.0
  0
LINE
  5
C19
  8
1
 10
62.810972558938722
 20
53.070983981275212
 30
0.0
 11
62.810972558938722
 21
94.070983981275205
 31
0.0
  0
LINE
  5
C1A
  8
1
 10
32.810972558938722
 20
53.070983981275212
 30
0.0
 11
32.810972558938722
 21
94.070983981275205
 31
0.0
  0
LINE
  5
C1B
  8
1
 10
47.810972558938708
 20
96.570983981275234
 30
0.0
 11
47.810972558938708
 21
50.570983981275212
 31
0.0
  0
LINE
  5
C1C
  8
1
 10
60.310972558938722
 20
80.770983981275208
 30
0.0
 11
35.310972558938722
 21
80.770983981275208
 31
0.0
  0
LINE
  5
C1D
  8
0
 10
25.810972558938719
 20
55.570983981275212
 30
0.0
 11
69.810972558938715
 21
55.570983981275212
 31
0.0
  0
LINE
  5
C1E
  8
0
 10
69.810972558938715
 20
55.570983981275212
 30
0.0
 11
69.810972558938715
 21
91.570983981275205
 31
0.0
  0
LINE
  5
C1F
  8
0
 10
69.810972558938715
 20
91.570983981275205
 30
0.0
 11
25.810972558938719
 21
91.570983981275205
 31
0.0
  0
LINE
  5
C20
  8
0
 10
25.810972558938719
 20
91.570983981275205
 30
0.0
 11
25.810972558938719
 21
55.570983981275212
 31
0.0
  0
LINE
  5
C23
  8
0
 10
227.51709993251731
 20
91.570983981275205
 30
0.0
 11
205.81095121077351
 21
91.570983981275205
 31
0.0
  0
TEXT
  5
CE4
  8
0
 62
     3
 10
0.0
 20
0.0
 30
0.0
 40
10.0
  1
BJ650-12001
  7
STANDARD1
  0
ENDSEC
  0
EOF
