  0
SECTION
  2
HEADER
  9
$ACADVER
  1
AC1009
  9
$INSBASE
 10
0.0
 20
0.0
 30
0.0
  9
$EXTMIN
 10
0.0
 20
-2.960436562073669
 30
0.0
  9
$EXTMAX
 10
160.46982553251991
 20
227.21086733359761
 30
0.0
  9
$LIMMIN
 10
0.0
 20
0.0
  9
$LIMMAX
 10
390.0
 20
270.0
  9
$ORTHOMODE
 70
     1
  9
$REGENMODE
 70
     1
  9
$FILLMODE
 70
     1
  9
$QTEXTMODE
 70
     0
  9
$MIRRTEXT
 70
     0
  9
$DRAGMODE
 70
     2
  9
$LTSCALE
 40
5.0
  9
$OSMODE
 70
  3071
  9
$ATTMODE
 70
     1
  9
$TEXTSIZE
 40
2.5
  9
$TRACEWID
 40
1.0
  9
$TEXTSTYLE
  7
STANDARD
  9
$CLAYER
  8
4
  9
$CELTYPE
  6
BYLAYER
  9
$CECOLOR
 62
   256
  9
$DIMSCALE
 40
1.5
  9
$DIMASZ
 40
3.0
  9
$DIMEXO
 40
1.0
  9
$DIMDLI
 40
6.0
  9
$DIMRND
 40
0.0
  9
$DIMDLE
 40
0.0
  9
$DIMEXE
 40
1.0
  9
$DIMTP
 40
495.0
  9
$DIMTM
 40
0.0
  9
$DIMTXT
 40
3.2000000000000002
  9
$DIMCEN
 40
0.0
  9
$DIMTSZ
 40
0.0
  9
$DIMTOL
 70
     0
  9
$DIMLIM
 70
     0
  9
$DIMTIH
 70
     0
  9
$DIMTOH
 70
     0
  9
$DIMSE1
 70
     0
  9
$DIMSE2
 70
     0
  9
$DIMTAD
 70
     1
  9
$DIMZIN
 70
     0
  9
$DIMBLK
  1

  9
$DIMASO
 70
     0
  9
$DIMSHO
 70
     1
  9
$DIMPOST
  1

  9
$DIMAPOST
  1

  9
$DIMALT
 70
     0
  9
$DIMALTD
 70
     2
  9
$DIMALTF
 40
25.399999999999999
  9
$DIMLFAC
 40
1.0
  9
$DIMTOFL
 70
     1
  9
$DIMTVP
 40
0.0
  9
$DIMTIX
 70
     1
  9
$DIMSOXD
 70
     0
  9
$DIMSAH
 70
     0
  9
$DIMBLK1
  1

  9
$DIMBLK2
  1

  9
$DIMSTYLE
  2
ITM
  9
$DIMCLRD
 70
   256
  9
$DIMCLRE
 70
   256
  9
$DIMCLRT
 70
   256
  9
$DIMTFAC
 40
1.0
  9
$DIMGAP
 40
1.0
  9
$LUNITS
 70
     2
  9
$LUPREC
 70
     2
  9
$SKETCHINC
 40
1.0
  9
$FILLETRAD
 40
0.4
  9
$AUNITS
 70
     0
  9
$AUPREC
 70
     0
  9
$MENU
  1
.
  9
$ELEVATION
 40
0.0
  9
$PELEVATION
 40
0.0
  9
$THICKNESS
 40
0.0
  9
$LIMCHECK
 70
     0
  9
$BLIPMODE
 70
     0
  9
$CHAMFERA
 40
1.1999999999999991
  9
$CHAMFERB
 40
1.1999999999999991
  9
$SKPOLY
 70
     0
  9
$TDCREATE
 40
2453354.0921258219
  9
$TDUPDATE
 40
2456597.6803201851
  9
$TDINDWG
 40
513.57758363430003
  9
$TDUSRTIMER
 40
513.57730565969996
  9
$USRTIMER
 70
     1
  9
$ANGBASE
 50
0.0
  9
$ANGDIR
 70
     0
  9
$PDMODE
 70
     0
  9
$PDSIZE
 40
0.0
  9
$PLINEWID
 40
0.0
  9
$COORDS
 70
     1
  9
$SPLFRAME
 70
     0
  9
$SPLINETYPE
 70
     6
  9
$SPLINESEGS
 70
     8
  9
$ATTDIA
 70
     0
  9
$ATTREQ
 70
     1
  9
$HANDLING
 70
     1
  9
$HANDSEED
  5
58E
  9
$SURFTAB1
 70
     6
  9
$SURFTAB2
 70
     6
  9
$SURFTYPE
 70
     6
  9
$SURFU
 70
     6
  9
$SURFV
 70
     6
  9
$UCSNAME
  2

  9
$UCSORG
 10
0.0
 20
0.0
 30
0.0
  9
$UCSXDIR
 10
1.0
 20
0.0
 30
0.0
  9
$UCSYDIR
 10
0.0
 20
1.0
 30
0.0
  9
$PUCSNAME
  2

  9
$PUCSORG
 10
0.0
 20
0.0
 30
0.0
  9
$PUCSXDIR
 10
1.0
 20
0.0
 30
0.0
  9
$PUCSYDIR
 10
0.0
 20
1.0
 30
0.0
  9
$USERI1
 70
     4
  9
$USERI2
 70
     1
  9
$USERI3
 70
     1
  9
$USERI4
 70
     0
  9
$USERI5
 70
     0
  9
$USERR1
 40
1.0
  9
$USERR2
 40
3.0
  9
$USERR3
 40
3.2000000000000002
  9
$USERR4
 40
3.0
  9
$USERR5
 40
10.0
  9
$WORLDVIEW
 70
     1
  9
$SHADEDGE
 70
     3
  9
$SHADEDIF
 70
    70
  9
$TILEMODE
 70
     1
  9
$MAXACTVP
 70
    16
  9
$PLIMCHECK
 70
     0
  9
$PEXTMIN
 10
0.0
 20
0.0
 30
0.0
  9
$PEXTMAX
 10
0.0
 20
0.0
 30
0.0
  9
$PLIMMIN
 10
0.0
 20
0.0
  9
$PLIMMAX
 10
12.0
 20
9.0
  9
$UNITMODE
 70
     0
  9
$VISRETAIN
 70
     0
  9
$PLINEGEN
 70
     0
  9
$PSLTSCALE
 70
     1
  0
ENDSEC
  0
SECTION
  2
TABLES
  0
TABLE
  2
VPORT
 70
     1
  0
VPORT
  2
*ACTIVE
 70
     0
 10
0.0
 20
0.0
 11
1.0
 21
1.0
 12
202.55787946771341
 22
133.5127261426681
 13
0.0
 23
0.0
 14
5.0
 24
5.0
 15
10.0
 25
10.0
 16
0.0
 26
0.0
 36
1.0
 17
0.0
 27
0.0
 37
0.0
 40
275.42274993631997
 41
1.831871345029239
 42
50.0
 43
0.0
 44
0.0
 50
0.0
 51
0.0
 71
    16
 72
   500
 73
     1
 74
     0
 75
     0
 76
     0
 77
     0
 78
     1
  0
ENDTAB
  0
TABLE
  2
LTYPE
 70
     4
  0
LTYPE
  2
CONTINUOUS
 70
     0
  3
Solid line
 72
    65
 73
     0
 40
0.0
  0
LTYPE
  2
CENTER
 70
     0
  3
____ _ ____ _ ____ _ ____ _ ____ _ ____ _ ____
 72
    65
 73
     4
 40
2.0
 49
1.25
 49
-0.25
 49
0.25
 49
-0.25
  0
LTYPE
  2
HIDDEN
 70
     0
  3
Hidden __ __ __ __ __ __ __ __ __ __ __ __ __ __
 72
    65
 73
     2
 40
1.905
 49
1.27
 49
-0.635
  0
LTYPE
  2
PHANTOM2
 70
     0
  3
___ _ _ ___ _ _ ___ _ _ ___ _ _
 72
    65
 73
     6
 40
1.25
 49
0.625
 49
-0.125
 49
0.125
 49
-0.125
 49
0.125
 49
-0.125
  0
ENDTAB
  0
TABLE
  2
LAYER
 70
     7
  0
LAYER
  2
0
 70
     0
 62
     7
  6
CONTINUOUS
  0
LAYER
  2
1
 70
     0
 62
     1
  6
CENTER
  0
LAYER
  2
WAKU
 70
     0
 62
     5
  6
CONTINUOUS
  0
LAYER
  2
4
 70
     0
 62
     4
  6
CONTINUOUS
  0
LAYER
  2
3
 70
     0
 62
     3
  6
CONTINUOUS
  0
LAYER
  2
2
 70
     0
 62
     2
  6
HIDDEN
  0
LAYER
  2
DEFPOINTS
 70
     0
 62
     7
  6
CONTINUOUS
  0
ENDTAB
  0
TABLE
  2
STYLE
 70
     3
  0
STYLE
  2
STANDARD
 70
     0
 40
0.0
 41
1.0
 50
0.0
 71
     0
 42
2.5
  3
ROMANS
  4
EXTFONT
  0
STYLE
  2
K
 70
     0
 40
0.0
 41
0.75
 50
0.0
 71
     0
 42
3.2000000000000002
  3
ROMANS.shx
  4
EXTFONT.shx
  0
STYLE
  2
STANDARD1
 70
     0
 40
0.0
 41
1.0
 50
0.0
 71
     0
 42
3.0
  3
txt
  4

  0
ENDTAB
  0
TABLE
  2
VIEW
 70
     0
  0
ENDTAB
  0
TABLE
  2
UCS
 70
     0
  0
ENDTAB
  0
TABLE
  2
APPID
 70
     4
  0
APPID
  2
ACAD
 70
     0
  0
APPID
  2
ACAD_MLEADERVER
 70
     0
  0
APPID
  2
ACAD_EXEMPT_FROM_CAD_STANDARDS
 70
     0
  0
APPID
  2
ACAD_NAV_VCDISPLAY
 70
     0
  0
ENDTAB
  0
TABLE
  2
DIMSTYLE
 70
     2
  0
DIMSTYLE
  2
ITM
 70
     0
  3

  4

  5

  6

  7

 40
0.0
 41
2.5
 42
1.0
 43
6.0
 44
1.0
 45
0.0
 46
0.0
 47
495.0
 48
0.0
140
3.0
141
0.0
142
0.0
143
25.399999999999999
144
1.0
145
0.0
146
1.0
147
1.0
 71
     0
 72
     0
 73
     0
 74
     0
 75
     0
 76
     0
 77
     3
 78
     8
170
     0
171
     2
172
     1
173
     0
174
     0
175
     0
176
     0
177
     0
178
     0
  0
DIMSTYLE
  2
STANDARD
 70
     0
  3

  4

  5

  6

  7

 40
1.0
 41
0.18
 42
0.0625
 43
0.38
 44
0.18
 45
0.0
 46
0.0
 47
0.0
 48
0.0
140
0.18
141
0.09
142
0.0
143
25.399999999999999
144
1.0
145
0.0
146
1.0
147
0.09
 71
     0
 72
     0
 73
     1
 74
     1
 75
     0
 76
     0
 77
     0
 78
     0
170
     0
171
     2
172
     0
173
     0
174
     0
175
     0
176
     0
177
     0
178
     0
  0
ENDTAB
  0
ENDSEC
  0
SECTION
  2
BLOCKS
  0
BLOCK
  8
0
  2
$MODEL_SPACE
 70
     0
 10
0.0
 20
0.0
 30
0.0
  3
$MODEL_SPACE
  1

  0
ENDBLK
  5
12
  8
0
  0
BLOCK
 67
     1
  8
0
  2
$PAPER_SPACE
 70
     0
 10
0.0
 20
0.0
 30
0.0
  3
$PAPER_SPACE
  1

  0
ENDBLK
  5
19
 67
     1
  8
0
  0
BLOCK
  8
0
  2
ARROW1
 70
     0
 10
0.0
 20
0.0
 30
0.0
  3
ARROW1
  1

  0
SOLID
  5
4B
  8
WAKU
  6
CONTINUOUS
 62
     4
 10
-1.0
 20
0.1666666666666714
 30
0.0
 11
-1.0
 21
-0.1666666666666714
 31
0.0
 12
0.0
 22
0.0
 32
0.0
 13
0.0
 23
0.0
 33
0.0
  0
ENDBLK
  5
4D
  8
0
  0
ENDSEC
  0
SECTION
  2
ENTITIES
  0
CIRCLE
  5
74
  8
3
 10
139.1817313820261
 20
205.81422107759849
 30
0.0
 40
10.0
  0
CIRCLE
  5
76
  8
0
 10
139.1817313820261
 20
205.81422107759849
 30
0.0
 40
8.7499999999999911
  0
CIRCLE
  5
77
  8
0
 10
139.1817313820261
 20
205.81422107759849
 30
0.0
 40
17.500000000000011
  0
LINE
  5
78
  8
0
 10
142.06848281586051
 20
210.81422096583981
 30
0.0
 11
136.29497994819161
 21
210.81422096583981
 31
0.0
  0
LINE
  5
79
  8
0
 10
144.955234249695
 20
205.81422107759849
 30
0.0
 11
142.06848281586051
 21
210.81422096583981
 31
0.0
  0
LINE
  5
7A
  8
0
 10
142.06848281586051
 20
200.8142211893572
 30
0.0
 11
136.29497994819161
 21
200.8142211893572
 31
0.0
  0
LINE
  5
7B
  8
0
 10
133.40822851435721
 20
205.81422107759849
 30
0.0
 11
136.29497994819161
 21
200.8142211893572
 31
0.0
  0
LINE
  5
7C
  8
0
 10
133.40822851435721
 20
205.81422107759849
 30
0.0
 11
136.29497994819161
 21
210.81422096583981
 31
0.0
  0
LINE
  5
7D
  8
0
 10
144.955234249695
 20
205.81422107759849
 30
0.0
 11
142.06848281586051
 21
200.8142211893572
 31
0.0
  0
LINE
  5
7E
  8
1
 10
139.1817313820261
 20
31.59201229833474
 30
0.0
 11
139.1817313820261
 21
161.1163206370276
 31
0.0
  0
LINE
  5
81
  8
0
 10
122.18173045815411
 20
151.12477248266771
 30
0.0
 11
156.18173230589801
 21
151.12477248266771
 31
0.0
  0
LINE
  5
82
  8
0
 10
156.68173145653179
 20
150.6247714693888
 30
0.0
 11
121.68173130752029
 21
150.62477146938869
 31
0.0
  0
LINE
  5
83
  8
0
 10
122.18173045815411
 20
151.12477248266771
 30
0.0
 11
121.68173130752029
 21
150.62477146938869
 31
0.0
  0
LINE
  5
84
  8
0
 10
156.68173145653191
 20
150.62477146938869
 30
0.0
 11
156.18173230589809
 21
151.12477248266771
 31
0.0
  0
LINE
  5
85
  8
0
 10
121.68173130752029
 20
150.62477146938869
 30
0.0
 11
121.68173130752029
 21
106.568151020561
 31
0.0
  0
LINE
  5
86
  8
0
 10
156.68173145653191
 20
106.568151020561
 30
0.0
 11
156.68173145653191
 21
150.62477146938869
 31
0.0
  0
LINE
  5
87
  8
1
 10
139.1817313820261
 20
227.21086733359761
 30
0.0
 11
139.1817313820261
 21
184.63467903260991
 31
0.0
  0
LINE
  5
88
  8
1
 10
117.8936372315323
 20
205.9227731831038
 30
0.0
 11
160.46982553251991
 21
205.9227731831038
 31
0.0
  0
LINE
  5
89
  8
2
 10
147.931731419279
 20
148.6247748668535
 30
0.0
 11
130.4317313447732
 21
148.62477486685339
 31
0.0
  0
LINE
  5
8C
  8
2
 10
150.43173182906091
 20
151.12477248266771
 30
0.0
 11
147.931731419279
 21
148.6247748668535
 31
0.0
  0
LINE
  5
8D
  8
2
 10
147.931731419279
 20
148.6247748668535
 30
0.0
 11
147.93173141927909
 21
101.12477248266769
 31
0.0
  0
LINE
  5
8E
  8
2
 10
149.1817311585086
 20
149.8747736747606
 30
0.0
 11
149.1817311585088
 21
101.12477248266769
 31
0.0
  0
LINE
  5
8F
  8
2
 10
130.4317313447732
 20
148.62477486685339
 30
0.0
 11
127.93173093499119
 21
151.12477248266759
 31
0.0
  0
LINE
  5
90
  8
2
 10
130.43173134477331
 20
101.12477248266769
 30
0.0
 11
130.4317313447732
 21
148.62477486685339
 31
0.0
  0
LINE
  5
91
  8
2
 10
129.18173160554369
 20
101.12477248266769
 30
0.0
 11
129.18173160554349
 21
149.87477367476049
 31
0.0
  0
LINE
  5
292
  8
0
 10
121.6817313075202
 20
71.624774294555749
 30
0.0
 11
122.18173045815399
 21
71.124774270807023
 31
0.0
  0
LINE
  5
293
  8
0
 10
156.18173230589801
 20
71.124774270806967
 30
0.0
 11
156.68173145653179
 21
71.624774294555692
 31
0.0
  0
LINE
  5
294
  8
0
 10
156.68173145653179
 20
71.624774294555692
 30
0.0
 11
156.68173145653191
 21
87.681398593936606
 31
0.0
  0
LINE
  5
295
  8
0
 10
121.68173130752029
 20
87.681398593936677
 30
0.0
 11
121.6817313075202
 21
71.624774294555749
 31
0.0
  0
LINE
  5
296
  8
0
 10
139.18173138202599
 20
71.624774294555863
 30
0.0
 11
156.68173145653179
 21
71.624774294555692
 31
0.0
  0
LINE
  5
297
  8
0
 10
121.6817313075202
 20
71.624774294555749
 30
0.0
 11
139.18173138202599
 21
71.624774294555863
 31
0.0
  0
LINE
  5
298
  8
0
 10
139.18173138202599
 20
71.124774270807137
 30
0.0
 11
122.18173045815399
 21
71.124774270807023
 31
0.0
  0
LINE
  5
299
  8
0
 10
156.18173230589801
 20
71.124774270806967
 30
0.0
 11
139.18173138202599
 21
71.124774270807137
 31
0.0
  0
POLYLINE
  5
29A
  8
0
 66
     1
 10
0.0
 20
0.0
 30
0.0
 70
   128
  0
VERTEX
  5
458
  8
0
 10
154.18173104674989
 20
105.124776118551
 30
0.0
  0
VERTEX
  5
459
  8
0
 10
154.83301703037199
 20
105.5007957454068
 30
0.0
  0
VERTEX
  5
45A
  8
0
 10
155.39082896114769
 20
105.82284709170879
 30
0.0
  0
VERTEX
  5
45B
  8
0
 10
155.8518354982275
 20
106.089007907663
 30
0.0
  0
VERTEX
  5
45C
  8
0
 10
156.21328365208089
 20
106.2976912196023
 30
0.0
  0
VERTEX
  5
45D
  8
0
 10
156.4730127543348
 20
106.4476453299862
 30
0.0
  0
VERTEX
  5
45E
  8
0
 10
156.629473084225
 20
106.5379798944336
 30
0.0
  0
VERTEX
  5
45F
  8
0
 10
156.68173145653191
 20
106.5681510205609
 30
0.0
  0
SEQEND
  5
460
  8
0
  0
LINE
  5
29B
  8
0
 10
154.18173104674989
 20
89.124773495946656
 30
0.0
 11
154.18173104674989
 21
105.124776118551
 31
0.0
  0
POLYLINE
  5
29C
  8
0
 66
     1
 10
0.0
 20
0.0
 30
0.0
 70
   128
  0
VERTEX
  5
461
  8
0
 10
156.68173145653191
 20
87.681398593936606
 30
0.0
  0
VERTEX
  5
462
  8
0
 10
156.629473084225
 20
87.711569720063849
 30
0.0
  0
VERTEX
  5
463
  8
0
 10
156.4730127543348
 20
87.801902421866103
 30
0.0
  0
VERTEX
  5
464
  8
0
 10
156.21328365208089
 20
87.951856532250105
 30
0.0
  0
VERTEX
  5
465
  8
0
 10
155.8518354982275
 20
88.160539844189344
 30
0.0
  0
VERTEX
  5
466
  8
0
 10
155.39082896114769
 20
88.426700660143624
 30
0.0
  0
VERTEX
  5
467
  8
0
 10
154.83301703037199
 20
88.748753869090805
 30
0.0
  0
VERTEX
  5
468
  8
0
 10
154.18173104674989
 20
89.124773495946656
 30
0.0
  0
SEQEND
  5
469
  8
0
  0
LINE
  5
29D
  8
0
 10
124.1817317173022
 20
105.124776118551
 30
0.0
 11
124.1817317173022
 21
89.124773495946698
 31
0.0
  0
POLYLINE
  5
29E
  8
0
 66
     1
 10
0.0
 20
0.0
 30
0.0
 70
   128
  0
VERTEX
  5
46A
  8
0
 10
121.68173130752029
 20
106.568151020561
 30
0.0
  0
VERTEX
  5
46B
  8
0
 10
121.7339896798271
 20
106.5379798944337
 30
0.0
  0
VERTEX
  5
46C
  8
0
 10
121.8904500097173
 20
106.4476453299863
 30
0.0
  0
VERTEX
  5
46D
  8
0
 10
122.1501791119713
 20
106.2976912196023
 30
0.0
  0
VERTEX
  5
46E
  8
0
 10
122.5116272658247
 20
106.0890079076631
 30
0.0
  0
VERTEX
  5
46F
  8
0
 10
122.9726338029045
 20
105.82284709170889
 30
0.0
  0
VERTEX
  5
470
  8
0
 10
123.5304457336801
 20
105.5007957454069
 30
0.0
  0
VERTEX
  5
471
  8
0
 10
124.1817317173022
 20
105.124776118551
 30
0.0
  0
SEQEND
  5
472
  8
0
  0
POLYLINE
  5
29F
  8
0
 66
     1
 10
0.0
 20
0.0
 30
0.0
 70
   128
  0
VERTEX
  5
473
  8
0
 10
124.1817317173022
 20
89.124773495946698
 30
0.0
  0
VERTEX
  5
474
  8
0
 10
123.5304457336801
 20
88.748753869090848
 30
0.0
  0
VERTEX
  5
475
  8
0
 10
122.9726338029045
 20
88.426700660143666
 30
0.0
  0
VERTEX
  5
476
  8
0
 10
122.5116272658247
 20
88.160539844189415
 30
0.0
  0
VERTEX
  5
477
  8
0
 10
122.1501791119713
 20
87.951856532250176
 30
0.0
  0
VERTEX
  5
478
  8
0
 10
121.8904500097173
 20
87.801902421866174
 30
0.0
  0
VERTEX
  5
479
  8
0
 10
121.7339896798271
 20
87.711569720063935
 30
0.0
  0
VERTEX
  5
47A
  8
0
 10
121.68173130752029
 20
87.681398593936677
 30
0.0
  0
SEQEND
  5
47B
  8
0
  0
LINE
  5
2A0
  8
0
 10
148.1956095636028
 20
105.124776118551
 30
0.0
 11
148.1956095636028
 21
89.124773495946698
 31
0.0
  0
POLYLINE
  5
2A1
  8
0
 10
148.19560957068603
 20
105.12477427080709
 30
0.0
 66
     1
 70
     8
  0
VERTEX
  8
0
  5
48A
 10
148.196
 20
105.125
 30
0.000000
  70
    32
  0
VERTEX
  8
0
  5
48B
 10
148.068
 20
105.168
 30
0.000000
  70
    32
  0
VERTEX
  8
0
  5
48C
 10
147.941
 20
105.212
 30
0.000000
  70
    32
  0
VERTEX
  8
0
  5
48D
 10
147.812
 20
105.254
 30
0.000000
  70
    32
  0
VERTEX
  8
0
  5
48E
 10
147.683
 20
105.296
 30
0.000000
  70
    32
  0
VERTEX
  8
0
  5
48F
 10
147.554
 20
105.337
 30
0.000000
  70
    32
  0
VERTEX
  8
0
  5
490
 10
147.423
 20
105.378
 30
0.000000
  70
    32
  0
VERTEX
  8
0
  5
491
 10
147.293
 20
105.417
 30
0.000000
  70
    32
  0
VERTEX
  8
0
  5
492
 10
147.161
 20
105.457
 30
0.000000
  70
    32
  0
VERTEX
  8
0
  5
493
 10
147.029
 20
105.495
 30
0.000000
  70
    32
  0
VERTEX
  8
0
  5
494
 10
146.897
 20
105.533
 30
0.000000
  70
    32
  0
VERTEX
  8
0
  5
495
 10
146.764
 20
105.571
 30
0.000000
  70
    32
  0
VERTEX
  8
0
  5
496
 10
146.630
 20
105.607
 30
0.000000
  70
    32
  0
VERTEX
  8
0
  5
497
 10
146.496
 20
105.643
 30
0.000000
  70
    32
  0
VERTEX
  8
0
  5
498
 10
146.361
 20
105.679
 30
0.000000
  70
    32
  0
VERTEX
  8
0
  5
499
 10
146.226
 20
105.713
 30
0.000000
  70
    32
  0
VERTEX
  8
0
  5
49A
 10
146.090
 20
105.748
 30
0.000000
  70
    32
  0
VERTEX
  8
0
  5
49B
 10
145.954
 20
105.781
 30
0.000000
  70
    32
  0
VERTEX
  8
0
  5
49C
 10
145.817
 20
105.814
 30
0.000000
  70
    32
  0
VERTEX
  8
0
  5
49D
 10
145.680
 20
105.846
 30
0.000000
  70
    32
  0
VERTEX
  8
0
  5
49E
 10
145.543
 20
105.877
 30
0.000000
  70
    32
  0
VERTEX
  8
0
  5
49F
 10
145.405
 20
105.908
 30
0.000000
  70
    32
  0
VERTEX
  8
0
  5
4A0
 10
145.266
 20
105.938
 30
0.000000
  70
    32
  0
VERTEX
  8
0
  5
4A1
 10
145.127
 20
105.967
 30
0.000000
  70
    32
  0
VERTEX
  8
0
  5
4A2
 10
144.988
 20
105.996
 30
0.000000
  70
    32
  0
VERTEX
  8
0
  5
4A3
 10
144.848
 20
106.024
 30
0.000000
  70
    32
  0
VERTEX
  8
0
  5
4A4
 10
144.708
 20
106.051
 30
0.000000
  70
    32
  0
VERTEX
  8
0
  5
4A5
 10
144.567
 20
106.078
 30
0.000000
  70
    32
  0
VERTEX
  8
0
  5
4A6
 10
144.426
 20
106.104
 30
0.000000
  70
    32
  0
VERTEX
  8
0
  5
4A7
 10
144.285
 20
106.129
 30
0.000000
  70
    32
  0
VERTEX
  8
0
  5
4A8
 10
144.143
 20
106.154
 30
0.000000
  70
    32
  0
VERTEX
  8
0
  5
4A9
 10
144.001
 20
106.177
 30
0.000000
  70
    32
  0
VERTEX
  8
0
  5
4AA
 10
143.859
 20
106.201
 30
0.000000
  70
    32
  0
VERTEX
  8
0
  5
4AB
 10
143.716
 20
106.223
 30
0.000000
  70
    32
  0
VERTEX
  8
0
  5
4AC
 10
143.573
 20
106.245
 30
0.000000
  70
    32
  0
VERTEX
  8
0
  5
4AD
 10
143.430
 20
106.266
 30
0.000000
  70
    32
  0
VERTEX
  8
0
  5
4AE
 10
143.286
 20
106.286
 30
0.000000
  70
    32
  0
VERTEX
  8
0
  5
4AF
 10
143.142
 20
106.306
 30
0.000000
  70
    32
  0
VERTEX
  8
0
  5
4B0
 10
142.998
 20
106.325
 30
0.000000
  70
    32
  0
VERTEX
  8
0
  5
4B1
 10
142.853
 20
106.343
 30
0.000000
  70
    32
  0
VERTEX
  8
0
  5
4B2
 10
142.708
 20
106.361
 30
0.000000
  70
    32
  0
VERTEX
  8
0
  5
4B3
 10
142.563
 20
106.378
 30
0.000000
  70
    32
  0
VERTEX
  8
0
  5
4B4
 10
142.418
 20
106.394
 30
0.000000
  70
    32
  0
VERTEX
  8
0
  5
4B5
 10
142.273
 20
106.409
 30
0.000000
  70
    32
  0
VERTEX
  8
0
  5
4B6
 10
142.127
 20
106.424
 30
0.000000
  70
    32
  0
VERTEX
  8
0
  5
4B7
 10
141.981
 20
106.438
 30
0.000000
  70
    32
  0
VERTEX
  8
0
  5
4B8
 10
141.835
 20
106.451
 30
0.000000
  70
    32
  0
VERTEX
  8
0
  5
4B9
 10
141.688
 20
106.464
 30
0.000000
  70
    32
  0
VERTEX
  8
0
  5
4BA
 10
141.542
 20
106.476
 30
0.000000
  70
    32
  0
VERTEX
  8
0
  5
4BB
 10
141.395
 20
106.487
 30
0.000000
  70
    32
  0
VERTEX
  8
0
  5
4BC
 10
141.248
 20
106.497
 30
0.000000
  70
    32
  0
VERTEX
  8
0
  5
4BD
 10
141.101
 20
106.507
 30
0.000000
  70
    32
  0
VERTEX
  8
0
  5
4BE
 10
140.954
 20
106.516
 30
0.000000
  70
    32
  0
VERTEX
  8
0
  5
4BF
 10
140.807
 20
106.524
 30
0.000000
  70
    32
  0
VERTEX
  8
0
  5
4C0
 10
140.660
 20
106.532
 30
0.000000
  70
    32
  0
VERTEX
  8
0
  5
4C1
 10
140.512
 20
106.539
 30
0.000000
  70
    32
  0
VERTEX
  8
0
  5
4C2
 10
140.364
 20
106.545
 30
0.000000
  70
    32
  0
VERTEX
  8
0
  5
4C3
 10
140.217
 20
106.550
 30
0.000000
  70
    32
  0
VERTEX
  8
0
  5
4C4
 10
140.069
 20
106.555
 30
0.000000
  70
    32
  0
VERTEX
  8
0
  5
4C5
 10
139.921
 20
106.559
 30
0.000000
  70
    32
  0
VERTEX
  8
0
  5
4C6
 10
139.773
 20
106.562
 30
0.000000
  70
    32
  0
VERTEX
  8
0
  5
4C7
 10
139.626
 20
106.565
 30
0.000000
  70
    32
  0
VERTEX
  8
0
  5
4C8
 10
139.478
 20
106.567
 30
0.000000
  70
    32
  0
VERTEX
  8
0
  5
4C9
 10
139.330
 20
106.568
 30
0.000000
  70
    32
  0
VERTEX
  8
0
  5
4CA
 10
139.182
 20
106.568
 30
0.000000
  70
    32
  0
VERTEX
  8
0
  5
4CB
 10
139.034
 20
106.568
 30
0.000000
  70
    32
  0
VERTEX
  8
0
  5
4CC
 10
138.886
 20
106.567
 30
0.000000
  70
    32
  0
VERTEX
  8
0
  5
4CD
 10
138.738
 20
106.565
 30
0.000000
  70
    32
  0
VERTEX
  8
0
  5
4CE
 10
138.590
 20
106.562
 30
0.000000
  70
    32
  0
VERTEX
  8
0
  5
4CF
 10
138.442
 20
106.559
 30
0.000000
  70
    32
  0
VERTEX
  8
0
  5
4D0
 10
138.294
 20
106.555
 30
0.000000
  70
    32
  0
VERTEX
  8
0
  5
4D1
 10
138.147
 20
106.550
 30
0.000000
  70
    32
  0
VERTEX
  8
0
  5
4D2
 10
137.999
 20
106.545
 30
0.000000
  70
    32
  0
VERTEX
  8
0
  5
4D3
 10
137.851
 20
106.539
 30
0.000000
  70
    32
  0
VERTEX
  8
0
  5
4D4
 10
137.704
 20
106.532
 30
0.000000
  70
    32
  0
VERTEX
  8
0
  5
4D5
 10
137.557
 20
106.524
 30
0.000000
  70
    32
  0
VERTEX
  8
0
  5
4D6
 10
137.409
 20
106.516
 30
0.000000
  70
    32
  0
VERTEX
  8
0
  5
4D7
 10
137.262
 20
106.507
 30
0.000000
  70
    32
  0
VERTEX
  8
0
  5
4D8
 10
137.115
 20
106.497
 30
0.000000
  70
    32
  0
VERTEX
  8
0
  5
4D9
 10
136.968
 20
106.487
 30
0.000000
  70
    32
  0
VERTEX
  8
0
  5
4DA
 10
136.822
 20
106.476
 30
0.000000
  70
    32
  0
VERTEX
  8
0
  5
4DB
 10
136.675
 20
106.464
 30
0.000000
  70
    32
  0
VERTEX
  8
0
  5
4DC
 10
136.529
 20
106.451
 30
0.000000
  70
    32
  0
VERTEX
  8
0
  5
4DD
 10
136.383
 20
106.438
 30
0.000000
  70
    32
  0
VERTEX
  8
0
  5
4DE
 10
136.237
 20
106.424
 30
0.000000
  70
    32
  0
VERTEX
  8
0
  5
4DF
 10
136.091
 20
106.409
 30
0.000000
  70
    32
  0
VERTEX
  8
0
  5
4E0
 10
135.945
 20
106.394
 30
0.000000
  70
    32
  0
VERTEX
  8
0
  5
4E1
 10
135.800
 20
106.378
 30
0.000000
  70
    32
  0
VERTEX
  8
0
  5
4E2
 10
135.655
 20
106.361
 30
0.000000
  70
    32
  0
VERTEX
  8
0
  5
4E3
 10
135.510
 20
106.343
 30
0.000000
  70
    32
  0
VERTEX
  8
0
  5
4E4
 10
135.366
 20
106.325
 30
0.000000
  70
    32
  0
VERTEX
  8
0
  5
4E5
 10
135.221
 20
106.306
 30
0.000000
  70
    32
  0
VERTEX
  8
0
  5
4E6
 10
135.078
 20
106.286
 30
0.000000
  70
    32
  0
VERTEX
  8
0
  5
4E7
 10
134.934
 20
106.266
 30
0.000000
  70
    32
  0
VERTEX
  8
0
  5
4E8
 10
134.790
 20
106.245
 30
0.000000
  70
    32
  0
VERTEX
  8
0
  5
4E9
 10
134.647
 20
106.223
 30
0.000000
  70
    32
  0
VERTEX
  8
0
  5
4EA
 10
134.505
 20
106.201
 30
0.000000
  70
    32
  0
VERTEX
  8
0
  5
4EB
 10
134.362
 20
106.177
 30
0.000000
  70
    32
  0
VERTEX
  8
0
  5
4EC
 10
134.220
 20
106.154
 30
0.000000
  70
    32
  0
VERTEX
  8
0
  5
4ED
 10
134.078
 20
106.129
 30
0.000000
  70
    32
  0
VERTEX
  8
0
  5
4EE
 10
133.937
 20
106.104
 30
0.000000
  70
    32
  0
VERTEX
  8
0
  5
4EF
 10
133.796
 20
106.078
 30
0.000000
  70
    32
  0
VERTEX
  8
0
  5
4F0
 10
133.656
 20
106.051
 30
0.000000
  70
    32
  0
VERTEX
  8
0
  5
4F1
 10
133.515
 20
106.024
 30
0.000000
  70
    32
  0
VERTEX
  8
0
  5
4F2
 10
133.376
 20
105.996
 30
0.000000
  70
    32
  0
VERTEX
  8
0
  5
4F3
 10
133.236
 20
105.967
 30
0.000000
  70
    32
  0
VERTEX
  8
0
  5
4F4
 10
133.097
 20
105.938
 30
0.000000
  70
    32
  0
VERTEX
  8
0
  5
4F5
 10
132.959
 20
105.908
 30
0.000000
  70
    32
  0
VERTEX
  8
0
  5
4F6
 10
132.821
 20
105.877
 30
0.000000
  70
    32
  0
VERTEX
  8
0
  5
4F7
 10
132.683
 20
105.846
 30
0.000000
  70
    32
  0
VERTEX
  8
0
  5
4F8
 10
132.546
 20
105.814
 30
0.000000
  70
    32
  0
VERTEX
  8
0
  5
4F9
 10
132.409
 20
105.781
 30
0.000000
  70
    32
  0
VERTEX
  8
0
  5
4FA
 10
132.273
 20
105.748
 30
0.000000
  70
    32
  0
VERTEX
  8
0
  5
4FB
 10
132.137
 20
105.713
 30
0.000000
  70
    32
  0
VERTEX
  8
0
  5
4FC
 10
132.002
 20
105.679
 30
0.000000
  70
    32
  0
VERTEX
  8
0
  5
4FD
 10
131.868
 20
105.643
 30
0.000000
  70
    32
  0
VERTEX
  8
0
  5
4FE
 10
131.733
 20
105.607
 30
0.000000
  70
    32
  0
VERTEX
  8
0
  5
4FF
 10
131.600
 20
105.571
 30
0.000000
  70
    32
  0
VERTEX
  8
0
  5
500
 10
131.467
 20
105.533
 30
0.000000
  70
    32
  0
VERTEX
  8
0
  5
501
 10
131.334
 20
105.495
 30
0.000000
  70
    32
  0
VERTEX
  8
0
  5
502
 10
131.202
 20
105.457
 30
0.000000
  70
    32
  0
VERTEX
  8
0
  5
503
 10
131.071
 20
105.417
 30
0.000000
  70
    32
  0
VERTEX
  8
0
  5
504
 10
130.940
 20
105.378
 30
0.000000
  70
    32
  0
VERTEX
  8
0
  5
505
 10
130.810
 20
105.337
 30
0.000000
  70
    32
  0
VERTEX
  8
0
  5
506
 10
130.680
 20
105.296
 30
0.000000
  70
    32
  0
VERTEX
  8
0
  5
507
 10
130.551
 20
105.254
 30
0.000000
  70
    32
  0
VERTEX
  8
0
  5
508
 10
130.423
 20
105.212
 30
0.000000
  70
    32
  0
VERTEX
  8
0
  5
509
 10
130.295
 20
105.168
 30
0.000000
  70
    32
  0
VERTEX
  8
0
  5
50A
 10
130.168
 20
105.125
 30
0.000000
  70
    32
  0
SEQEND
  8
0
  5
50B
  0
LINE
  5
2A2
  8
0
 10
130.16785320044929
 20
89.124773495946755
 30
0.0
 11
130.16785320044929
 21
105.1247761185511
 31
0.0
  0
POLYLINE
  5
2A3
  8
0
 10
130.16785319336628
 20
89.124774270807052
 30
0.0
 66
     1
 70
     8
  0
VERTEX
  8
0
  5
50C
 10
130.168
 20
89.1248
 30
0.000000
  70
    32
  0
VERTEX
  8
0
  5
50D
 10
130.295
 20
89.0811
 30
0.000000
  70
    32
  0
VERTEX
  8
0
  5
50E
 10
130.423
 20
89.0380
 30
0.000000
  70
    32
  0
VERTEX
  8
0
  5
50F
 10
130.551
 20
88.9956
 30
0.000000
  70
    32
  0
VERTEX
  8
0
  5
510
 10
130.680
 20
88.9538
 30
0.000000
  70
    32
  0
VERTEX
  8
0
  5
511
 10
130.810
 20
88.9126
 30
0.000000
  70
    32
  0
VERTEX
  8
0
  5
512
 10
130.940
 20
88.8720
 30
0.000000
  70
    32
  0
VERTEX
  8
0
  5
513
 10
131.071
 20
88.8321
 30
0.000000
  70
    32
  0
VERTEX
  8
0
  5
514
 10
131.202
 20
88.7928
 30
0.000000
  70
    32
  0
VERTEX
  8
0
  5
515
 10
131.334
 20
88.7542
 30
0.000000
  70
    32
  0
VERTEX
  8
0
  5
516
 10
131.467
 20
88.7162
 30
0.000000
  70
    32
  0
VERTEX
  8
0
  5
517
 10
131.600
 20
88.6789
 30
0.000000
  70
    32
  0
VERTEX
  8
0
  5
518
 10
131.733
 20
88.6422
 30
0.000000
  70
    32
  0
VERTEX
  8
0
  5
519
 10
131.868
 20
88.6062
 30
0.000000
  70
    32
  0
VERTEX
  8
0
  5
51A
 10
132.002
 20
88.5708
 30
0.000000
  70
    32
  0
VERTEX
  8
0
  5
51B
 10
132.137
 20
88.5361
 30
0.000000
  70
    32
  0
VERTEX
  8
0
  5
51C
 10
132.273
 20
88.5020
 30
0.000000
  70
    32
  0
VERTEX
  8
0
  5
51D
 10
132.409
 20
88.4687
 30
0.000000
  70
    32
  0
VERTEX
  8
0
  5
51E
 10
132.546
 20
88.4359
 30
0.000000
  70
    32
  0
VERTEX
  8
0
  5
51F
 10
132.683
 20
88.4039
 30
0.000000
  70
    32
  0
VERTEX
  8
0
  5
520
 10
132.821
 20
88.3725
 30
0.000000
  70
    32
  0
VERTEX
  8
0
  5
521
 10
132.959
 20
88.3418
 30
0.000000
  70
    32
  0
VERTEX
  8
0
  5
522
 10
133.097
 20
88.3117
 30
0.000000
  70
    32
  0
VERTEX
  8
0
  5
523
 10
133.236
 20
88.2824
 30
0.000000
  70
    32
  0
VERTEX
  8
0
  5
524
 10
133.376
 20
88.2537
 30
0.000000
  70
    32
  0
VERTEX
  8
0
  5
525
 10
133.515
 20
88.2257
 30
0.000000
  70
    32
  0
VERTEX
  8
0
  5
526
 10
133.656
 20
88.1984
 30
0.000000
  70
    32
  0
VERTEX
  8
0
  5
527
 10
133.796
 20
88.1717
 30
0.000000
  70
    32
  0
VERTEX
  8
0
  5
528
 10
133.937
 20
88.1458
 30
0.000000
  70
    32
  0
VERTEX
  8
0
  5
529
 10
134.078
 20
88.1205
 30
0.000000
  70
    32
  0
VERTEX
  8
0
  5
52A
 10
134.220
 20
88.0960
 30
0.000000
  70
    32
  0
VERTEX
  8
0
  5
52B
 10
134.362
 20
88.0721
 30
0.000000
  70
    32
  0
VERTEX
  8
0
  5
52C
 10
134.505
 20
88.0489
 30
0.000000
  70
    32
  0
VERTEX
  8
0
  5
52D
 10
134.647
 20
88.0264
 30
0.000000
  70
    32
  0
VERTEX
  8
0
  5
52E
 10
134.790
 20
88.0047
 30
0.000000
  70
    32
  0
VERTEX
  8
0
  5
52F
 10
134.934
 20
87.9836
 30
0.000000
  70
    32
  0
VERTEX
  8
0
  5
530
 10
135.078
 20
87.9632
 30
0.000000
  70
    32
  0
VERTEX
  8
0
  5
531
 10
135.221
 20
87.9435
 30
0.000000
  70
    32
  0
VERTEX
  8
0
  5
532
 10
135.366
 20
87.9245
 30
0.000000
  70
    32
  0
VERTEX
  8
0
  5
533
 10
135.510
 20
87.9063
 30
0.000000
  70
    32
  0
VERTEX
  8
0
  5
534
 10
135.655
 20
87.8887
 30
0.000000
  70
    32
  0
VERTEX
  8
0
  5
535
 10
135.800
 20
87.8718
 30
0.000000
  70
    32
  0
VERTEX
  8
0
  5
536
 10
135.945
 20
87.8557
 30
0.000000
  70
    32
  0
VERTEX
  8
0
  5
537
 10
136.091
 20
87.8402
 30
0.000000
  70
    32
  0
VERTEX
  8
0
  5
538
 10
136.237
 20
87.8255
 30
0.000000
  70
    32
  0
VERTEX
  8
0
  5
539
 10
136.383
 20
87.8115
 30
0.000000
  70
    32
  0
VERTEX
  8
0
  5
53A
 10
136.529
 20
87.7982
 30
0.000000
  70
    32
  0
VERTEX
  8
0
  5
53B
 10
136.675
 20
87.7856
 30
0.000000
  70
    32
  0
VERTEX
  8
0
  5
53C
 10
136.822
 20
87.7737
 30
0.000000
  70
    32
  0
VERTEX
  8
0
  5
53D
 10
136.968
 20
87.7625
 30
0.000000
  70
    32
  0
VERTEX
  8
0
  5
53E
 10
137.115
 20
87.7521
 30
0.000000
  70
    32
  0
VERTEX
  8
0
  5
53F
 10
137.262
 20
87.7424
 30
0.000000
  70
    32
  0
VERTEX
  8
0
  5
540
 10
137.409
 20
87.7334
 30
0.000000
  70
    32
  0
VERTEX
  8
0
  5
541
 10
137.557
 20
87.7251
 30
0.000000
  70
    32
  0
VERTEX
  8
0
  5
542
 10
137.704
 20
87.7175
 30
0.000000
  70
    32
  0
VERTEX
  8
0
  5
543
 10
137.851
 20
87.7106
 30
0.000000
  70
    32
  0
VERTEX
  8
0
  5
544
 10
137.999
 20
87.7045
 30
0.000000
  70
    32
  0
VERTEX
  8
0
  5
545
 10
138.147
 20
87.6991
 30
0.000000
  70
    32
  0
VERTEX
  8
0
  5
546
 10
138.294
 20
87.6944
 30
0.000000
  70
    32
  0
VERTEX
  8
0
  5
547
 10
138.442
 20
87.6904
 30
0.000000
  70
    32
  0
VERTEX
  8
0
  5
548
 10
138.590
 20
87.6872
 30
0.000000
  70
    32
  0
VERTEX
  8
0
  5
549
 10
138.738
 20
87.6846
 30
0.000000
  70
    32
  0
VERTEX
  8
0
  5
54A
 10
138.886
 20
87.6828
 30
0.000000
  70
    32
  0
VERTEX
  8
0
  5
54B
 10
139.034
 20
87.6818
 30
0.000000
  70
    32
  0
VERTEX
  8
0
  5
54C
 10
139.182
 20
87.6814
 30
0.000000
  70
    32
  0
VERTEX
  8
0
  5
54D
 10
139.330
 20
87.6818
 30
0.000000
  70
    32
  0
VERTEX
  8
0
  5
54E
 10
139.478
 20
87.6828
 30
0.000000
  70
    32
  0
VERTEX
  8
0
  5
54F
 10
139.626
 20
87.6846
 30
0.000000
  70
    32
  0
VERTEX
  8
0
  5
550
 10
139.773
 20
87.6872
 30
0.000000
  70
    32
  0
VERTEX
  8
0
  5
551
 10
139.921
 20
87.6904
 30
0.000000
  70
    32
  0
VERTEX
  8
0
  5
552
 10
140.069
 20
87.6944
 30
0.000000
  70
    32
  0
VERTEX
  8
0
  5
553
 10
140.217
 20
87.6991
 30
0.000000
  70
    32
  0
VERTEX
  8
0
  5
554
 10
140.364
 20
87.7045
 30
0.000000
  70
    32
  0
VERTEX
  8
0
  5
555
 10
140.512
 20
87.7106
 30
0.000000
  70
    32
  0
VERTEX
  8
0
  5
556
 10
140.660
 20
87.7175
 30
0.000000
  70
    32
  0
VERTEX
  8
0
  5
557
 10
140.807
 20
87.7251
 30
0.000000
  70
    32
  0
VERTEX
  8
0
  5
558
 10
140.954
 20
87.7334
 30
0.000000
  70
    32
  0
VERTEX
  8
0
  5
559
 10
141.101
 20
87.7424
 30
0.000000
  70
    32
  0
VERTEX
  8
0
  5
55A
 10
141.248
 20
87.7521
 30
0.000000
  70
    32
  0
VERTEX
  8
0
  5
55B
 10
141.395
 20
87.7625
 30
0.000000
  70
    32
  0
VERTEX
  8
0
  5
55C
 10
141.542
 20
87.7737
 30
0.000000
  70
    32
  0
VERTEX
  8
0
  5
55D
 10
141.688
 20
87.7856
 30
0.000000
  70
    32
  0
VERTEX
  8
0
  5
55E
 10
141.835
 20
87.7982
 30
0.000000
  70
    32
  0
VERTEX
  8
0
  5
55F
 10
141.981
 20
87.8115
 30
0.000000
  70
    32
  0
VERTEX
  8
0
  5
560
 10
142.127
 20
87.8255
 30
0.000000
  70
    32
  0
VERTEX
  8
0
  5
561
 10
142.273
 20
87.8402
 30
0.000000
  70
    32
  0
VERTEX
  8
0
  5
562
 10
142.418
 20
87.8557
 30
0.000000
  70
    32
  0
VERTEX
  8
0
  5
563
 10
142.563
 20
87.8718
 30
0.000000
  70
    32
  0
VERTEX
  8
0
  5
564
 10
142.708
 20
87.8887
 30
0.000000
  70
    32
  0
VERTEX
  8
0
  5
565
 10
142.853
 20
87.9063
 30
0.000000
  70
    32
  0
VERTEX
  8
0
  5
566
 10
142.998
 20
87.9245
 30
0.000000
  70
    32
  0
VERTEX
  8
0
  5
567
 10
143.142
 20
87.9435
 30
0.000000
  70
    32
  0
VERTEX
  8
0
  5
568
 10
143.286
 20
87.9632
 30
0.000000
  70
    32
  0
VERTEX
  8
0
  5
569
 10
143.430
 20
87.9836
 30
0.000000
  70
    32
  0
VERTEX
  8
0
  5
56A
 10
143.573
 20
88.0047
 30
0.000000
  70
    32
  0
VERTEX
  8
0
  5
56B
 10
143.716
 20
88.0264
 30
0.000000
  70
    32
  0
VERTEX
  8
0
  5
56C
 10
143.859
 20
88.0489
 30
0.000000
  70
    32
  0
VERTEX
  8
0
  5
56D
 10
144.001
 20
88.0721
 30
0.000000
  70
    32
  0
VERTEX
  8
0
  5
56E
 10
144.143
 20
88.0960
 30
0.000000
  70
    32
  0
VERTEX
  8
0
  5
56F
 10
144.285
 20
88.1205
 30
0.000000
  70
    32
  0
VERTEX
  8
0
  5
570
 10
144.426
 20
88.1458
 30
0.000000
  70
    32
  0
VERTEX
  8
0
  5
571
 10
144.567
 20
88.1717
 30
0.000000
  70
    32
  0
VERTEX
  8
0
  5
572
 10
144.708
 20
88.1984
 30
0.000000
  70
    32
  0
VERTEX
  8
0
  5
573
 10
144.848
 20
88.2257
 30
0.000000
  70
    32
  0
VERTEX
  8
0
  5
574
 10
144.988
 20
88.2537
 30
0.000000
  70
    32
  0
VERTEX
  8
0
  5
575
 10
145.127
 20
88.2824
 30
0.000000
  70
    32
  0
VERTEX
  8
0
  5
576
 10
145.266
 20
88.3117
 30
0.000000
  70
    32
  0
VERTEX
  8
0
  5
577
 10
145.405
 20
88.3418
 30
0.000000
  70
    32
  0
VERTEX
  8
0
  5
578
 10
145.543
 20
88.3725
 30
0.000000
  70
    32
  0
VERTEX
  8
0
  5
579
 10
145.680
 20
88.4039
 30
0.000000
  70
    32
  0
VERTEX
  8
0
  5
57A
 10
145.817
 20
88.4359
 30
0.000000
  70
    32
  0
VERTEX
  8
0
  5
57B
 10
145.954
 20
88.4687
 30
0.000000
  70
    32
  0
VERTEX
  8
0
  5
57C
 10
146.090
 20
88.5020
 30
0.000000
  70
    32
  0
VERTEX
  8
0
  5
57D
 10
146.226
 20
88.5361
 30
0.000000
  70
    32
  0
VERTEX
  8
0
  5
57E
 10
146.361
 20
88.5708
 30
0.000000
  70
    32
  0
VERTEX
  8
0
  5
57F
 10
146.496
 20
88.6062
 30
0.000000
  70
    32
  0
VERTEX
  8
0
  5
580
 10
146.630
 20
88.6422
 30
0.000000
  70
    32
  0
VERTEX
  8
0
  5
581
 10
146.764
 20
88.6789
 30
0.000000
  70
    32
  0
VERTEX
  8
0
  5
582
 10
146.897
 20
88.7162
 30
0.000000
  70
    32
  0
VERTEX
  8
0
  5
583
 10
147.029
 20
88.7542
 30
0.000000
  70
    32
  0
VERTEX
  8
0
  5
584
 10
147.161
 20
88.7928
 30
0.000000
  70
    32
  0
VERTEX
  8
0
  5
585
 10
147.293
 20
88.8321
 30
0.000000
  70
    32
  0
VERTEX
  8
0
  5
586
 10
147.423
 20
88.8720
 30
0.000000
  70
    32
  0
VERTEX
  8
0
  5
587
 10
147.554
 20
88.9126
 30
0.000000
  70
    32
  0
VERTEX
  8
0
  5
588
 10
147.683
 20
88.9538
 30
0.000000
  70
    32
  0
VERTEX
  8
0
  5
589
 10
147.812
 20
88.9956
 30
0.000000
  70
    32
  0
VERTEX
  8
0
  5
58A
 10
147.941
 20
89.0380
 30
0.000000
  70
    32
  0
VERTEX
  8
0
  5
58B
 10
148.068
 20
89.0811
 30
0.000000
  70
    32
  0
VERTEX
  8
0
  5
58C
 10
148.196
 20
89.1248
 30
0.000000
  70
    32
  0
SEQEND
  8
0
  5
58D
  0
LINE
  5
2A4
  8
0
 10
148.1956095636028
 20
89.124773495946698
 30
0.0
 11
130.16785320044929
 21
89.124773495946755
 31
0.0
  0
LINE
  5
2A5
  8
0
 10
148.1956095636028
 20
105.124776118551
 30
0.0
 11
130.16785320044929
 21
105.1247761185511
 31
0.0
  0
LINE
  5
2A6
  8
0
 10
148.195609570686
 20
89.124774270807023
 30
0.0
 11
130.167853193366
 21
105.12477427080709
 31
0.0
  0
LINE
  5
2A7
  8
0
 10
148.195609570686
 20
105.12477427080709
 30
0.0
 11
130.167853193366
 21
89.124774270807066
 31
0.0
  0
LINE
  5
341
  8
0
 10
129.1817316055434
 20
44.12477357045244
 30
0.0
 11
131.68173154966411
 21
41.624774091993089
 31
0.0
  0
LINE
  5
342
  8
0
 10
129.1817316055434
 20
71.124774270807137
 30
0.0
 11
129.1817316055434
 21
44.12477357045244
 31
0.0
  0
LINE
  5
343
  8
0
 10
129.1817316055434
 20
44.12477357045244
 30
0.0
 11
139.18173138202599
 21
44.124773570452497
 31
0.0
  0
LINE
  5
344
  8
0
 10
131.68173154966411
 20
41.624774091993089
 30
0.0
 11
139.18173138202599
 21
41.624774091993139
 31
0.0
  0
LINE
  5
345
  8
3
 10
130.43173134477311
 20
71.124774270807137
 30
0.0
 11
130.43173134477311
 21
42.874774762545343
 31
0.0
  0
LINE
  5
346
  8
0
 10
146.68173121438801
 20
41.624774091993032
 30
0.0
 11
149.1817311585086
 21
44.12477357045239
 31
0.0
  0
LINE
  5
347
  8
0
 10
149.1817311585086
 20
44.12477357045239
 30
0.0
 11
149.1817311585086
 21
71.12477427080708
 31
0.0
  0
LINE
  5
348
  8
0
 10
139.18173138202599
 20
44.124773570452497
 30
0.0
 11
149.1817311585086
 21
44.12477357045239
 31
0.0
  0
LINE
  5
349
  8
3
 10
147.93173141927889
 20
42.874774762545293
 30
0.0
 11
147.93173141927889
 21
71.12477427080708
 31
0.0
  0
LINE
  5
34A
  8
0
 10
139.18173138202599
 20
41.624774091993139
 30
0.0
 11
146.68173121438801
 21
41.624774091993032
 31
0.0
  0
LINE
  5
396
  8
2
 10
129.18173160554369
 20
101.12477248266769
 30
0.0
 11
149.1817311585088
 21
101.12477248266769
 31
0.0
  0
TEXT
  5
407
  8
0
 62
     3
 10
0.0
 20
0.0
 30
0.0
 40
10.0
  1
BJ601-20080
  7
STANDARD1
  0
ENDSEC
  0
EOF
