  0
SECTION
  2
HEADER
  9
$ACADVER
  1
AC1009
  9
$INSBASE
 10
0.0
 20
0.0
 30
0.0
  9
$EXTMIN
 10
0.0
 20
-2.960436562073669
 30
0.0
  9
$EXTMAX
 10
353.79999865889567
 20
204.999999329448
 30
0.0
  9
$LIMMIN
 10
0.0
 20
0.0
  9
$LIMMAX
 10
375.0
 20
270.0
  9
$ORTHOMODE
 70
     1
  9
$REGENMODE
 70
     1
  9
$FILLMODE
 70
     1
  9
$QTEXTMODE
 70
     0
  9
$MIRRTEXT
 70
     0
  9
$DRAGMODE
 70
     2
  9
$LTSCALE
 40
5.0
  9
$OSMODE
 70
    37
  9
$ATTMODE
 70
     1
  9
$TEXTSIZE
 40
6.0
  9
$TRACEWID
 40
0.05
  9
$TEXTSTYLE
  7
STANDARD
  9
$CLAYER
  8
0
  9
$CELTYPE
  6
BYLAYER
  9
$CECOLOR
 62
   256
  9
$DIMSCALE
 40
1.0
  9
$DIMASZ
 40
3.0
  9
$DIMEXO
 40
2.0
  9
$DIMDLI
 40
0.3799999999999999
  9
$DIMRND
 40
0.0
  9
$DIMDLE
 40
0.0
  9
$DIMEXE
 40
2.0
  9
$DIMTP
 40
0.0
  9
$DIMTM
 40
0.0
  9
$DIMTXT
 40
3.2000000000000002
  9
$DIMCEN
 40
0.09
  9
$DIMTSZ
 40
0.0
  9
$DIMTOL
 70
     0
  9
$DIMLIM
 70
     0
  9
$DIMTIH
 70
     0
  9
$DIMTOH
 70
     0
  9
$DIMSE1
 70
     0
  9
$DIMSE2
 70
     0
  9
$DIMTAD
 70
     1
  9
$DIMZIN
 70
     0
  9
$DIMBLK
  1

  9
$DIMASO
 70
     0
  9
$DIMSHO
 70
     0
  9
$DIMPOST
  1

  9
$DIMAPOST
  1

  9
$DIMALT
 70
     0
  9
$DIMALTD
 70
     2
  9
$DIMALTF
 40
25.399999999999999
  9
$DIMLFAC
 40
1.0
  9
$DIMTOFL
 70
     0
  9
$DIMTVP
 40
0.0
  9
$DIMTIX
 70
     0
  9
$DIMSOXD
 70
     0
  9
$DIMSAH
 70
     0
  9
$DIMBLK1
  1

  9
$DIMBLK2
  1

  9
$DIMSTYLE
  2
STANDARD
  9
$DIMCLRD
 70
   256
  9
$DIMCLRE
 70
     0
  9
$DIMCLRT
 70
   256
  9
$DIMTFAC
 40
1.0
  9
$DIMGAP
 40
0.5
  9
$LUNITS
 70
     2
  9
$LUPREC
 70
     4
  9
$SKETCHINC
 40
0.1
  9
$FILLETRAD
 40
20.0
  9
$AUNITS
 70
     0
  9
$AUPREC
 70
     0
  9
$MENU
  1
E:\r13\win\SUPPORT\ACAD
  9
$ELEVATION
 40
0.0
  9
$PELEVATION
 40
0.0
  9
$THICKNESS
 40
0.0
  9
$LIMCHECK
 70
     0
  9
$BLIPMODE
 70
     0
  9
$CHAMFERA
 40
0.0
  9
$CHAMFERB
 40
0.0
  9
$SKPOLY
 70
     0
  9
$TDCREATE
 40
2449840.6320370371
  9
$TDUPDATE
 40
2456969.403701169
  9
$TDINDWG
 40
0.5100658333
  9
$TDUSRTIMER
 40
0.5100658333
  9
$USRTIMER
 70
     1
  9
$ANGBASE
 50
0.0
  9
$ANGDIR
 70
     0
  9
$PDMODE
 70
     0
  9
$PDSIZE
 40
0.0
  9
$PLINEWID
 40
0.0
  9
$COORDS
 70
     1
  9
$SPLFRAME
 70
     0
  9
$SPLINETYPE
 70
     6
  9
$SPLINESEGS
 70
     8
  9
$ATTDIA
 70
     0
  9
$ATTREQ
 70
     1
  9
$HANDLING
 70
     1
  9
$HANDSEED
  5
B962
  9
$SURFTAB1
 70
     6
  9
$SURFTAB2
 70
     6
  9
$SURFTYPE
 70
     6
  9
$SURFU
 70
     6
  9
$SURFV
 70
     6
  9
$UCSNAME
  2

  9
$UCSORG
 10
0.0
 20
0.0
 30
0.0
  9
$UCSXDIR
 10
1.0
 20
0.0
 30
0.0
  9
$UCSYDIR
 10
0.0
 20
1.0
 30
0.0
  9
$PUCSNAME
  2

  9
$PUCSORG
 10
0.0
 20
0.0
 30
0.0
  9
$PUCSXDIR
 10
1.0
 20
0.0
 30
0.0
  9
$PUCSYDIR
 10
0.0
 20
1.0
 30
0.0
  9
$USERI1
 70
     0
  9
$USERI2
 70
     1
  9
$USERI3
 70
     0
  9
$USERI4
 70
     0
  9
$USERI5
 70
     0
  9
$USERR1
 40
0.0
  9
$USERR2
 40
0.0
  9
$USERR3
 40
0.0
  9
$USERR4
 40
0.0
  9
$USERR5
 40
0.0
  9
$WORLDVIEW
 70
     1
  9
$SHADEDGE
 70
     3
  9
$SHADEDIF
 70
    70
  9
$TILEMODE
 70
     1
  9
$MAXACTVP
 70
    16
  9
$PLIMCHECK
 70
     0
  9
$PEXTMIN
 10
1.0000000000000000E+020
 20
1.0000000000000000E+020
 30
1.0000000000000000E+020
  9
$PEXTMAX
 10
-1.0000000000000000E+020
 20
-1.0000000000000000E+020
 30
-1.0000000000000000E+020
  9
$PLIMMIN
 10
0.0
 20
0.0
  9
$PLIMMAX
 10
12.0
 20
9.0
  9
$UNITMODE
 70
     0
  9
$VISRETAIN
 70
     0
  9
$PLINEGEN
 70
     0
  9
$PSLTSCALE
 70
     0
  0
ENDSEC
  0
SECTION
  2
TABLES
  0
TABLE
  2
VPORT
 70
     1
  0
VPORT
  2
*ACTIVE
 70
     0
 10
0.0
 20
0.0
 11
1.0
 21
1.0
 12
235.63977746870651
 22
135.0
 13
0.0
 23
0.0
 14
10.0
 24
10.0
 15
10.0
 25
10.0
 16
0.0
 26
0.0
 36
1.0
 17
0.0
 27
0.0
 37
0.0
 40
270.0
 41
1.7454798331015291
 42
50.0
 43
0.0
 44
0.0
 50
0.0
 51
0.0
 71
     0
 72
   500
 73
     1
 74
     0
 75
     0
 76
     0
 77
     0
 78
     0
  0
ENDTAB
  0
TABLE
  2
LTYPE
 70
     4
  0
LTYPE
  2
CONTINUOUS
 70
     0
  3
Solid Line
 72
    65
 73
     0
 40
0.0
  0
LTYPE
  2
CENTER
 70
     0
  3
____ _ ____ _ ____ _ ____ _ ____ _ ____ _ ____
 72
    65
 73
     4
 40
2.0
 49
1.25
 49
-0.25
 49
0.25
 49
-0.25
  0
LTYPE
  2
PHANTOM2
 70
     0
  3
___ _ _ ___ _ _ ___ _ _ ___ _ _
 72
    65
 73
     6
 40
1.25
 49
0.625
 49
-0.125
 49
0.125
 49
-0.125
 49
0.125
 49
-0.125
  0
LTYPE
  2
HIDDEN
 70
     0
  3
Hidden __ __ __ __ __ __ __ __ __ __ __ __ __ __
 72
    65
 73
     2
 40
1.905
 49
1.27
 49
-0.635
  0
ENDTAB
  0
TABLE
  2
LAYER
 70
     6
  0
LAYER
  2
0
 70
     0
 62
     7
  6
CONTINUOUS
  0
LAYER
  2
1
 70
     0
 62
     1
  6
CENTER
  0
LAYER
  2
3
 70
     0
 62
     3
  6
CONTINUOUS
  0
LAYER
  2
DEFPOINTS
 70
     0
 62
     7
  6
CONTINUOUS
  0
LAYER
  2
5
 70
     0
 62
     3
  6
PHANTOM2
  0
LAYER
  2
2
 70
     0
 62
     2
  6
HIDDEN
  0
ENDTAB
  0
TABLE
  2
STYLE
 70
     2
  0
STYLE
  2
STANDARD
 70
     0
 40
0.0
 41
1.0
 50
0.0
 71
     0
 42
6.0
  3
TXT
  4
BIGFONT
  0
STYLE
  2
STANDARD1
 70
     0
 40
0.0
 41
1.0
 50
0.0
 71
     0
 42
3.0
  3
txt
  4

  0
ENDTAB
  0
TABLE
  2
VIEW
 70
     1
  0
VIEW
  2
ALL
 70
     0
 40
270.0
 10
213.25689075630251
 20
135.0
 41
0.0
 11
0.0
 21
0.0
 31
1.0
 12
0.0
 22
0.0
 32
0.0
 42
0.0
 43
0.0
 44
0.0
 50
0.0
 71
     0
  0
ENDTAB
  0
TABLE
  2
UCS
 70
     0
  0
ENDTAB
  0
TABLE
  2
APPID
 70
     4
  0
APPID
  2
ACAD
 70
     0
  0
APPID
  2
ACAD_MLEADERVER
 70
     0
  0
APPID
  2
ACAD_EXEMPT_FROM_CAD_STANDARDS
 70
     0
  0
APPID
  2
ACAD_NAV_VCDISPLAY
 70
     0
  0
ENDTAB
  0
TABLE
  2
DIMSTYLE
 70
     1
  0
DIMSTYLE
  2
STANDARD
 70
     0
  3

  4

  5

  6

  7

 40
1.0
 41
0.18
 42
0.0625
 43
0.38
 44
0.18
 45
0.0
 46
0.0
 47
0.0
 48
0.0
140
0.18
141
0.09
142
0.0
143
25.399999999999999
144
1.0
145
0.0
146
1.0
147
0.09
 71
     0
 72
     0
 73
     1
 74
     1
 75
     0
 76
     0
 77
     0
 78
     0
170
     0
171
     2
172
     0
173
     0
174
     0
175
     0
176
     0
177
     0
178
     0
  0
ENDTAB
  0
ENDSEC
  0
SECTION
  2
BLOCKS
  0
BLOCK
  8
0
  2
$MODEL_SPACE
 70
     0
 10
0.0
 20
0.0
 30
0.0
  3
$MODEL_SPACE
  1

  0
ENDBLK
  5
126
  8
0
  0
BLOCK
 67
     1
  8
0
  2
$PAPER_SPACE
 70
     0
 10
0.0
 20
0.0
 30
0.0
  3
$PAPER_SPACE
  1

  0
ENDBLK
  5
124
 67
     1
  8
0
  0
ENDSEC
  0
SECTION
  2
ENTITIES
  0
ARC
  5
ABB0
  8
0
 10
170.0000002682209
 20
174.999999329448
 30
0.0
 40
20.000000000000011
 50
151.64064997184261
 51
208.35935002815799
  0
LINE
  5
ABB1
  8
0
 10
248.66030606673411
 20
59.500000000000142
 30
0.0
 11
253.35682147072939
 21
59.500000000000142
 31
0.0
  0
LINE
  5
ABB2
  8
0
 10
253.35682147072939
 20
80.500000000000142
 30
0.0
 11
248.66030606673411
 21
80.500000000000142
 31
0.0
  0
ARC
  5
ABB3
  8
0
 10
249.61587423312741
 20
61.256954603675482
 30
0.0
 40
2.0000000000000329
 50
185.3044196185345
 51
241.45922326581859
  0
ARC
  5
ABB4
  8
0
 10
249.61587423312741
 20
78.743045396324803
 30
0.0
 40
2.0000000000000329
 50
118.54077673418141
 51
174.6955803814663
  0
LINE
  5
ABB5
  8
0
 10
253.35682147072939
 20
59.500000000000171
 30
0.0
 11
253.7999986588955
 21
60.607708586125071
 31
0.0
  0
LINE
  5
ABB6
  8
0
 10
253.7999986588955
 20
79.392291413875199
 30
0.0
 11
253.35682147072939
 21
80.500000000000114
 31
0.0
  0
LINE
  5
ABB7
  8
0
 10
247.62443909304349
 20
78.927940184891426
 30
0.0
 11
247.06575809162359
 21
76.842914302369564
 31
0.0
  0
LINE
  5
ABB8
  8
0
 10
247.06575809162359
 20
63.15708569763072
 30
0.0
 11
247.62443909304349
 21
61.072059815108858
 31
0.0
  0
ARC
  5
ABB9
  8
0
 10
246.29301743059241
 20
62.950030461548756
 30
0.0
 40
0.8000000000000422
 50
14.999999999999091
 51
89.499999999995424
  0
ARC
  5
ABBA
  8
0
 10
246.29301743059241
 20
77.049969538451521
 30
0.0
 40
0.8000000000000422
 50
270.50000000000779
 51
345.00000000000068
  0
LINE
  5
ABBB
  8
0
 10
235.99999865899119
 20
63.750000000000142
 30
0.0
 11
246.2999986589912
 21
63.750000000000142
 31
0.0
  0
LINE
  5
ABBC
  8
0
 10
246.2999986589912
 20
76.250000000000142
 30
0.0
 11
235.99999865899119
 21
76.250000000000142
 31
0.0
  0
LINE
  5
ABBD
  8
0
 10
199.07478941362359
 20
95.000000000000256
 30
0.0
 11
199.6404978314161
 21
98.571742379702727
 31
0.0
  0
LINE
  5
ABBE
  8
0
 10
187.78823774427451
 20
100.4489559601855
 30
0.0
 11
186.92520790416751
 21
95.000000000000213
 31
0.0
  0
LINE
  5
ABBF
  8
0
 10
199.6404978314161
 20
98.571742379702727
 30
0.0
 11
198.80924395586129
 21
99.715865185338089
 31
0.0
  0
LINE
  5
ABC0
  8
0
 10
188.93236054990979
 20
101.28020983574039
 30
0.0
 11
187.78823774427451
 21
100.4489559601855
 31
0.0
  0
LINE
  5
ABC1
  8
0
 10
174.99999865889549
 20
83.000000000000128
 30
0.0
 11
165.49999865889549
 21
83.000000000000128
 31
0.0
  0
LINE
  5
ABC2
  8
0
 10
165.49999865889549
 20
57.000000000000142
 30
0.0
 11
174.99999865889549
 21
57.000000000000142
 31
0.0
  0
LINE
  5
ABC3
  8
0
 10
165.49999865889549
 20
83.000000000000128
 30
0.0
 11
164.99999865889549
 21
82.500000000000142
 31
0.0
  0
LINE
  5
ABC4
  8
0
 10
164.99999865889549
 20
57.500000000000142
 30
0.0
 11
165.49999865889549
 21
57.000000000000142
 31
0.0
  0
LINE
  5
ABC5
  8
0
 10
235.49999865889549
 20
76.000000000000142
 30
0.0
 11
234.99999865889549
 21
76.000000000000142
 31
0.0
  0
LINE
  5
ABC6
  8
0
 10
234.99999865889549
 20
64.000000000000142
 30
0.0
 11
235.49999865889549
 21
64.000000000000142
 31
0.0
  0
LINE
  5
ABC7
  8
0
 10
235.49999865889549
 20
64.000000000000142
 30
0.0
 11
235.99999865889549
 21
64.500000000000128
 31
0.0
  0
LINE
  5
ABC8
  8
0
 10
235.99999865889549
 20
75.500000000000156
 30
0.0
 11
235.49999865889549
 21
76.000000000000142
 31
0.0
  0
LINE
  5
ABCD
  8
0
 10
157.99999865889549
 20
59.030344885397248
 30
0.0
 11
164.99999865889549
 21
59.030344885397248
 31
0.0
  0
LINE
  5
ABD0
  8
0
 10
157.99999865889549
 20
64.515172442698741
 30
0.0
 11
164.99999865889549
 21
64.515172442698741
 31
0.0
  0
LINE
  5
ABD1
  8
0
 10
157.99999865889549
 20
75.484827557301614
 30
0.0
 11
164.99999865889549
 21
75.484827557301614
 31
0.0
  0
LINE
  5
ABD4
  8
0
 10
157.99999865889549
 20
80.969655114603015
 30
0.0
 11
164.99999865889549
 21
80.969655114603015
 31
0.0
  0
LINE
  5
ABD6
  8
0
 10
158.0000002682209
 20
165.499999329448
 30
0.0
 11
158.0000002682209
 21
184.499999329448
 31
0.0
  0
ARC
  5
ABD7
  8
0
 10
165.72800619212649
 20
170.24999932944789
 30
0.0
 40
13.326513365167999
 50
159.1187468262741
 51
200.88125317372649
  0
LINE
  5
ABD8
  8
0
 10
158.0000002682209
 20
174.999999329448
 30
0.0
 11
153.27676294207299
 21
174.999999329448
 31
0.0
  0
LINE
  5
ABDB
  8
0
 10
158.0000002682209
 20
165.499999329448
 30
0.0
 11
153.27676294207299
 21
165.499999329448
 31
0.0
  0
LINE
  5
ABDC
  8
0
 10
153.27676294207299
 20
184.499999329448
 30
0.0
 11
152.40028436142291
 21
184.499999329448
 31
0.0
  0
ARC
  5
ABDD
  8
0
 10
165.72800619212649
 20
179.74999932944789
 30
0.0
 40
13.326513365168021
 50
159.1187468262741
 51
200.88125317372649
  0
LINE
  5
ABDE
  8
0
 10
152.40028436142291
 20
165.49999932944789
 30
0.0
 11
153.27676294207299
 21
165.499999329448
 31
0.0
  0
LINE
  5
ABDF
  8
0
 10
158.0000002682209
 20
184.499999329448
 30
0.0
 11
153.27676294207299
 21
184.499999329448
 31
0.0
  0
LINE
  5
ABE2
  8
0
 10
253.35682147072939
 20
59.500000000000142
 30
0.0
 11
253.35682147072939
 21
80.500000000000156
 31
0.0
  0
LINE
  5
ABE3
  8
0
 10
248.66030606673411
 20
59.500000000000142
 30
0.0
 11
248.66030606673411
 21
80.500000000000156
 31
0.0
  0
LINE
  5
ABE5
  8
0
 10
253.7999986588955
 20
60.607708586125071
 30
0.0
 11
253.7999986588955
 21
79.392291413875199
 31
0.0
  0
LINE
  5
ABE6
  8
0
 10
235.99999865899119
 20
63.750000000000142
 30
0.0
 11
235.99999865899119
 21
76.250000000000142
 31
0.0
  0
LINE
  5
ABE7
  8
0
 10
199.6404978314161
 20
98.571742379702727
 30
0.0
 11
187.78823774427451
 21
100.4489559601855
 31
0.0
  0
LINE
  5
ABE9
  8
0
 10
198.80924395586129
 20
99.715865185338089
 30
0.0
 11
188.93236054990979
 21
101.28020983574039
 31
0.0
  0
LINE
  5
ABEB
  8
0
 10
165.49999865889549
 20
83.000000000000128
 30
0.0
 11
165.49999865889549
 21
57.000000000000142
 31
0.0
  0
LINE
  5
ABEC
  8
0
 10
164.99999865889549
 20
57.500000000000142
 30
0.0
 11
164.99999865889549
 21
82.500000000000142
 31
0.0
  0
LINE
  5
ABED
  8
0
 10
235.49999865889549
 20
64.000000000000142
 30
0.0
 11
235.49999865889549
 21
76.000000000000142
 31
0.0
  0
LINE
  5
ABEE
  8
0
 10
179.99999865889549
 20
86.000000000000256
 30
0.0
 11
179.99999865889549
 21
50.00000000000027
 31
0.0
  0
LINE
  5
ABEF
  8
0
 10
174.99999865889549
 20
86.000000000000284
 30
0.0
 11
189.49999865889549
 21
86.000000000000256
 31
0.0
  0
LINE
  5
ABF0
  8
0
 10
189.49999865889549
 20
86.000000000000256
 30
0.0
 11
189.49999865889549
 21
95.000000000000256
 31
0.0
  0
LINE
  5
ABF1
  8
0
 10
174.99999865889529
 20
95.000000000000256
 30
0.0
 11
234.99999865889561
 21
95.000000000000242
 31
0.0
  0
LINE
  5
ABF2
  8
0
 10
220.49999865889549
 20
86.000000000000256
 30
0.0
 11
220.49999865889549
 21
95.000000000000256
 31
0.0
  0
LINE
  5
ABF3
  8
0
 10
220.49999865889549
 20
86.000000000000256
 30
0.0
 11
234.99999865889549
 21
86.000000000000284
 31
0.0
  0
LINE
  5
ABF4
  8
0
 10
229.99999865889549
 20
50.00000000000027
 30
0.0
 11
229.99999865889549
 21
86.000000000000256
 31
0.0
  0
LINE
  5
ABF5
  8
0
 10
174.99999865889549
 20
50.000000000000277
 30
0.0
 11
234.99999865889549
 21
50.00000000000027
 31
0.0
  0
LINE
  5
ABF8
  8
0
 10
174.99999865889549
 20
50.000000000000249
 30
0.0
 11
174.99999865889549
 21
95.000000000000213
 31
0.0
  0
LINE
  5
ABFA
  8
0
 10
234.99999865889561
 20
95.000000000000213
 30
0.0
 11
234.99999865889549
 21
50.000000000000249
 31
0.0
  0
LINE
  5
AC05
  8
0
 10
247.06575809162359
 20
63.157085697630777
 30
0.0
 11
247.06575809162359
 21
76.842914302369564
 31
0.0
  0
LINE
  5
AC19
  8
3
 10
198.9339320371945
 20
99.544246764492797
 30
0.0
 11
198.21419405670389
 21
95.000000000000256
 31
0.0
  0
LINE
  5
AC1A
  8
3
 10
188.7607421290646
 20
101.1555217544072
 30
0.0
 11
187.7858032610873
 21
95.000000000000256
 31
0.0
  0
LINE
  5
AC1B
  8
1
 10
144.99999865889549
 20
70.000000000000156
 30
0.0
 11
268.7999986588955
 21
70.000000000000156
 31
0.0
  0
LINE
  5
AC31
  8
0
 10
191.04525467223871
 20
69.400000000000063
 30
0.0
 11
198.9547426455527
 21
69.400000000000006
 31
0.0
  0
ARC
  5
AC32
  8
0
 10
194.99999865889561
 20
70.000000000000057
 30
0.0
 40
4.000000000000024
 50
188.62692655867949
 51
351.37307344132171
  0
LINE
  5
AC33
  8
0
 10
191.04525467223871
 20
70.600000000000065
 30
0.0
 11
198.9547426455527
 21
70.600000000000009
 31
0.0
  0
ARC
  5
AC34
  8
0
 10
194.99999865889561
 20
70.000000000000057
 30
0.0
 40
4.0000000000000266
 50
8.6269265586777273
 51
171.37307344132159
  0
CIRCLE
  5
AC5C
  8
0
 10
194.99999865889561
 20
70.000000000000057
 30
0.0
 40
4.9499999999999877
  0
POLYLINE
  5
AC63
  8
0
 66
     1
 10
0.0
 20
0.0
 30
0.0
 70
   128
  0
VERTEX
  5
B815
  8
0
 10
198.39742415476741
 20
69.400000000000063
 30
0.0
  0
VERTEX
  5
B816
  8
0
 10
198.44999865889559
 20
70.000000000000071
 30
0.0
  0
VERTEX
  5
B817
  8
0
 10
198.39742415476741
 20
70.600000000000065
 30
0.0
  0
SEQEND
  5
B818
  8
0
  0
POLYLINE
  5
AC64
  8
0
 66
     1
 10
0.0
 20
0.0
 30
0.0
 70
   128
  0
VERTEX
  5
B819
  8
0
 10
191.602573163024
 20
70.600000000000065
 30
0.0
  0
VERTEX
  5
B81A
  8
0
 10
191.54999865889579
 20
70.000000000000014
 30
0.0
  0
VERTEX
  5
B81B
  8
0
 10
191.602573163024
 20
69.400000000000063
 30
0.0
  0
SEQEND
  5
B81C
  8
0
  0
LINE
  5
AC6F
  8
0
 10
85.999999381601569
 20
95.0000017881395
 30
0.0
 11
85.999999381601569
 21
99.510348588228354
 31
0.0
  0
LINE
  5
AC70
  8
0
 10
73.999999277293455
 20
99.510348588228325
 30
0.0
 11
73.999999277293455
 21
95.000001788139457
 31
0.0
  0
LINE
  5
AC71
  8
0
 10
85.924264229833838
 20
99.659010022878775
 30
0.0
 11
84.936886746436116
 21
100.6219230592252
 31
0.0
  0
LINE
  5
AC72
  8
0
 10
75.063111912458908
 20
100.6219230592252
 30
0.0
 11
74.075734429061185
 21
99.659010022878746
 31
0.0
  0
LINE
  5
AC73
  8
0
 10
79.999999041869785
 20
80.969655155046453
 30
0.0
 11
70.499999438211717
 21
75.484827826573067
 31
0.0
  0
LINE
  5
AC76
  8
0
 10
79.999999598399256
 20
59.03034487721591
 30
0.0
 11
89.499999202057325
 21
64.515172205689296
 31
0.0
  0
POLYLINE
  5
AC85
  8
0
 66
     1
 10
0.0
 20
0.0
 30
0.0
 70
   128
  0
VERTEX
  5
B81D
  8
0
 10
85.999999381601569
 20
99.510348588228354
 30
0.0
  0
VERTEX
  5
B81E
  8
0
 10
85.965425893664118
 20
99.610964953899526
 30
0.0
  0
VERTEX
  5
B81F
  8
0
 10
85.802935250103246
 20
99.748927354812764
 30
0.0
  0
VERTEX
  5
B820
  8
0
 10
85.510816611349355
 20
99.881558865308904
 30
0.0
  0
VERTEX
  5
B821
  8
0
 10
85.095595289021489
 20
100.00590160489089
 30
0.0
  0
VERTEX
  5
B822
  8
0
 10
84.566546790301558
 20
100.119172781706
 30
0.0
  0
VERTEX
  5
B823
  8
0
 10
83.935489133000146
 20
100.2188429236413
 30
0.0
  0
VERTEX
  5
B824
  8
0
 10
83.216519514098536
 20
100.3026880323888
 30
0.0
  0
VERTEX
  5
B825
  8
0
 10
82.425697892904054
 20
100.36883056163801
 30
0.0
  0
VERTEX
  5
B826
  8
0
 10
81.580690178088616
 20
100.415799021721
 30
0.0
  0
VERTEX
  5
B827
  8
0
 10
80.700372415594515
 20
100.4425391554834
 30
0.0
  0
VERTEX
  5
B828
  8
0
 10
79.804409481584798
 20
100.4484586417676
 30
0.0
  0
VERTEX
  5
B829
  8
0
 10
78.912815731018554
 20
100.4334196448327
 30
0.0
  0
VERTEX
  5
B82A
  8
0
 10
78.045507846399914
 20
100.3977611660958
 30
0.0
  0
VERTEX
  5
B82B
  8
0
 10
77.221860131248604
 20
100.3422804176808
 30
0.0
  0
VERTEX
  5
B82C
  8
0
 10
76.46027132868744
 20
100.26821419596681
 30
0.0
  0
VERTEX
  5
B82D
  8
0
 10
75.777754373848211
 20
100.1772202551366
 30
0.0
  0
VERTEX
  5
B82E
  8
0
 10
75.189555250108015
 20
100.0713288784028
 30
0.0
  0
VERTEX
  5
B82F
  8
0
 10
74.708813522010814
 20
99.952905625105004
 30
0.0
  0
VERTEX
  5
B830
  8
0
 10
74.346268270164501
 20
99.82459545135508
 30
0.0
  0
VERTEX
  5
B831
  8
0
 10
74.110017810016643
 20
99.689266830682854
 30
0.0
  0
VERTEX
  5
B832
  8
0
 10
74.005339946597587
 20
99.549940973520378
 30
0.0
  0
VERTEX
  5
B833
  8
0
 10
73.999999277293455
 20
99.510348588228325
 30
0.0
  0
SEQEND
  5
B834
  8
0
  0
POLYLINE
  5
AC86
  8
0
 66
     1
 10
0.0
 20
0.0
 30
0.0
 70
   128
  0
VERTEX
  5
B835
  8
0
 10
84.936886746436116
 20
100.6219230592252
 30
0.0
  0
VERTEX
  5
B836
  8
0
 10
84.845635760575306
 20
100.69088935852059
 30
0.0
  0
VERTEX
  5
B837
  8
0
 10
84.576634876429793
 20
100.81302672624599
 30
0.0
  0
VERTEX
  5
B838
  8
0
 10
84.182795323431264
 20
100.9265698492528
 30
0.0
  0
VERTEX
  5
B839
  8
0
 10
83.674859674647209
 20
101.0284267365934
 30
0.0
  0
VERTEX
  5
B83A
  8
0
 10
83.066683448850867
 20
101.11581459641469
 30
0.0
  0
VERTEX
  5
B83B
  8
0
 10
82.374856295063864
 20
101.1863492429257
 30
0.0
  0
VERTEX
  5
B83C
  8
0
 10
81.618249136954304
 20
101.2381121516229
 30
0.0
  0
VERTEX
  5
B83D
  8
0
 10
80.817500315606367
 20
101.26968398690229
 30
0.0
  0
VERTEX
  5
B83E
  8
0
 10
79.994452227128704
 20
101.28020793199551
 30
0.0
  0
VERTEX
  5
B83F
  8
0
 10
79.171555419452261
 20
101.2693971395494
 30
0.0
  0
VERTEX
  5
B840
  8
0
 10
78.371256426907848
 20
101.23754590749751
 30
0.0
  0
VERTEX
  5
B841
  8
0
 10
77.615385362878214
 20
101.1855259537698
 30
0.0
  0
VERTEX
  5
B842
  8
0
 10
76.924560312181484
 20
101.11474916338931
 30
0.0
  0
VERTEX
  5
B843
  8
0
 10
76.317625073715817
 20
101.027148962021
 30
0.0
  0
VERTEX
  5
B844
  8
0
 10
75.811135768890153
 20
100.9251169860364
 30
0.0
  0
VERTEX
  5
B845
  8
0
 10
75.418907403945695
 20
100.81143602728849
 30
0.0
  0
VERTEX
  5
B846
  8
0
 10
75.151639245450269
 20
100.689209252596
 30
0.0
  0
VERTEX
  5
B847
  8
0
 10
75.063111912458908
 20
100.6219230592252
 30
0.0
  0
SEQEND
  5
B848
  8
0
  0
CIRCLE
  5
AC87
  8
0
 10
79.999999329447746
 20
70.000000000000114
 30
0.0
 40
12.499999999999989
  0
CIRCLE
  5
AC88
  8
0
 10
79.999999329447746
 20
70.000000000000114
 30
0.0
 40
12.999999999999989
  0
LINE
  5
AC89
  8
0
 10
54.999998956918603
 20
85.999998450279278
 30
0.0
 11
54.999998956918709
 21
50.000000000000043
 31
0.0
  0
LINE
  5
AC8A
  8
0
 10
50.0
 20
50.000000000000043
 30
0.0
 11
49.999999999999893
 21
95.000001788139386
 31
0.0
  0
LINE
  5
AC8D
  8
0
 10
64.499999582767373
 20
85.999998450279307
 30
0.0
 11
64.499999582767316
 21
95.000001788139414
 31
0.0
  0
LINE
  5
AC8E
  8
0
 10
95.499999076127892
 20
85.999998450279435
 30
0.0
 11
95.499999076127835
 21
95.000001788139528
 31
0.0
  0
LINE
  5
AC8F
  8
0
 10
95.499999076127892
 20
85.999998450279435
 30
0.0
 11
109.99999865889529
 21
85.999998450279477
 31
0.0
  0
LINE
  5
AC90
  8
0
 10
104.99999970197671
 20
50.000000000000242
 30
0.0
 11
104.99999970197661
 21
85.999998450279463
 31
0.0
  0
LINE
  5
AC91
  8
0
 10
49.999999999999893
 20
95.000001788139372
 30
0.0
 11
109.99999865889519
 21
95.000001788139571
 31
0.0
  0
LINE
  5
AC92
  8
0
 10
49.999999999999943
 20
85.999998450279278
 30
0.0
 11
64.499999582767373
 21
85.999998450279307
 31
0.0
  0
LINE
  5
AC93
  8
0
 10
49.999999999999893
 20
50.0
 30
0.0
 11
109.99999865889539
 21
50.000000000000249
 31
0.0
  0
LINE
  5
AC94
  8
0
 10
109.99999865889519
 20
95.000001788139571
 30
0.0
 11
109.99999865889551
 21
50.000000000000249
 31
0.0
  0
ARC
  5
ACA4
  8
0
 10
169.99999865889549
 20
70.000000000000156
 30
0.0
 40
20.0
 50
146.73701418308659
 51
213.26298581691421
  0
LINE
  5
ACA5
  8
0
 10
253.35682228207591
 20
164.499999471009
 30
0.0
 11
253.79999771714211
 21
165.6077080219986
 31
0.0
  0
LINE
  5
ACA6
  8
0
 10
253.79999771714211
 20
184.39229063689729
 30
0.0
 11
253.35682228207591
 21
185.49999918788691
 31
0.0
  0
ARC
  5
ACA7
  8
0
 10
249.61587423312741
 20
166.2569539331233
 30
0.0
 40
2.0000000000000329
 50
185.3044196185345
 51
241.45922326581859
  0
ARC
  5
ACA8
  8
0
 10
249.61587423312741
 20
183.74304472577271
 30
0.0
 40
2.0000000000000311
 50
118.5407767341844
 51
174.6955803814671
  0
LINE
  5
ACA9
  8
0
 10
248.66030782461169
 20
164.499999471009
 30
0.0
 11
253.35682228207591
 21
164.499999471009
 31
0.0
  0
LINE
  5
ACAA
  8
0
 10
253.35682228207591
 20
185.49999918788691
 30
0.0
 11
248.66030782461169
 21
185.49999918788691
 31
0.0
  0
LINE
  5
ACAB
  8
0
 10
247.62443870306021
 20
183.92793972045209
 30
0.0
 11
247.06575691699979
 21
181.84291383251571
 31
0.0
  0
LINE
  5
ACAC
  8
0
 10
247.06575691699979
 20
168.15708482638021
 30
0.0
 11
247.62443870306021
 21
166.07205893844389
 31
0.0
  0
ARC
  5
ACAD
  8
0
 10
246.29301743059241
 20
167.95002979099641
 30
0.0
 40
0.800000000000028
 50
14.99999999999825
 51
89.499999999995424
  0
ARC
  5
ACAE
  8
0
 10
246.29301743059241
 20
182.04996886789911
 30
0.0
 40
0.8000000000000564
 50
270.50000000000779
 51
345.00000000000068
  0
LINE
  5
ACAF
  8
0
 10
235.99999815225601
 20
168.74999923631569
 30
0.0
 11
246.29999741911891
 21
168.74999923631569
 31
0.0
  0
LINE
  5
ACB0
  8
0
 10
246.29999741911891
 20
181.2499994225802
 30
0.0
 11
235.99999815225601
 21
181.2499994225802
 31
0.0
  0
LINE
  5
ACB3
  8
0
 10
174.99999932944769
 20
187.9999995976689
 30
0.0
 11
165.4999968409538
 21
187.9999995976689
 31
0.0
  0
LINE
  5
ACB4
  8
0
 10
165.4999968409538
 20
161.9999990612271
 30
0.0
 11
174.99999932944769
 21
161.9999990612271
 31
0.0
  0
LINE
  5
ACB5
  8
0
 10
165.4999968409538
 20
187.9999995976689
 30
0.0
 11
164.99999955296511
 21
187.49999951571249
 31
0.0
  0
LINE
  5
ACB6
  8
0
 10
164.99999955296511
 20
162.49999914318349
 30
0.0
 11
165.4999968409538
 21
161.9999990612271
 31
0.0
  0
LINE
  5
ACB7
  8
0
 10
235.4999990016222
 20
168.99999927729391
 30
0.0
 11
235.99999815225601
 21
169.4999993592503
 31
0.0
  0
LINE
  5
ACB8
  8
0
 10
235.99999815225601
 20
180.49999929964571
 30
0.0
 11
235.4999990016222
 21
180.99999938160201
 31
0.0
  0
LINE
  5
ACB9
  8
0
 10
235.4999990016222
 20
180.99999938160201
 30
0.0
 11
234.9999979883433
 21
180.99999938160201
 31
0.0
  0
LINE
  5
ACBA
  8
0
 10
234.9999979883433
 20
168.99999927729391
 30
0.0
 11
235.4999990016222
 21
168.99999927729391
 31
0.0
  0
ARC
  5
ACBB
  8
0
 10
157.1840258036064
 20
61.772759007290162
 30
0.0
 40
4.7736311386417301
 50
144.9359243910377
 51
215.0640756089627
  0
LINE
  5
ACBC
  8
0
 10
158.0000002682209
 20
64.515172671526827
 30
0.0
 11
153.27676057815549
 21
64.515172671526827
 31
0.0
  0
LINE
  5
ACBF
  8
0
 10
158.0000002682209
 20
59.030345343053497
 30
0.0
 11
153.27676057815549
 21
59.030345343053497
 31
0.0
  0
ARC
  5
ACC0
  8
0
 10
169.99999865889549
 20
70.000000000000156
 30
0.0
 40
17.599715906798039
 50
161.8417291956174
 51
198.15827080438339
  0
ARC
  5
ACC1
  8
0
 10
157.1840258036064
 20
78.227240992710179
 30
0.0
 40
4.7736311386417469
 50
144.9359243910377
 51
215.06407560896301
  0
LINE
  5
ACC2
  8
0
 10
158.0000002682209
 20
75.484827328473486
 30
0.0
 11
153.27676057815549
 21
75.484827328473486
 31
0.0
  0
LINE
  5
ACC5
  8
0
 10
158.0000002682209
 20
80.969654656946815
 30
0.0
 11
153.27676057815549
 21
80.969654656946815
 31
0.0
  0
LINE
  5
ACC6
  8
0
 10
158.0000002682209
 20
80.969654656946815
 30
0.0
 11
158.00000026822099
 21
59.030345343053497
 31
0.0
  0
LINE
  5
ACC8
  8
0
 10
158.0000002682209
 20
174.999999329448
 30
0.0
 11
164.99999955296511
 21
174.999999329448
 31
0.0
  0
LINE
  5
ACCB
  8
0
 10
158.0000002682209
 20
184.4999990239742
 30
0.0
 11
164.99999955296511
 21
184.4999990239742
 31
0.0
  0
LINE
  5
ACCC
  8
0
 10
158.0000002682209
 20
165.49999963492181
 30
0.0
 11
164.99999955296511
 21
165.49999963492181
 31
0.0
  0
LINE
  5
ACCF
  8
0
 10
253.79999771714211
 20
165.6077080219986
 30
0.0
 11
253.79999771714211
 21
184.39229063689729
 31
0.0
  0
LINE
  5
ACD0
  8
0
 10
253.35682228207591
 20
164.499999471009
 30
0.0
 11
253.35682228207591
 21
185.49999918788691
 31
0.0
  0
LINE
  5
ACD2
  8
0
 10
248.66030782461169
 20
164.499999471009
 30
0.0
 11
248.66030782461169
 21
185.49999918788691
 31
0.0
  0
LINE
  5
ACD3
  8
0
 10
235.99999815225601
 20
168.74999923631569
 30
0.0
 11
235.99999815225601
 21
181.2499994225802
 31
0.0
  0
POLYLINE
  5
ACD4
  8
0
 66
     1
 10
0.0
 20
0.0
 30
0.0
 70
   128
  0
VERTEX
  5
B849
  8
0
 10
199.3172657489776
 20
173.0455078464004
 30
0.0
  0
VERTEX
  5
B84A
  8
0
 10
198.96697018295521
 20
172.22186013124909
 30
0.0
  0
VERTEX
  5
B84B
  8
0
 10
198.49934054538599
 20
171.4602713286879
 30
0.0
  0
VERTEX
  5
B84C
  8
0
 10
197.9248225502669
 20
170.77775437384869
 30
0.0
  0
VERTEX
  5
B84D
  8
0
 10
197.25625028833741
 20
170.1895552501085
 30
0.0
  0
VERTEX
  5
B84E
  8
0
 10
196.50855798274279
 20
169.7088135220113
 30
0.0
  0
VERTEX
  5
B84F
  8
0
 10
195.69844797253609
 20
169.34626827016501
 30
0.0
  0
VERTEX
  5
B850
  8
0
 10
194.84401632100341
 20
169.1100178100171
 30
0.0
  0
VERTEX
  5
B851
  8
0
 10
193.9643514156341
 20
169.00533994659801
 30
0.0
  0
VERTEX
  5
B852
  8
0
 10
193.0791013687849
 20
169.03457276523139
 30
0.0
  0
VERTEX
  5
B853
  8
0
 10
192.20804188400501
 20
169.1970634087923
 30
0.0
  0
VERTEX
  5
B854
  8
0
 10
191.37063201516861
 20
169.48918204754611
 30
0.0
  0
VERTEX
  5
B855
  8
0
 10
190.58557737618679
 20
169.90440336987399
 30
0.0
  0
VERTEX
  5
B856
  8
0
 10
189.87041383981699
 20
170.43345186859389
 30
0.0
  0
VERTEX
  5
B857
  8
0
 10
189.24111917614931
 20
171.0645095258954
 30
0.0
  0
VERTEX
  5
B858
  8
0
 10
188.7117479741573
 20
171.78347914479701
 30
0.0
  0
VERTEX
  5
B859
  8
0
 10
188.2941280305385
 20
172.57430076599141
 30
0.0
  0
VERTEX
  5
B85A
  8
0
 10
187.99758747220039
 20
173.4193084808069
 30
0.0
  0
VERTEX
  5
B85B
  8
0
 10
187.8287498652935
 20
174.29962624330099
 30
0.0
  0
VERTEX
  5
B85C
  8
0
 10
187.79138706624499
 20
175.19558917731069
 30
0.0
  0
VERTEX
  5
B85D
  8
0
 10
187.88633354008189
 20
176.08718292787691
 30
0.0
  0
VERTEX
  5
B85E
  8
0
 10
188.11146959662429
 20
176.95449081249561
 30
0.0
  0
VERTEX
  5
B85F
  8
0
 10
188.46176609396929
 20
177.77813852764689
 30
0.0
  0
VERTEX
  5
B860
  8
0
 10
188.92939433455459
 20
178.53972733020811
 30
0.0
  0
VERTEX
  5
B861
  8
0
 10
189.50391326099631
 20
179.22224428504731
 30
0.0
  0
VERTEX
  5
B862
  8
0
 10
190.1724855229258
 20
179.81044340878751
 30
0.0
  0
VERTEX
  5
B863
  8
0
 10
190.9201782941818
 20
180.29118513688471
 30
0.0
  0
VERTEX
  5
B864
  8
0
 10
191.73028830438849
 20
180.65373038873099
 30
0.0
  0
VERTEX
  5
B865
  8
0
 10
192.5847190245986
 20
180.88998084887891
 30
0.0
  0
VERTEX
  5
B866
  8
0
 10
193.4643848612904
 20
180.99465871229791
 30
0.0
  0
VERTEX
  5
B867
  8
0
 10
194.3496339768171
 20
180.96542589366459
 30
0.0
  0
VERTEX
  5
B868
  8
0
 10
195.22069346159691
 20
180.8029352501037
 30
0.0
  0
VERTEX
  5
B869
  8
0
 10
196.05810333043331
 20
180.51081661134981
 30
0.0
  0
VERTEX
  5
B86A
  8
0
 10
196.84315796941519
 20
180.09559528902199
 30
0.0
  0
VERTEX
  5
B86B
  8
0
 10
197.55832150578499
 20
179.566546790302
 30
0.0
  0
VERTEX
  5
B86C
  8
0
 10
198.1876166351139
 20
178.9354891330006
 30
0.0
  0
VERTEX
  5
B86D
  8
0
 10
198.71698690578339
 20
178.21651951409899
 30
0.0
  0
VERTEX
  5
B86E
  8
0
 10
199.13460731506339
 20
177.42569789290451
 30
0.0
  0
VERTEX
  5
B86F
  8
0
 10
199.4311483390629
 20
176.5806901780891
 30
0.0
  0
VERTEX
  5
B870
  8
0
 10
199.59998594596979
 20
175.70037241559501
 30
0.0
  0
VERTEX
  5
B871
  8
0
 10
199.6373482793569
 20
174.80440948158531
 30
0.0
  0
VERTEX
  5
B872
  8
0
 10
199.54240133985871
 20
173.91281573101901
 30
0.0
  0
VERTEX
  5
B873
  8
0
 10
199.3172657489776
 20
173.0455078464004
 30
0.0
  0
SEQEND
  5
B874
  8
0
  0
CIRCLE
  5
ACD5
  8
0
 10
193.8249420570522
 20
174.98145661205339
 30
0.0
 40
4.982310746994294
  0
LINE
  5
ACD6
  8
0
 10
190.51208671182391
 20
174.33966647833611
 30
0.0
 11
191.62661999464029
 21
177.6148236636075
 31
0.0
  0
LINE
  5
ACD7
  8
0
 10
190.51208671182391
 20
174.33966647833611
 30
0.0
 11
192.75626864284271
 21
171.72484214417659
 31
0.0
  0
LINE
  5
ACD8
  8
0
 10
196.11498478800061
 20
172.38517499528851
 30
0.0
 11
192.75626864284271
 21
171.72484214417659
 31
0.0
  0
LINE
  5
ACD9
  8
0
 10
196.11498478800061
 20
172.38517499528851
 30
0.0
 11
197.22951760515571
 21
175.66033218055989
 31
0.0
  0
LINE
  5
ACDA
  8
0
 10
197.22951760515571
 20
175.66033218055989
 30
0.0
 11
194.98533520847559
 21
178.27515651471941
 31
0.0
  0
LINE
  5
ACDB
  8
0
 10
191.62661999464029
 20
177.6148236636075
 30
0.0
 11
194.98533520847559
 21
178.27515651471941
 31
0.0
  0
LINE
  5
ACE1
  8
0
 10
165.4999968409538
 20
187.9999995976689
 30
0.0
 11
165.4999968409538
 21
161.9999990612271
 31
0.0
  0
LINE
  5
ACE2
  8
0
 10
164.99999955296511
 20
162.49999914318349
 30
0.0
 11
164.99999955296511
 21
187.49999951571249
 31
0.0
  0
LINE
  5
ACE3
  8
0
 10
235.4999990016222
 20
168.99999927729391
 30
0.0
 11
235.4999990016222
 21
180.99999938160201
 31
0.0
  0
LINE
  5
ACE4
  8
0
 10
189.4999989122152
 20
145.0000000000002
 30
0.0
 11
189.4999989122152
 21
152.4999984353783
 31
0.0
  0
ARC
  5
ACE5
  8
0
 10
182.49999865889549
 20
152.499999329448
 30
0.0
 40
7.0
 50
0.0
 51
90.0
  0
LINE
  5
ACE6
  8
0
 10
182.49999776482579
 20
159.49999958276771
 30
0.0
 11
174.99999932944769
 21
159.49999958276771
 31
0.0
  0
LINE
  5
ACE7
  8
0
 10
174.99999932944769
 20
199.999999701977
 30
0.0
 11
174.9999993294476
 21
149.99999895691889
 31
0.0
  0
ARC
  5
ACE8
  8
0
 10
182.49999865889549
 20
197.49999932944789
 30
0.0
 40
7.0
 50
270.0
 51
0.0
  0
LINE
  5
ACE9
  8
0
 10
189.4999989122152
 20
197.5000002235177
 30
0.0
 11
189.4999989122152
 21
204.99999865889569
 31
0.0
  0
LINE
  5
ACEA
  8
0
 10
229.99999903142441
 20
204.99999865889569
 30
0.0
 11
179.99999828636641
 21
204.99999865889569
 31
0.0
  0
LINE
  5
ACEB
  8
0
 10
220.49999840557581
 20
204.99999865889569
 30
0.0
 11
220.49999840557581
 21
197.5000002235177
 31
0.0
  0
ARC
  5
ACEC
  8
0
 10
227.49999865889549
 20
197.49999932944789
 30
0.0
 40
7.0000000000000284
 50
180.0
 51
270.0
  0
LINE
  5
ACED
  8
0
 10
227.49999955296519
 20
190.4999990761282
 30
0.0
 11
234.9999979883433
 21
190.4999990761282
 31
0.0
  0
LINE
  5
ACEE
  8
0
 10
234.9999979883431
 20
149.9999989569188
 30
0.0
 11
234.9999979883433
 21
199.99999970197689
 31
0.0
  0
LINE
  5
ACEF
  8
0
 10
234.9999979883433
 20
159.49999958276771
 30
0.0
 11
227.49999955296519
 21
159.49999958276771
 31
0.0
  0
ARC
  5
ACF0
  8
0
 10
227.49999865889549
 20
152.499999329448
 30
0.0
 40
7.0000000000000284
 50
90.0
 51
180.0
  0
LINE
  5
ACF1
  8
0
 10
179.99999828636629
 20
145.00000000000031
 30
0.0
 11
229.99999903142449
 21
145.0000000000002
 31
0.0
  0
LINE
  5
ACF2
  8
0
 10
220.49999840557581
 20
152.4999984353783
 30
0.0
 11
220.49999840557581
 21
145.0000000000002
 31
0.0
  0
LINE
  5
ACF3
  8
0
 10
174.99999932944769
 20
190.4999990761282
 30
0.0
 11
182.49999776482579
 21
190.4999990761282
 31
0.0
  0
CIRCLE
  5
ACF4
  8
0
 10
182.49999865889549
 20
197.49999932944789
 30
0.0
 40
4.4999999999999707
  0
LINE
  5
ACF5
  8
0
 10
179.99999828636641
 20
204.99999865889569
 30
0.0
 11
174.99999932944769
 21
199.999999701977
 31
0.0
  0
CIRCLE
  5
ACF8
  8
0
 10
227.49999865889549
 20
197.49999932944789
 30
0.0
 40
4.5
  0
LINE
  5
ACF9
  8
0
 10
234.9999979883433
 20
199.999999701977
 30
0.0
 11
229.99999903142449
 21
204.99999865889569
 31
0.0
  0
CIRCLE
  5
ACFC
  8
0
 10
182.49999865889549
 20
152.499999329448
 30
0.0
 40
4.5
  0
LINE
  5
ACFD
  8
0
 10
174.99999932944769
 20
149.999998956919
 30
0.0
 11
179.99999828636641
 21
145.0000000000002
 31
0.0
  0
CIRCLE
  5
AD00
  8
0
 10
227.49999865889549
 20
152.499999329448
 30
0.0
 40
4.5
  0
LINE
  5
AD01
  8
0
 10
229.99999903142449
 20
145.0000000000002
 30
0.0
 11
234.9999979883433
 21
149.999998956919
 31
0.0
  0
LINE
  5
AD04
  8
0
 10
247.06575691699979
 20
168.15708482638021
 30
0.0
 11
247.06575691699979
 21
181.84291383251571
 31
0.0
  0
CIRCLE
  5
AD72
  8
3
 10
193.89123306368671
 20
174.99338273194681
 30
0.0
 40
5.1304943381090684
  0
LINE
  5
ADD2
  8
0
 10
329.72426378516002
 20
99.659009881101255
 30
0.0
 11
328.73688626411609
 21
100.6219214365035
 31
0.0
  0
LINE
  5
ADD3
  8
0
 10
318.86311105367548
 20
100.6219214365035
 30
0.0
 11
317.87573353263139
 21
99.659009881101298
 31
0.0
  0
LINE
  5
ADD4
  8
0
 10
329.79999865889567
 20
95.000000000000099
 30
0.0
 11
329.79999865889567
 21
99.510349169944064
 31
0.0
  0
LINE
  5
ADD5
  8
0
 10
317.79999865889567
 20
99.510349169944107
 30
0.0
 11
317.79999865889567
 21
95.000000000000114
 31
0.0
  0
CIRCLE
  5
ADD6
  8
0
 10
323.79999865889539
 20
70.000000000000099
 30
0.0
 40
9.3922914138750571
  0
CIRCLE
  5
ADD7
  8
0
 10
323.79999865889539
 20
70.000000000000099
 30
0.0
 40
10.49999999999998
  0
CIRCLE
  5
ADD8
  8
0
 10
323.79999865889539
 20
70.000000000000099
 30
0.0
 40
8.1277240151141381
  0
POLYLINE
  5
ADD9
  8
0
 66
     1
 10
0.0
 20
0.0
 30
0.0
 70
   128
  0
VERTEX
  5
B875
  8
0
 10
321.84550718873919
 20
98.622937343544137
 30
0.0
  0
VERTEX
  5
B876
  8
0
 10
321.02185942896068
 20
98.678418647625548
 30
0.0
  0
VERTEX
  5
B877
  8
0
 10
320.2602707088422
 20
98.752483904851729
 30
0.0
  0
VERTEX
  5
B878
  8
0
 10
319.57775366190322
 20
98.843478619765435
 30
0.0
  0
VERTEX
  5
B879
  8
0
 10
318.98955459114751
 20
98.949370120799713
 30
0.0
  0
VERTEX
  5
B87A
  8
0
 10
318.50881289184548
 20
99.067792966801903
 30
0.0
  0
VERTEX
  5
B87B
  8
0
 10
318.14626753915832
 20
99.196101787080195
 30
0.0
  0
VERTEX
  5
B87C
  8
0
 10
317.91001719717661
 20
99.331430374613475
 30
0.0
  0
VERTEX
  5
B87D
  8
0
 10
317.80533930814818
 20
99.47075571238004
 30
0.0
  0
VERTEX
  5
B87E
  8
0
 10
317.83457220313932
 20
99.610965502562365
 30
0.0
  0
VERTEX
  5
B87F
  8
0
 10
317.87573353263139
 20
99.659009881101298
 30
0.0
  0
SEQEND
  5
B880
  8
0
  0
POLYLINE
  5
ADDA
  8
0
 66
     1
 10
0.0
 20
0.0
 30
0.0
 70
   128
  0
VERTEX
  5
B881
  8
0
 10
329.72426378516002
 20
99.659009881101255
 30
0.0
  0
VERTEX
  5
B882
  8
0
 10
329.79465800964317
 20
99.549942627508116
 30
0.0
  0
VERTEX
  5
B883
  8
0
 10
329.76542511465232
 20
99.409732837325805
 30
0.0
  0
VERTEX
  5
B884
  8
0
 10
329.60293445021011
 20
99.271770649750692
 30
0.0
  0
VERTEX
  5
B885
  8
0
 10
329.31081578925279
 20
99.139137912077544
 30
0.0
  0
VERTEX
  5
B886
  8
0
 10
328.89559457995449
 20
99.014797420497004
 30
0.0
  0
VERTEX
  5
B887
  8
0
 10
328.36654617799849
 20
98.901526736124495
 30
0.0
  0
VERTEX
  5
B888
  8
0
 10
327.73548865045842
 20
98.801856138874754
 30
0.0
  0
VERTEX
  5
B889
  8
0
 10
327.01651877970812
 20
98.718012105189587
 30
0.0
  0
VERTEX
  5
B88A
  8
0
 10
326.22569716459861
 20
98.651867572233442
 30
0.0
  0
VERTEX
  5
B88B
  8
0
 10
325.38068945321771
 20
98.604900099572035
 30
0.0
  0
VERTEX
  5
B88C
  8
0
 10
324.50037172150451
 20
98.578158862933179
 30
0.0
  0
VERTEX
  5
B88D
  8
0
 10
323.60440881290418
 20
98.572241217354843
 30
0.0
  0
VERTEX
  5
B88E
  8
0
 10
322.71281505826113
 20
98.587279353260612
 30
0.0
  0
VERTEX
  5
B88F
  8
0
 10
321.84550718873919
 20
98.622937343544137
 30
0.0
  0
SEQEND
  5
B890
  8
0
  0
POLYLINE
  5
ADDB
  8
0
 66
     1
 10
0.0
 20
0.0
 30
0.0
 70
   128
  0
VERTEX
  5
B891
  8
0
 10
322.17125576709873
 20
99.758527655205938
 30
0.0
  0
VERTEX
  5
B892
  8
0
 10
321.4153846274528
 20
99.810550912083187
 30
0.0
  0
VERTEX
  5
B893
  8
0
 10
320.72455954235988
 20
99.881327011222481
 30
0.0
  0
VERTEX
  5
B894
  8
0
 10
320.1176244192946
 20
99.968925365138887
 30
0.0
  0
VERTEX
  5
B895
  8
0
 10
319.61113486625231
 20
100.07095651908929
 30
0.0
  0
VERTEX
  5
B896
  8
0
 10
319.21890659792052
 20
100.1846373291695
 30
0.0
  0
VERTEX
  5
B897
  8
0
 10
318.95163857899638
 20
100.3068668792242
 30
0.0
  0
VERTEX
  5
B898
  8
0
 10
318.81662118432041
 20
100.4343110657565
 30
0.0
  0
VERTEX
  5
B899
  8
0
 10
318.81753733645542
 20
100.56349354357999
 30
0.0
  0
VERTEX
  5
B89A
  8
0
 10
318.9543620451592
 20
100.69089055145329
 30
0.0
  0
VERTEX
  5
B89B
  8
0
 10
319.22336308905392
 20
100.8130270311008
 30
0.0
  0
VERTEX
  5
B89C
  8
0
 10
319.61720282089527
 20
100.9265714177438
 30
0.0
  0
VERTEX
  5
B89D
  8
0
 10
320.12513831946239
 20
101.0284265165028
 30
0.0
  0
VERTEX
  5
B89E
  8
0
 10
320.73331442844329
 20
101.1158139858
 30
0.0
  0
VERTEX
  5
B89F
  8
0
 10
321.42514168898168
 20
101.1863501232752
 30
0.0
  0
VERTEX
  5
B8A0
  8
0
 10
322.18174885686938
 20
101.238110886972
 30
0.0
  0
VERTEX
  5
B8A1
  8
0
 10
322.98249766089401
 20
101.26968437818709
 30
0.0
  0
VERTEX
  5
B8A2
  8
0
 10
323.80554576107778
 20
101.280209354386
 30
0.0
  0
VERTEX
  5
B8A3
  8
0
 10
324.62844255077448
 20
101.2693987216545
 30
0.0
  0
VERTEX
  5
B8A4
  8
0
 10
325.42874155069291
 20
101.2375473658725
 30
0.0
  0
VERTEX
  5
B8A5
  8
0
 10
326.18461269033872
 20
101.1855241089952
 30
0.0
  0
VERTEX
  5
B8A6
  8
0
 10
326.87543777543169
 20
101.1147480098559
 30
0.0
  0
VERTEX
  5
B8A7
  8
0
 10
327.48237289849692
 20
101.0271496559395
 30
0.0
  0
VERTEX
  5
B8A8
  8
0
 10
327.98886245153898
 20
100.9251185019891
 30
0.0
  0
VERTEX
  5
B8A9
  8
0
 10
328.38109071987088
 20
100.81143769190891
 30
0.0
  0
VERTEX
  5
B8AA
  8
0
 10
328.64835873879508
 20
100.68920814185419
 30
0.0
  0
VERTEX
  5
B8AB
  8
0
 10
328.78337613347088
 20
100.56176395532189
 30
0.0
  0
VERTEX
  5
B8AC
  8
0
 10
328.78245998133599
 20
100.4325814774984
 30
0.0
  0
VERTEX
  5
B8AD
  8
0
 10
328.64563527263232
 20
100.3051844696251
 30
0.0
  0
VERTEX
  5
B8AE
  8
0
 10
328.37663422873771
 20
100.1830479899776
 30
0.0
  0
VERTEX
  5
B8AF
  8
0
 10
327.98279449689619
 20
100.0695036033346
 30
0.0
  0
VERTEX
  5
B8B0
  8
0
 10
327.47485899832913
 20
99.967648504575635
 30
0.0
  0
VERTEX
  5
B8B1
  8
0
 10
326.86668288934811
 20
99.880261035278394
 30
0.0
  0
VERTEX
  5
B8B2
  8
0
 10
326.17485562880972
 20
99.809724897803179
 30
0.0
  0
VERTEX
  5
B8B3
  8
0
 10
325.41824846092209
 20
99.757964134106359
 30
0.0
  0
VERTEX
  5
B8B4
  8
0
 10
324.61749965689751
 20
99.726390642891289
 30
0.0
  0
VERTEX
  5
B8B5
  8
0
 10
323.79445155671351
 20
99.715865666692423
 30
0.0
  0
VERTEX
  5
B8B6
  8
0
 10
322.97155476701693
 20
99.726676299423843
 30
0.0
  0
VERTEX
  5
B8B7
  8
0
 10
322.17125576709873
 20
99.758527655205938
 30
0.0
  0
SEQEND
  5
B8B8
  8
0
  0
LINE
  5
ADDC
  8
0
 10
323.13966581842692
 20
101.0300057963622
 30
0.0
 11
326.41482296952091
 21
100.85348105111611
 31
0.0
  0
LINE
  5
ADDD
  8
0
 10
323.13966581842692
 20
101.0300057963622
 30
0.0
 11
320.52484150780168
 21
100.6745622557854
 31
0.0
  0
LINE
  5
ADDE
  8
0
 10
321.18517434827049
 20
100.14259396996231
 30
0.0
 11
320.52484150780168
 21
100.6745622557854
 31
0.0
  0
LINE
  5
ADDF
  8
0
 10
321.18517434827049
 20
100.14259396996231
 30
0.0
 11
324.46033149936437
 21
99.966069224716094
 31
0.0
  0
LINE
  5
ADE0
  8
0
 10
324.46033149936437
 20
99.966069224716094
 30
0.0
 11
327.07515580998972
 21
100.32151276529289
 31
0.0
  0
LINE
  5
ADE1
  8
0
 10
326.41482296952091
 20
100.85348105111611
 30
0.0
 11
327.07515580998972
 21
100.32151276529289
 31
0.0
  0
LINE
  5
ADE2
  8
0
 10
326.41482296952091
 20
100.2317510777403
 30
0.0
 11
326.41482296952091
 21
100.85348105111611
 31
0.0
  0
LINE
  5
ADE3
  8
0
 10
323.13966581842692
 20
100.0372505946864
 30
0.0
 11
323.13966581842692
 21
101.0300057963622
 31
0.0
  0
LINE
  5
ADE4
  8
0
 10
353.7999986588955
 20
94.999999999999986
 30
0.0
 11
353.7999986588955
 21
50.000000000000028
 31
0.0
  0
LINE
  5
ADE5
  8
0
 10
348.79999865889528
 20
50.000000000000028
 30
0.0
 11
348.79999865889539
 21
86.000000000000028
 31
0.0
  0
LINE
  5
ADE8
  8
0
 10
308.2999986588955
 20
86.000000000000171
 30
0.0
 11
308.2999986588955
 21
95.000000000000171
 31
0.0
  0
LINE
  5
ADE9
  8
0
 10
339.2999986588955
 20
86.000000000000057
 30
0.0
 11
339.2999986588955
 21
95.000000000000057
 31
0.0
  0
LINE
  5
ADEA
  8
0
 10
298.79999865889539
 20
86.000000000000199
 30
0.0
 11
298.79999865889539
 21
50.000000000000227
 31
0.0
  0
LINE
  5
ADEB
  8
0
 10
293.7999986588955
 20
86.000000000000199
 30
0.0
 11
308.2999986588955
 21
86.000000000000171
 31
0.0
  0
LINE
  5
ADEC
  8
0
 10
293.7999986588955
 20
50.000000000000242
 30
0.0
 11
353.7999986588955
 21
50.000000000000007
 31
0.0
  0
LINE
  5
ADED
  8
0
 10
339.2999986588955
 20
86.000000000000057
 30
0.0
 11
353.79999865889528
 21
86.0
 31
0.0
  0
LINE
  5
ADEE
  8
0
 10
293.7999986588955
 20
95.000000000000227
 30
0.0
 11
353.79999865889567
 21
95.0
 31
0.0
  0
LINE
  5
ADEF
  8
0
 10
293.7999986588955
 20
50.000000000000242
 30
0.0
 11
293.79999865889567
 21
95.000000000000227
 31
0.0
  0
LINE
  5
B1C6
  8
0
 10
79.999999598399256
 20
59.03034487721591
 30
0.0
 11
70.499999949306925
 21
64.515172800574547
 31
0.0
  0
LINE
  5
B1C7
  8
0
 10
70.499999949306925
 20
64.515172800574547
 30
0.0
 11
70.499999438211717
 21
75.484827826573067
 31
0.0
  0
LINE
  5
B1C8
  8
0
 10
79.999999041869785
 20
80.969655155046453
 30
0.0
 11
89.499999156623062
 21
75.484827457521206
 31
0.0
  0
LINE
  5
B1C9
  8
0
 10
89.499999156623062
 20
75.484827457521206
 30
0.0
 11
89.499999202057325
 21
64.515172205689296
 31
0.0
  0
LINE
  5
B1FF
  8
1
 10
337.2999986588955
 20
70.000000000000099
 30
0.0
 11
310.2999986588955
 21
70.000000000000099
 31
0.0
  0
LINE
  5
B200
  8
1
 10
323.79999865889539
 20
45.000000000000128
 30
0.0
 11
323.79999865889539
 21
105.8000000000002
 31
0.0
  0
LINE
  5
B201
  8
1
 10
346.29999865889539
 20
47.000000000000043
 30
0.0
 11
346.29999865889539
 21
89.000000000000185
 31
0.0
  0
LINE
  5
B202
  8
1
 10
301.2999986588955
 20
47.000000000000213
 30
0.0
 11
301.2999986588955
 21
89.000000000000185
 31
0.0
  0
LINE
  5
B203
  8
1
 10
234.99999865889549
 20
152.49999932944769
 30
0.0
 11
219.99999865889549
 21
152.49999932944769
 31
0.0
  0
LINE
  5
B204
  8
1
 10
234.99999865889549
 20
197.49999932944769
 30
0.0
 11
219.99999865889549
 21
197.49999932944769
 31
0.0
  0
LINE
  5
B205
  8
1
 10
145.0000002682209
 20
174.9999993294478
 30
0.0
 11
268.79999771714211
 21
174.99999932944769
 31
0.0
  0
LINE
  5
B20B
  8
1
 10
57.499999329447633
 20
47.000000000000213
 30
0.0
 11
57.499999329447633
 21
89.000000000000185
 31
0.0
  0
LINE
  5
B20C
  8
1
 10
102.4999993294476
 20
47.000000000000043
 30
0.0
 11
102.4999993294476
 21
89.000000000000185
 31
0.0
  0
LINE
  5
B20D
  8
1
 10
79.999999329447633
 20
45.000000000000128
 30
0.0
 11
79.999999329447633
 21
105.8000000000003
 31
0.0
  0
LINE
  5
B20E
  8
1
 10
93.499999329447633
 20
70.000000000000099
 30
0.0
 11
66.499999329447633
 21
70.000000000000099
 31
0.0
  0
LINE
  5
B211
  8
1
 10
227.49999865889549
 20
204.999999329448
 30
0.0
 11
227.49999865889549
 21
189.99999932944789
 31
0.0
  0
LINE
  5
B212
  8
1
 10
182.49999865889549
 20
204.999999329448
 30
0.0
 11
182.49999865889549
 21
189.999999329448
 31
0.0
  0
LINE
  5
B21B
  8
1
 10
194.7071720786941
 20
105.7786687650663
 30
0.0
 11
192.5214668022154
 21
91.978668765066317
 31
0.0
  0
LINE
  5
B21C
  8
1
 10
227.49999865889549
 20
89.00000000000027
 30
0.0
 11
227.49999865889549
 21
47.000000000000263
 31
0.0
  0
LINE
  5
B21D
  8
1
 10
182.49999865889549
 20
89.000000000000256
 30
0.0
 11
182.49999865889549
 21
47.000000000000277
 31
0.0
  0
LINE
  5
B21E
  8
1
 10
189.99999865889549
 20
197.49999932944769
 30
0.0
 11
174.99999865889549
 21
197.49999932944769
 31
0.0
  0
LINE
  5
B21F
  8
1
 10
182.49999865889549
 20
159.999999329448
 30
0.0
 11
182.49999865889549
 21
144.999999329448
 31
0.0
  0
LINE
  5
B220
  8
1
 10
189.99999865889549
 20
152.49999932944769
 30
0.0
 11
174.99999865889549
 21
152.49999932944769
 31
0.0
  0
LINE
  5
B221
  8
1
 10
227.49999865889549
 20
159.999999329448
 30
0.0
 11
227.49999865889549
 21
144.999999329448
 31
0.0
  0
TEXT
  5
B40C
  8
0
 62
     3
 10
0.0
 20
0.0
 30
0.0
 40
10.0
  1
BJ351-12001A
  7
STANDARD1
  0
LINE
  5
B5BE
  8
0
 10
317.83457220313932
 20
99.610965502562365
 30
0.0
 11
317.79999865889567
 21
99.510349169944107
 31
0.0
  0
LINE
  5
B5BF
  8
0
 10
318.86311105367548
 20
100.6219214365035
 30
0.0
 11
318.9543620451592
 21
100.69089055145329
 31
0.0
  0
LINE
  5
B5C0
  8
0
 10
328.64835873879508
 20
100.68920814185419
 30
0.0
 11
328.73688626411609
 21
100.6219214365035
 31
0.0
  0
LINE
  5
B5C1
  8
0
 10
329.79465800964317
 20
99.549942627508116
 30
0.0
 11
329.79999865889567
 21
99.510349169944064
 31
0.0
  0
LINE
  5
B5C2
  8
0
 10
85.924264229833838
 20
99.659010022878775
 30
0.0
 11
85.965425893664118
 21
99.610964953899526
 31
0.0
  0
LINE
  5
B5C3
  8
0
 10
74.075734429061185
 20
99.659010022878746
 30
0.0
 11
74.005339946597587
 21
99.549940973520378
 31
0.0
  0
LINE
  5
B5D0
  8
5
 10
167.99999865889549
 20
59.030344885397248
 30
0.0
 11
174.99999865889549
 21
59.030344885397248
 31
0.0
  0
LINE
  5
B5D1
  8
5
 10
167.99999865889549
 20
64.515172442698741
 30
0.0
 11
174.99999865889549
 21
64.515172442698741
 31
0.0
  0
LINE
  5
B5D2
  8
5
 10
167.99999865889549
 20
75.484827557301614
 30
0.0
 11
174.99999865889549
 21
75.484827557301614
 31
0.0
  0
LINE
  5
B5D3
  8
5
 10
167.99999865889549
 20
80.969655114603015
 30
0.0
 11
174.99999865889549
 21
80.969655114603015
 31
0.0
  0
ARC
  5
B5D4
  8
5
 10
179.99999865889549
 20
70.000000000000156
 30
0.0
 40
20.0
 50
146.73701418308659
 51
213.26298581691421
  0
ARC
  5
B5D5
  8
5
 10
167.1840258036064
 20
61.772759007290162
 30
0.0
 40
4.7736311386417301
 50
144.9359243910377
 51
215.0640756089627
  0
LINE
  5
B5D6
  8
5
 10
168.0000002682209
 20
64.515172671526827
 30
0.0
 11
163.27676057815549
 21
64.515172671526827
 31
0.0
  0
LINE
  5
B5D7
  8
5
 10
168.0000002682209
 20
59.030345343053497
 30
0.0
 11
163.27676057815549
 21
59.030345343053497
 31
0.0
  0
ARC
  5
B5D8
  8
5
 10
179.99999865889549
 20
70.000000000000156
 30
0.0
 40
17.599715906798039
 50
161.8417291956174
 51
198.15827080438339
  0
ARC
  5
B5D9
  8
5
 10
167.1840258036064
 20
78.227240992710179
 30
0.0
 40
4.7736311386417469
 50
144.9359243910377
 51
215.06407560896301
  0
LINE
  5
B5DA
  8
5
 10
168.0000002682209
 20
75.484827328473486
 30
0.0
 11
163.27676057815549
 21
75.484827328473486
 31
0.0
  0
LINE
  5
B5DB
  8
5
 10
168.0000002682209
 20
80.969654656946815
 30
0.0
 11
163.27676057815549
 21
80.969654656946815
 31
0.0
  0
LINE
  5
B5DC
  8
5
 10
168.0000002682209
 20
80.969654656946815
 30
0.0
 11
168.00000026822099
 21
59.030345343053497
 31
0.0
  0
LINE
  5
B5DD
  8
5
 10
258.66030606673422
 20
59.500000000000142
 30
0.0
 11
263.35682147072941
 21
59.500000000000142
 31
0.0
  0
LINE
  5
B5DE
  8
5
 10
263.35682147072941
 20
80.500000000000142
 30
0.0
 11
258.66030606673422
 21
80.500000000000142
 31
0.0
  0
ARC
  5
B5DF
  8
5
 10
259.6158742331275
 20
61.256954603675482
 30
0.0
 40
2.0000000000000329
 50
185.3044196185345
 51
241.45922326581859
  0
ARC
  5
B5E0
  8
5
 10
259.6158742331275
 20
78.743045396324803
 30
0.0
 40
2.0000000000000329
 50
118.54077673418141
 51
174.6955803814663
  0
LINE
  5
B5E1
  8
5
 10
263.35682147072941
 20
59.500000000000171
 30
0.0
 11
263.79999865889562
 21
60.607708586125071
 31
0.0
  0
LINE
  5
B5E2
  8
5
 10
263.79999865889562
 20
79.392291413875199
 30
0.0
 11
263.35682147072941
 21
80.500000000000114
 31
0.0
  0
LINE
  5
B5E3
  8
5
 10
257.62443909304352
 20
78.927940184891426
 30
0.0
 11
257.06575809162359
 21
76.842914302369564
 31
0.0
  0
LINE
  5
B5E4
  8
5
 10
257.06575809162359
 20
63.15708569763072
 30
0.0
 11
257.62443909304352
 21
61.072059815108858
 31
0.0
  0
ARC
  5
B5E5
  8
5
 10
256.29301743059239
 20
62.950030461548756
 30
0.0
 40
0.8000000000000422
 50
14.99999999999908
 51
89.499999999995424
  0
ARC
  5
B5E6
  8
5
 10
256.29301743059239
 20
77.049969538451521
 30
0.0
 40
0.8000000000000422
 50
270.50000000000779
 51
345.00000000000068
  0
LINE
  5
B5E7
  8
5
 10
253.7999986588955
 20
63.750000000000142
 30
0.0
 11
256.29999865899123
 21
63.750000000000142
 31
0.0
  0
LINE
  5
B5E8
  8
5
 10
256.29999865899123
 20
76.250000000000142
 30
0.0
 11
253.7999986588955
 21
76.250000000000142
 31
0.0
  0
LINE
  5
B5E9
  8
5
 10
263.35682147072941
 20
59.500000000000142
 30
0.0
 11
263.35682147072941
 21
80.500000000000156
 31
0.0
  0
LINE
  5
B5EA
  8
5
 10
258.66030606673422
 20
59.500000000000142
 30
0.0
 11
258.66030606673422
 21
80.500000000000156
 31
0.0
  0
LINE
  5
B5EB
  8
5
 10
263.79999865889562
 20
60.607708586125071
 30
0.0
 11
263.79999865889562
 21
79.392291413875199
 31
0.0
  0
LINE
  5
B5EC
  8
5
 10
257.06575809162359
 20
63.157085697630777
 30
0.0
 11
257.06575809162359
 21
76.842914302369564
 31
0.0
  0
ARC
  5
B635
  8
5
 10
180.0000002682209
 20
174.999999329448
 30
0.0
 40
20.000000000000011
 50
151.64064997184261
 51
208.35935002815799
  0
LINE
  5
B636
  8
5
 10
168.0000002682209
 20
165.499999329448
 30
0.0
 11
168.0000002682209
 21
184.499999329448
 31
0.0
  0
ARC
  5
B637
  8
5
 10
175.72800619212649
 20
170.24999932944789
 30
0.0
 40
13.326513365167999
 50
159.1187468262741
 51
200.88125317372649
  0
LINE
  5
B638
  8
5
 10
168.0000002682209
 20
174.999999329448
 30
0.0
 11
163.27676294207299
 21
174.999999329448
 31
0.0
  0
LINE
  5
B639
  8
5
 10
168.0000002682209
 20
165.499999329448
 30
0.0
 11
163.27676294207299
 21
165.499999329448
 31
0.0
  0
LINE
  5
B63A
  8
5
 10
163.27676294207299
 20
184.499999329448
 30
0.0
 11
162.40028436142291
 21
184.499999329448
 31
0.0
  0
ARC
  5
B63B
  8
5
 10
175.72800619212649
 20
179.74999932944789
 30
0.0
 40
13.326513365168021
 50
159.1187468262741
 51
200.88125317372649
  0
LINE
  5
B63C
  8
5
 10
162.40028436142291
 20
165.49999932944789
 30
0.0
 11
163.27676294207299
 21
165.499999329448
 31
0.0
  0
LINE
  5
B63D
  8
5
 10
168.0000002682209
 20
184.499999329448
 30
0.0
 11
163.27676294207299
 21
184.499999329448
 31
0.0
  0
LINE
  5
B63E
  8
5
 10
168.0000002682209
 20
174.999999329448
 30
0.0
 11
174.99999955296511
 21
174.999999329448
 31
0.0
  0
LINE
  5
B63F
  8
5
 10
168.0000002682209
 20
184.4999990239742
 30
0.0
 11
174.99999955296511
 21
184.4999990239742
 31
0.0
  0
LINE
  5
B640
  8
5
 10
168.0000002682209
 20
165.49999963492181
 30
0.0
 11
174.99999955296511
 21
165.49999963492181
 31
0.0
  0
LINE
  5
B641
  8
5
 10
263.35682228207588
 20
164.499999471009
 30
0.0
 11
263.79999771714211
 21
165.6077080219986
 31
0.0
  0
LINE
  5
B642
  8
5
 10
263.79999771714211
 20
184.39229063689729
 30
0.0
 11
263.35682228207588
 21
185.49999918788691
 31
0.0
  0
ARC
  5
B643
  8
5
 10
259.6158742331275
 20
166.2569539331233
 30
0.0
 40
2.0000000000000329
 50
185.3044196185345
 51
241.45922326581859
  0
ARC
  5
B644
  8
5
 10
259.6158742331275
 20
183.74304472577271
 30
0.0
 40
2.0000000000000311
 50
118.5407767341844
 51
174.6955803814671
  0
LINE
  5
B645
  8
5
 10
258.66030782461172
 20
164.499999471009
 30
0.0
 11
263.35682228207588
 21
164.499999471009
 31
0.0
  0
LINE
  5
B646
  8
5
 10
263.35682228207588
 20
185.49999918788691
 30
0.0
 11
258.66030782461172
 21
185.49999918788691
 31
0.0
  0
LINE
  5
B647
  8
5
 10
257.62443870306021
 20
183.92793972045209
 30
0.0
 11
257.06575691699982
 21
181.84291383251571
 31
0.0
  0
LINE
  5
B648
  8
5
 10
257.06575691699982
 20
168.15708482638021
 30
0.0
 11
257.62443870306021
 21
166.07205893844389
 31
0.0
  0
ARC
  5
B649
  8
5
 10
256.29301743059239
 20
167.95002979099641
 30
0.0
 40
0.800000000000028
 50
14.99999999999825
 51
89.499999999995424
  0
ARC
  5
B64A
  8
5
 10
256.29301743059239
 20
182.04996886789911
 30
0.0
 40
0.8000000000000564
 50
270.50000000000779
 51
345.00000000000068
  0
LINE
  5
B64B
  8
5
 10
253.79999771714211
 20
168.74999923631569
 30
0.0
 11
256.29999741911888
 21
168.74999923631569
 31
0.0
  0
LINE
  5
B64C
  8
5
 10
256.29999741911888
 20
181.2499994225802
 30
0.0
 11
253.79999771714211
 21
181.2499994225802
 31
0.0
  0
LINE
  5
B64D
  8
5
 10
263.79999771714211
 20
165.6077080219986
 30
0.0
 11
263.79999771714211
 21
184.39229063689729
 31
0.0
  0
LINE
  5
B64E
  8
5
 10
263.35682228207588
 20
164.499999471009
 30
0.0
 11
263.35682228207588
 21
185.49999918788691
 31
0.0
  0
LINE
  5
B64F
  8
5
 10
258.66030782461172
 20
164.499999471009
 30
0.0
 11
258.66030782461172
 21
185.49999918788691
 31
0.0
  0
LINE
  5
B650
  8
5
 10
257.06575691699982
 20
168.15708482638021
 30
0.0
 11
257.06575691699982
 21
181.84291383251571
 31
0.0
  0
LINE
  5
B69A
  8
5
 10
329.72426378516002
 20
101.178800045361
 30
0.0
 11
328.73688626411609
 21
102.1417116007633
 31
0.0
  0
LINE
  5
B69B
  8
5
 10
318.86311105367548
 20
102.1417116007633
 30
0.0
 11
317.87573353263139
 21
101.1788000453611
 31
0.0
  0
LINE
  5
B69C
  8
5
 10
329.79999865889567
 20
99.510349169944064
 30
0.0
 11
329.79999865889567
 21
101.0301393342038
 31
0.0
  0
LINE
  5
B69D
  8
5
 10
317.79999865889567
 20
101.03013933420389
 30
0.0
 11
317.79999865889567
 21
99.510349169944107
 31
0.0
  0
POLYLINE
  5
B69E
  8
5
 66
     1
 10
0.0
 20
0.0
 30
0.0
 70
   128
  0
VERTEX
  5
B8F2
  8
5
 10
321.84550718873919
 20
100.1427275078039
 30
0.0
  0
VERTEX
  5
B8F3
  8
5
 10
321.02185942896068
 20
100.19820881188529
 30
0.0
  0
VERTEX
  5
B8F4
  8
5
 10
320.2602707088422
 20
100.2722740691115
 30
0.0
  0
VERTEX
  5
B8F5
  8
5
 10
319.57775366190322
 20
100.36326878402519
 30
0.0
  0
VERTEX
  5
B8F6
  8
5
 10
318.98955459114751
 20
100.4691602850595
 30
0.0
  0
VERTEX
  5
B8F7
  8
5
 10
318.50881289184548
 20
100.58758313106171
 30
0.0
  0
VERTEX
  5
B8F8
  8
5
 10
318.14626753915832
 20
100.71589195134
 30
0.0
  0
VERTEX
  5
B8F9
  8
5
 10
317.91001719717661
 20
100.85122053887321
 30
0.0
  0
VERTEX
  5
B8FA
  8
5
 10
317.80533930814818
 20
100.9905458766398
 30
0.0
  0
VERTEX
  5
B8FB
  8
5
 10
317.83457220313932
 20
101.1307556668221
 30
0.0
  0
VERTEX
  5
B8FC
  8
5
 10
317.87573353263139
 20
101.1788000453611
 30
0.0
  0
SEQEND
  5
B8FD
  8
5
  0
POLYLINE
  5
B69F
  8
5
 66
     1
 10
0.0
 20
0.0
 30
0.0
 70
   128
  0
VERTEX
  5
B8FE
  8
5
 10
329.72426378516002
 20
101.178800045361
 30
0.0
  0
VERTEX
  5
B8FF
  8
5
 10
329.79465800964317
 20
101.0697327917679
 30
0.0
  0
VERTEX
  5
B900
  8
5
 10
329.76542511465232
 20
100.92952300158559
 30
0.0
  0
VERTEX
  5
B901
  8
5
 10
329.60293445021011
 20
100.7915608140105
 30
0.0
  0
VERTEX
  5
B902
  8
5
 10
329.31081578925279
 20
100.6589280763373
 30
0.0
  0
VERTEX
  5
B903
  8
5
 10
328.89559457995449
 20
100.53458758475681
 30
0.0
  0
VERTEX
  5
B904
  8
5
 10
328.36654617799849
 20
100.4213169003843
 30
0.0
  0
VERTEX
  5
B905
  8
5
 10
327.73548865045842
 20
100.3216463031345
 30
0.0
  0
VERTEX
  5
B906
  8
5
 10
327.01651877970812
 20
100.2378022694494
 30
0.0
  0
VERTEX
  5
B907
  8
5
 10
326.22569716459861
 20
100.1716577364932
 30
0.0
  0
VERTEX
  5
B908
  8
5
 10
325.38068945321771
 20
100.12469026383179
 30
0.0
  0
VERTEX
  5
B909
  8
5
 10
324.50037172150451
 20
100.097949027193
 30
0.0
  0
VERTEX
  5
B90A
  8
5
 10
323.60440881290418
 20
100.0920313816146
 30
0.0
  0
VERTEX
  5
B90B
  8
5
 10
322.71281505826113
 20
100.1070695175204
 30
0.0
  0
VERTEX
  5
B90C
  8
5
 10
321.84550718873919
 20
100.1427275078039
 30
0.0
  0
SEQEND
  5
B90D
  8
5
  0
POLYLINE
  5
B6A0
  8
5
 66
     1
 10
0.0
 20
0.0
 30
0.0
 70
   128
  0
VERTEX
  5
B90E
  8
5
 10
322.17125576709873
 20
101.2783178194657
 30
0.0
  0
VERTEX
  5
B90F
  8
5
 10
321.4153846274528
 20
101.330341076343
 30
0.0
  0
VERTEX
  5
B910
  8
5
 10
320.72455954235988
 20
101.4011171754823
 30
0.0
  0
VERTEX
  5
B911
  8
5
 10
320.1176244192946
 20
101.4887155293987
 30
0.0
  0
VERTEX
  5
B912
  8
5
 10
319.61113486625231
 20
101.5907466833491
 30
0.0
  0
VERTEX
  5
B913
  8
5
 10
319.21890659792052
 20
101.70442749342929
 30
0.0
  0
VERTEX
  5
B914
  8
5
 10
318.95163857899638
 20
101.826657043484
 30
0.0
  0
VERTEX
  5
B915
  8
5
 10
318.81662118432041
 20
101.95410123001631
 30
0.0
  0
VERTEX
  5
B916
  8
5
 10
318.81753733645542
 20
102.0832837078398
 30
0.0
  0
VERTEX
  5
B917
  8
5
 10
318.9543620451592
 20
102.2106807157131
 30
0.0
  0
VERTEX
  5
B918
  8
5
 10
319.22336308905392
 20
102.3328171953606
 30
0.0
  0
VERTEX
  5
B919
  8
5
 10
319.61720282089527
 20
102.4463615820036
 30
0.0
  0
VERTEX
  5
B91A
  8
5
 10
320.12513831946239
 20
102.54821668076259
 30
0.0
  0
VERTEX
  5
B91B
  8
5
 10
320.73331442844329
 20
102.63560415005981
 30
0.0
  0
VERTEX
  5
B91C
  8
5
 10
321.42514168898168
 20
102.70614028753501
 30
0.0
  0
VERTEX
  5
B91D
  8
5
 10
322.18174885686938
 20
102.7579010512319
 30
0.0
  0
VERTEX
  5
B91E
  8
5
 10
322.98249766089401
 20
102.7894745424469
 30
0.0
  0
VERTEX
  5
B91F
  8
5
 10
323.80554576107778
 20
102.79999951864581
 30
0.0
  0
VERTEX
  5
B920
  8
5
 10
324.62844255077448
 20
102.7891888859143
 30
0.0
  0
VERTEX
  5
B921
  8
5
 10
325.42874155069291
 20
102.7573375301323
 30
0.0
  0
VERTEX
  5
B922
  8
5
 10
326.18461269033872
 20
102.705314273255
 30
0.0
  0
VERTEX
  5
B923
  8
5
 10
326.87543777543169
 20
102.6345381741157
 30
0.0
  0
VERTEX
  5
B924
  8
5
 10
327.48237289849692
 20
102.5469398201994
 30
0.0
  0
VERTEX
  5
B925
  8
5
 10
327.98886245153898
 20
102.44490866624891
 30
0.0
  0
VERTEX
  5
B926
  8
5
 10
328.38109071987088
 20
102.3312278561687
 30
0.0
  0
VERTEX
  5
B927
  8
5
 10
328.64835873879508
 20
102.208998306114
 30
0.0
  0
VERTEX
  5
B928
  8
5
 10
328.78337613347088
 20
102.0815541195817
 30
0.0
  0
VERTEX
  5
B929
  8
5
 10
328.78245998133599
 20
101.95237164175821
 30
0.0
  0
VERTEX
  5
B92A
  8
5
 10
328.64563527263232
 20
101.82497463388491
 30
0.0
  0
VERTEX
  5
B92B
  8
5
 10
328.37663422873771
 20
101.7028381542374
 30
0.0
  0
VERTEX
  5
B92C
  8
5
 10
327.98279449689619
 20
101.5892937675944
 30
0.0
  0
VERTEX
  5
B92D
  8
5
 10
327.47485899832913
 20
101.4874386688354
 30
0.0
  0
VERTEX
  5
B92E
  8
5
 10
326.86668288934811
 20
101.4000511995382
 30
0.0
  0
VERTEX
  5
B92F
  8
5
 10
326.17485562880972
 20
101.329515062063
 30
0.0
  0
VERTEX
  5
B930
  8
5
 10
325.41824846092209
 20
101.2777542983661
 30
0.0
  0
VERTEX
  5
B931
  8
5
 10
324.61749965689751
 20
101.24618080715111
 30
0.0
  0
VERTEX
  5
B932
  8
5
 10
323.79445155671351
 20
101.2356558309522
 30
0.0
  0
VERTEX
  5
B933
  8
5
 10
322.97155476701693
 20
101.2464664636836
 30
0.0
  0
VERTEX
  5
B934
  8
5
 10
322.17125576709873
 20
101.2783178194657
 30
0.0
  0
SEQEND
  5
B935
  8
5
  0
LINE
  5
B6A1
  8
5
 10
323.13966581842692
 20
102.54979596062201
 30
0.0
 11
326.41482296952091
 21
102.37327121537589
 31
0.0
  0
LINE
  5
B6A2
  8
5
 10
323.13966581842692
 20
102.54979596062201
 30
0.0
 11
320.52484150780168
 21
102.19435242004521
 31
0.0
  0
LINE
  5
B6A3
  8
5
 10
321.18517434827049
 20
101.66238413422209
 30
0.0
 11
320.52484150780168
 21
102.19435242004521
 31
0.0
  0
LINE
  5
B6A4
  8
5
 10
321.18517434827049
 20
101.66238413422209
 30
0.0
 11
324.46033149936437
 21
101.4858593889759
 31
0.0
  0
LINE
  5
B6A5
  8
5
 10
324.46033149936437
 20
101.4858593889759
 30
0.0
 11
327.07515580998972
 21
101.8413029295528
 31
0.0
  0
LINE
  5
B6A6
  8
5
 10
326.41482296952091
 20
102.37327121537589
 30
0.0
 11
327.07515580998972
 21
101.8413029295528
 31
0.0
  0
LINE
  5
B6A7
  8
5
 10
326.41482296952091
 20
101.7515412420001
 30
0.0
 11
326.41482296952091
 21
102.37327121537589
 31
0.0
  0
LINE
  5
B6A8
  8
5
 10
323.13966581842692
 20
101.5570407589462
 30
0.0
 11
323.13966581842692
 21
102.54979596062201
 31
0.0
  0
LINE
  5
B6A9
  8
5
 10
317.83457220313932
 20
101.1307556668221
 30
0.0
 11
317.79999865889567
 21
101.03013933420389
 31
0.0
  0
LINE
  5
B6AA
  8
5
 10
318.86311105367548
 20
102.1417116007633
 30
0.0
 11
318.9543620451592
 21
102.2106807157131
 31
0.0
  0
LINE
  5
B6AB
  8
5
 10
328.64835873879508
 20
102.208998306114
 30
0.0
 11
328.73688626411609
 21
102.1417116007633
 31
0.0
  0
LINE
  5
B6AC
  8
5
 10
329.79465800964317
 20
101.0697327917679
 30
0.0
 11
329.79999865889567
 21
101.0301393342038
 31
0.0
  0
LINE
  5
B6B7
  8
5
 10
199.6404978314161
 20
98.571742379702755
 30
0.0
 11
199.88120894599319
 21
100.0915325439625
 31
0.0
  0
LINE
  5
B6B8
  8
5
 10
188.02894885885149
 20
101.9687461244453
 30
0.0
 11
187.78823774427451
 21
100.4489559601855
 31
0.0
  0
LINE
  5
B6B9
  8
5
 10
199.88120894599319
 20
100.0915325439625
 30
0.0
 11
199.04995507043839
 21
101.23565534959791
 31
0.0
  0
LINE
  5
B6BA
  8
5
 10
189.17307166448691
 20
102.8000000000002
 30
0.0
 11
188.02894885885149
 21
101.9687461244453
 31
0.0
  0
LINE
  5
B6BB
  8
5
 10
199.88120894599319
 20
100.0915325439626
 30
0.0
 11
188.02894885885149
 21
101.9687461244453
 31
0.0
  0
LINE
  5
B6BD
  8
5
 10
199.04995507043839
 20
101.23565534959791
 30
0.0
 11
189.17307166448691
 21
102.8000000000002
 31
0.0
  0
LINE
  5
B6BF
  8
5
 10
199.17464315177151
 20
101.0640369287526
 30
0.0
 11
198.9339320371945
 21
99.544246764492868
 31
0.0
  0
LINE
  5
B6C0
  8
5
 10
189.00145324364161
 20
102.67531191866701
 30
0.0
 11
188.7607421290646
 21
101.1555217544072
 31
0.0
  0
LINE
  5
B6C7
  8
5
 10
85.999999381601569
 20
99.510348588228354
 30
0.0
 11
85.999999381601569
 21
101.0301387524882
 31
0.0
  0
LINE
  5
B6C8
  8
5
 10
73.999999277293455
 20
101.0301387524882
 30
0.0
 11
73.999999277293455
 21
99.510348588228325
 31
0.0
  0
LINE
  5
B6C9
  8
5
 10
85.924264229833838
 20
101.17880018713861
 30
0.0
 11
84.936886746436116
 21
102.1417132234851
 31
0.0
  0
LINE
  5
B6CA
  8
5
 10
75.063111912458908
 20
102.141713223485
 30
0.0
 11
74.075734429061185
 21
101.17880018713861
 31
0.0
  0
POLYLINE
  5
B6CB
  8
5
 66
     1
 10
0.0
 20
0.0
 30
0.0
 70
   128
  0
VERTEX
  5
B936
  8
5
 10
85.999999381601569
 20
101.0301387524882
 30
0.0
  0
VERTEX
  5
B937
  8
5
 10
85.965425893664118
 20
101.1307551181594
 30
0.0
  0
VERTEX
  5
B938
  8
5
 10
85.802935250103246
 20
101.2687175190726
 30
0.0
  0
VERTEX
  5
B939
  8
5
 10
85.510816611349355
 20
101.40134902956871
 30
0.0
  0
VERTEX
  5
B93A
  8
5
 10
85.095595289021489
 20
101.5256917691508
 30
0.0
  0
VERTEX
  5
B93B
  8
5
 10
84.566546790301558
 20
101.6389629459658
 30
0.0
  0
VERTEX
  5
B93C
  8
5
 10
83.935489133000146
 20
101.73863308790121
 30
0.0
  0
VERTEX
  5
B93D
  8
5
 10
83.216519514098536
 20
101.8224781966487
 30
0.0
  0
VERTEX
  5
B93E
  8
5
 10
82.425697892904054
 20
101.88862072589779
 30
0.0
  0
VERTEX
  5
B93F
  8
5
 10
81.580690178088616
 20
101.9355891859808
 30
0.0
  0
VERTEX
  5
B940
  8
5
 10
80.700372415594515
 20
101.9623293197432
 30
0.0
  0
VERTEX
  5
B941
  8
5
 10
79.804409481584798
 20
101.9682488060275
 30
0.0
  0
VERTEX
  5
B942
  8
5
 10
78.912815731018554
 20
101.9532098090926
 30
0.0
  0
VERTEX
  5
B943
  8
5
 10
78.045507846399914
 20
101.91755133035571
 30
0.0
  0
VERTEX
  5
B944
  8
5
 10
77.221860131248604
 20
101.8620705819407
 30
0.0
  0
VERTEX
  5
B945
  8
5
 10
76.46027132868744
 20
101.78800436022669
 30
0.0
  0
VERTEX
  5
B946
  8
5
 10
75.777754373848211
 20
101.69701041939641
 30
0.0
  0
VERTEX
  5
B947
  8
5
 10
75.189555250108015
 20
101.5911190426626
 30
0.0
  0
VERTEX
  5
B948
  8
5
 10
74.708813522010814
 20
101.47269578936481
 30
0.0
  0
VERTEX
  5
B949
  8
5
 10
74.346268270164501
 20
101.3443856156149
 30
0.0
  0
VERTEX
  5
B94A
  8
5
 10
74.110017810016643
 20
101.2090569949427
 30
0.0
  0
VERTEX
  5
B94B
  8
5
 10
74.005339946597587
 20
101.0697311377802
 30
0.0
  0
VERTEX
  5
B94C
  8
5
 10
73.999999277293455
 20
101.0301387524882
 30
0.0
  0
SEQEND
  5
B94D
  8
5
  0
POLYLINE
  5
B6CC
  8
5
 66
     1
 10
0.0
 20
0.0
 30
0.0
 70
   128
  0
VERTEX
  5
B94E
  8
5
 10
84.936886746436116
 20
102.1417132234851
 30
0.0
  0
VERTEX
  5
B94F
  8
5
 10
84.845635760575306
 20
102.2106795227805
 30
0.0
  0
VERTEX
  5
B950
  8
5
 10
84.576634876429793
 20
102.3328168905059
 30
0.0
  0
VERTEX
  5
B951
  8
5
 10
84.182795323431264
 20
102.4463600135127
 30
0.0
  0
VERTEX
  5
B952
  8
5
 10
83.674859674647209
 20
102.54821690085321
 30
0.0
  0
VERTEX
  5
B953
  8
5
 10
83.066683448850867
 20
102.6356047606745
 30
0.0
  0
VERTEX
  5
B954
  8
5
 10
82.374856295063864
 20
102.7061394071856
 30
0.0
  0
VERTEX
  5
B955
  8
5
 10
81.618249136954304
 20
102.7579023158827
 30
0.0
  0
VERTEX
  5
B956
  8
5
 10
80.817500315606367
 20
102.7894741511622
 30
0.0
  0
VERTEX
  5
B957
  8
5
 10
79.994452227128704
 20
102.79999809625529
 30
0.0
  0
VERTEX
  5
B958
  8
5
 10
79.171555419452261
 20
102.7891873038092
 30
0.0
  0
VERTEX
  5
B959
  8
5
 10
78.371256426907848
 20
102.75733607175739
 30
0.0
  0
VERTEX
  5
B95A
  8
5
 10
77.615385362878214
 20
102.7053161180296
 30
0.0
  0
VERTEX
  5
B95B
  8
5
 10
76.924560312181484
 20
102.63453932764919
 30
0.0
  0
VERTEX
  5
B95C
  8
5
 10
76.317625073715817
 20
102.5469391262808
 30
0.0
  0
VERTEX
  5
B95D
  8
5
 10
75.811135768890153
 20
102.4449071502963
 30
0.0
  0
VERTEX
  5
B95E
  8
5
 10
75.418907403945695
 20
102.3312261915484
 30
0.0
  0
VERTEX
  5
B95F
  8
5
 10
75.151639245450269
 20
102.2089994168558
 30
0.0
  0
VERTEX
  5
B960
  8
5
 10
75.063111912458908
 20
102.141713223485
 30
0.0
  0
SEQEND
  5
B961
  8
5
  0
LINE
  5
B6CD
  8
5
 10
85.924264229833838
 20
101.17880018713861
 30
0.0
 11
85.965425893664118
 21
101.1307551181594
 31
0.0
  0
LINE
  5
B6CE
  8
5
 10
74.075734429061185
 20
101.17880018713861
 30
0.0
 11
74.005339946597587
 21
101.0697311377802
 31
0.0
  0
LINE
  5
B6D1
  8
2
 10
177.99999865889549
 20
50.000000000000277
 30
0.0
 11
177.99999865889549
 21
86.000000000000284
 31
0.0
  0
LINE
  5
B6D2
  8
2
 10
186.99999865889541
 20
50.000000000000277
 30
0.0
 11
186.99999865889541
 21
86.000000000000256
 31
0.0
  0
LINE
  5
B6D3
  8
2
 10
222.99999865889549
 20
50.000000000000277
 30
0.0
 11
222.99999865889549
 21
86.000000000000256
 31
0.0
  0
LINE
  5
B6D4
  8
2
 10
231.99999865889549
 20
50.000000000000277
 30
0.0
 11
231.99999865889549
 21
86.000000000000284
 31
0.0
  0
LINE
  5
B6D6
  8
2
 10
97.999999329447661
 20
49.99999845027947
 30
0.0
 11
97.999999329447661
 21
85.999998450279463
 31
0.0
  0
LINE
  5
B6D7
  8
2
 10
106.9999993294476
 20
49.99999845027947
 30
0.0
 11
106.9999993294476
 21
85.999998450279435
 31
0.0
  0
LINE
  5
B6D8
  8
2
 10
52.999999329447661
 20
50.000000000000277
 30
0.0
 11
52.999999329447661
 21
86.000000000000284
 31
0.0
  0
LINE
  5
B6D9
  8
2
 10
61.999999329447597
 20
50.000000000000277
 30
0.0
 11
61.999999329447597
 21
86.000000000000256
 31
0.0
  0
LINE
  5
B6DA
  8
2
 10
296.79999865889539
 20
50.000000000000277
 30
0.0
 11
296.79999865889539
 21
86.000000000000284
 31
0.0
  0
LINE
  5
B6DB
  8
2
 10
305.7999986588955
 20
50.000000000000277
 30
0.0
 11
305.7999986588955
 21
86.000000000000256
 31
0.0
  0
LINE
  5
B6DC
  8
2
 10
341.79999865889562
 20
50.000000000000277
 30
0.0
 11
341.79999865889562
 21
86.000000000000284
 31
0.0
  0
LINE
  5
B6DD
  8
2
 10
350.79999865889539
 20
50.000000000000277
 30
0.0
 11
350.79999865889539
 21
86.000000000000256
 31
0.0
  0
ENDSEC
  0
EOF
