  0
SECTION
  2
HEADER
  9
$ACADVER
  1
AC1009
  9
$INSBASE
 10
0.0
 20
0.0
 30
0.0
  9
$EXTMIN
 10
0.0
 20
-2.960436562073669
 30
0.0
  9
$EXTMAX
 10
165.12419611492351
 20
172.00000000000031
 30
0.0
  9
$LIMMIN
 10
0.0
 20
0.0
  9
$LIMMAX
 10
375.0
 20
270.0
  9
$ORTHOMODE
 70
     1
  9
$REGENMODE
 70
     1
  9
$FILLMODE
 70
     1
  9
$QTEXTMODE
 70
     0
  9
$MIRRTEXT
 70
     0
  9
$DRAGMODE
 70
     2
  9
$LTSCALE
 40
10.0
  9
$OSMODE
 70
    37
  9
$ATTMODE
 70
     1
  9
$TEXTSIZE
 40
0.2
  9
$TRACEWID
 40
0.05
  9
$TEXTSTYLE
  7
STANDARD
  9
$CLAYER
  8
0
  9
$CELTYPE
  6
BYLAYER
  9
$CECOLOR
 62
   256
  9
$DIMSCALE
 40
1.0
  9
$DIMASZ
 40
3.0
  9
$DIMEXO
 40
2.0
  9
$DIMDLI
 40
0.38
  9
$DIMRND
 40
0.0
  9
$DIMDLE
 40
0.0
  9
$DIMEXE
 40
2.0
  9
$DIMTP
 40
0.0
  9
$DIMTM
 40
0.0
  9
$DIMTXT
 40
3.2000000000000002
  9
$DIMCEN
 40
0.0
  9
$DIMTSZ
 40
0.0
  9
$DIMTOL
 70
     0
  9
$DIMLIM
 70
     0
  9
$DIMTIH
 70
     0
  9
$DIMTOH
 70
     0
  9
$DIMSE1
 70
     0
  9
$DIMSE2
 70
     0
  9
$DIMTAD
 70
     1
  9
$DIMZIN
 70
     0
  9
$DIMBLK
  1

  9
$DIMASO
 70
     0
  9
$DIMSHO
 70
     0
  9
$DIMPOST
  1

  9
$DIMAPOST
  1

  9
$DIMALT
 70
     0
  9
$DIMALTD
 70
     2
  9
$DIMALTF
 40
25.399999999999999
  9
$DIMLFAC
 40
1.0
  9
$DIMTOFL
 70
     1
  9
$DIMTVP
 40
1.6000000000000001
  9
$DIMTIX
 70
     1
  9
$DIMSOXD
 70
     0
  9
$DIMSAH
 70
     0
  9
$DIMBLK1
  1

  9
$DIMBLK2
  1

  9
$DIMSTYLE
  2
STANDARD
  9
$DIMCLRD
 70
     0
  9
$DIMCLRE
 70
     0
  9
$DIMCLRT
 70
     0
  9
$DIMTFAC
 40
1.0
  9
$DIMGAP
 40
0.09
  9
$LUNITS
 70
     2
  9
$LUPREC
 70
     4
  9
$SKETCHINC
 40
0.1
  9
$FILLETRAD
 40
0.0
  9
$AUNITS
 70
     0
  9
$AUPREC
 70
     4
  9
$MENU
  1
E:\r13\win\SUPPORT\ACAD
  9
$ELEVATION
 40
0.0
  9
$PELEVATION
 40
0.0
  9
$THICKNESS
 40
0.0
  9
$LIMCHECK
 70
     0
  9
$BLIPMODE
 70
     0
  9
$CHAMFERA
 40
0.0
  9
$CHAMFERB
 40
0.0
  9
$SKPOLY
 70
     0
  9
$TDCREATE
 40
2449840.6513888892
  9
$TDUPDATE
 40
2456969.4036061922
  9
$TDINDWG
 40
0.1743365625
  9
$TDUSRTIMER
 40
0.1743365625
  9
$USRTIMER
 70
     1
  9
$ANGBASE
 50
0.0
  9
$ANGDIR
 70
     0
  9
$PDMODE
 70
     0
  9
$PDSIZE
 40
0.0
  9
$PLINEWID
 40
0.0
  9
$COORDS
 70
     1
  9
$SPLFRAME
 70
     0
  9
$SPLINETYPE
 70
     6
  9
$SPLINESEGS
 70
     8
  9
$ATTDIA
 70
     0
  9
$ATTREQ
 70
     1
  9
$HANDLING
 70
     1
  9
$HANDSEED
  5
3229
  9
$SURFTAB1
 70
     6
  9
$SURFTAB2
 70
     6
  9
$SURFTYPE
 70
     6
  9
$SURFU
 70
     6
  9
$SURFV
 70
     6
  9
$UCSNAME
  2

  9
$UCSORG
 10
0.0
 20
0.0
 30
0.0
  9
$UCSXDIR
 10
1.0
 20
0.0
 30
0.0
  9
$UCSYDIR
 10
0.0
 20
1.0
 30
0.0
  9
$PUCSNAME
  2

  9
$PUCSORG
 10
0.0
 20
0.0
 30
0.0
  9
$PUCSXDIR
 10
1.0
 20
0.0
 30
0.0
  9
$PUCSYDIR
 10
0.0
 20
1.0
 30
0.0
  9
$USERI1
 70
     0
  9
$USERI2
 70
     1
  9
$USERI3
 70
     0
  9
$USERI4
 70
     0
  9
$USERI5
 70
     0
  9
$USERR1
 40
0.0
  9
$USERR2
 40
0.0
  9
$USERR3
 40
0.0
  9
$USERR4
 40
0.0
  9
$USERR5
 40
0.0
  9
$WORLDVIEW
 70
     1
  9
$SHADEDGE
 70
     3
  9
$SHADEDIF
 70
    70
  9
$TILEMODE
 70
     1
  9
$MAXACTVP
 70
    16
  9
$PLIMCHECK
 70
     0
  9
$PEXTMIN
 10
1.0000000000000000E+020
 20
1.0000000000000000E+020
 30
1.0000000000000000E+020
  9
$PEXTMAX
 10
-1.0000000000000000E+020
 20
-1.0000000000000000E+020
 30
-1.0000000000000000E+020
  9
$PLIMMIN
 10
0.0
 20
0.0
  9
$PLIMMAX
 10
12.0
 20
9.0
  9
$UNITMODE
 70
     0
  9
$VISRETAIN
 70
     0
  9
$PLINEGEN
 70
     0
  9
$PSLTSCALE
 70
     0
  0
ENDSEC
  0
SECTION
  2
TABLES
  0
TABLE
  2
VPORT
 70
     1
  0
VPORT
  2
*ACTIVE
 70
     0
 10
0.0
 20
0.0
 11
1.0
 21
1.0
 12
235.63977746870651
 22
135.0
 13
0.0
 23
0.0
 14
5.0
 24
5.0
 15
10.0
 25
10.0
 16
0.0
 26
0.0
 36
1.0
 17
0.0
 27
0.0
 37
0.0
 40
270.0
 41
1.7454798331015291
 42
50.0
 43
0.0
 44
0.0
 50
0.0
 51
0.0
 71
     0
 72
   500
 73
     1
 74
     0
 75
     0
 76
     0
 77
     0
 78
     2
  0
ENDTAB
  0
TABLE
  2
LTYPE
 70
     4
  0
LTYPE
  2
CONTINUOUS
 70
     0
  3
Solid Line
 72
    65
 73
     0
 40
0.0
  0
LTYPE
  2
CENTER
 70
     0
  3
____ _ ____ _ ____ _ ____ _ ____ _ ____ _ ____
 72
    65
 73
     4
 40
2.0
 49
1.25
 49
-0.25
 49
0.25
 49
-0.25
  0
LTYPE
  2
HIDDEN
 70
     0
  3
_ _ _ _ _ _ _ _ _ _ _ _ _ _ _ _ _ _ _ _ _ _ _
 72
    65
 73
     2
 40
0.375
 49
0.25
 49
-0.125
  0
LTYPE
  2
PHANTOM2
 70
     0
  3
___ _ _ ___ _ _ ___ _ _ ___ _ _
 72
    65
 73
     6
 40
1.25
 49
0.625
 49
-0.125
 49
0.125
 49
-0.125
 49
0.125
 49
-0.125
  0
ENDTAB
  0
TABLE
  2
LAYER
 70
     6
  0
LAYER
  2
0
 70
     0
 62
     7
  6
CONTINUOUS
  0
LAYER
  2
1
 70
     0
 62
     1
  6
CENTER
  0
LAYER
  2
10
 70
     0
 62
     7
  6
CONTINUOUS
  0
LAYER
  2
3
 70
     0
 62
     3
  6
CONTINUOUS
  0
LAYER
  2
2
 70
     0
 62
     2
  6
HIDDEN
  0
LAYER
  2
DEFPOINTS
 70
     0
 62
     7
  6
CONTINUOUS
  0
ENDTAB
  0
TABLE
  2
STYLE
 70
     2
  0
STYLE
  2
STANDARD
 70
     0
 40
0.0
 41
1.0
 50
0.0
 71
     0
 42
0.2
  3
TXT
  4
BIGFONT
  0
STYLE
  2
STANDARD1
 70
     0
 40
0.0
 41
1.0
 50
0.0
 71
     0
 42
3.0
  3
txt
  4

  0
ENDTAB
  0
TABLE
  2
VIEW
 70
     1
  0
VIEW
  2
ALL
 70
     0
 40
270.0
 10
220.99159663865549
 20
135.0
 41
0.0
 11
0.0
 21
0.0
 31
1.0
 12
0.0
 22
0.0
 32
0.0
 42
0.0
 43
0.0
 44
0.0
 50
0.0
 71
     0
  0
ENDTAB
  0
TABLE
  2
UCS
 70
     0
  0
ENDTAB
  0
TABLE
  2
APPID
 70
    39
  0
APPID
  2
ACAD
 70
     0
  0
APPID
  2
ACAD_MLEADERVER
 70
     0
  0
APPID
  2
ACAD_NAV_VCDISPLAY
 70
     0
  0
APPID
  2
ACAD_EXEMPT_FROM_CAD_STANDARDS
 70
     0
  0
APPID
  2
DCO15
 70
     0
  0
APPID
  2
GENIUS_GENOREF_13
 70
     0
  0
APPID
  2
GENIUS_GENOENT_13
 70
     0
  0
APPID
  2
GENIUS_GENBH_13
 70
     0
  0
APPID
  2
GENIUS_GENOBJ_13
 70
     0
  0
APPID
  2
GENIUS_GENODEF_13
 70
     0
  0
APPID
  2
GENIUS_GENOLIS_13
 70
     0
  0
APPID
  2
GENIUS_GENOBJ-NBEHI-BHF_13
 70
     0
  0
APPID
  2
GENIUS_GENOBJ-NBEHI-BHB_13
 70
     0
  0
APPID
  2
GENIUS_GENOBJ-F-PART_13
 70
     0
  0
APPID
  2
GENIUS_GEFSTDP_13
 70
     0
  0
APPID
  2
GENIUS_GENOBJ-N-RSSYM_13
 70
     0
  0
APPID
  2
GENIUS_GENSYMENT_13
 70
     0
  0
APPID
  2
GENIUS_GENOBJ-N-TIT_13
 70
     0
  0
APPID
  2
GENIUS_GENTITLE_13
 70
     0
  0
APPID
  2
GENIUS_GENZVEED_13
 70
     0
  0
APPID
  2
GENIUS_GENOBJ-N-LEADER_13
 70
     0
  0
APPID
  2
GENIUS_GENOBJ-N-FIL_13
 70
     0
  0
APPID
  2
GENIUS_GENOBJ-N-SEC_13
 70
     0
  0
APPID
  2
GENIUS_GENOBJ-N-CRS_13
 70
     0
  0
APPID
  2
GENIUS_GENOBJ-N-ZOO_13
 70
     0
  0
APPID
  2
GENIUS_GENZOO_13
 70
     0
  0
APPID
  2
GENIUS_GENOBJ-F-TOL_13
 70
     0
  0
APPID
  2
GENIUS_GENFIL_13
 70
     0
  0
APPID
  2
GENIUS_GENOBJ-N-CHA_13
 70
     0
  0
APPID
  2
_CALL_MAC$
 70
     0
  0
APPID
  2
ASM_BASE
 70
     0
  0
APPID
  2
ASM_EXPLO_VER_2_00
 70
     0
  0
APPID
  2
ASM_CADM_VER_12_00
 70
     0
  0
APPID
  2
ASM_BASEFORO
 70
     0
  0
APPID
  2
ASM_BASETRAVI
 70
     0
  0
APPID
  2
ASM_BASETRAVI1
 70
     0
  0
APPID
  2
ASM_GRUPPI
 70
     0
  0
APPID
  2
ASM_CADM_ALBERO
 70
     0
  0
APPID
  2
ASM_GOLE
 70
     0
  0
ENDTAB
  0
TABLE
  2
DIMSTYLE
 70
     1
  0
DIMSTYLE
  2
STANDARD
 70
     0
  3

  4

  5

  6

  7

 40
1.0
 41
0.18
 42
0.0625
 43
0.38
 44
0.18
 45
0.0
 46
0.0
 47
0.0
 48
0.0
140
0.18
141
0.09
142
0.0
143
25.399999999999999
144
1.0
145
0.0
146
1.0
147
0.09
 71
     0
 72
     0
 73
     1
 74
     1
 75
     0
 76
     0
 77
     0
 78
     0
170
     0
171
     2
172
     0
173
     0
174
     0
175
     0
176
     0
177
     0
178
     0
  0
ENDTAB
  0
ENDSEC
  0
SECTION
  2
BLOCKS
  0
BLOCK
  8
0
  2
$MODEL_SPACE
 70
     0
 10
0.0
 20
0.0
 30
0.0
  3
$MODEL_SPACE
  1

  0
ENDBLK
  5
54A
  8
0
  0
BLOCK
 67
     1
  8
0
  2
$PAPER_SPACE
 70
     0
 10
0.0
 20
0.0
 30
0.0
  3
$PAPER_SPACE
  1

  0
ENDBLK
  5
548
 67
     1
  8
0
  0
ENDSEC
  0
SECTION
  2
ENTITIES
  0
TEXT
  5
607
  8
0
 62
     3
 10
0.0
 20
0.0
 30
0.0
 40
10.0
  1
BJ351-06001
  7
STANDARD1
  0
LINE
  5
C11
  8
1
 10
146.12419611492351
 20
172.00000000000031
 30
0.0
 11
146.12419611492351
 21
134.00000000000031
 31
0.0
  0
LINE
  5
C12
  8
1
 10
115.5601492563521
 20
153.0000000000002
 30
0.0
 11
165.12419611492351
 21
153.00000000000031
 31
0.0
  0
CIRCLE
  5
C13
  8
10
 10
146.12419611492351
 20
153.00000000000031
 30
0.0
 40
14.0
  0
CIRCLE
  5
C36
  8
0
 10
146.12419611492351
 20
153.00000000000031
 30
0.0
 40
7.0
  0
CIRCLE
  5
C37
  8
0
 10
146.12419611492351
 20
153.00000000000031
 30
0.0
 40
2.5
  0
CIRCLE
  5
C38
  8
3
 10
146.12419611492351
 20
153.00000000000031
 30
0.0
 40
3.0
  0
LINE
  5
C3B
  8
0
 10
144.12419611492331
 20
154.1547005383793
 30
0.0
 11
144.12419611492371
 21
151.84529946162121
 31
0.0
  0
LINE
  5
C3C
  8
0
 10
148.12419611492351
 20
151.84529946162121
 30
0.0
 11
148.12419611492351
 21
154.15470053838001
 31
0.0
  0
LINE
  5
C3D
  8
0
 10
146.12419611492371
 20
150.69059892324191
 30
0.0
 11
148.12419611492351
 21
151.84529946162121
 31
0.0
  0
LINE
  5
C3E
  8
0
 10
144.12419611492371
 20
151.84529946162121
 30
0.0
 11
146.12419611492371
 21
150.69059892324191
 31
0.0
  0
LINE
  5
C3F
  8
0
 10
148.12419611492351
 20
154.15470053838001
 30
0.0
 11
146.12419611492351
 21
155.30940107675889
 31
0.0
  0
LINE
  5
C40
  8
0
 10
146.12419611492351
 20
155.30940107675889
 30
0.0
 11
144.12419611492331
 21
154.1547005383793
 31
0.0
  0
LINE
  5
C55
  8
2
 10
139.7015463841131
 20
76.000000000000284
 30
0.0
 11
152.5468458457338
 21
76.000000000000284
 31
0.0
1001
ACAD
1000
ASC_BOUNDS
1002
{
1070
    19
1002
}
  0
LINE
  5
C56
  8
2
 10
139.12419611492351
 20
77.000000000000284
 30
0.0
 11
139.7015463841131
 21
76.000000000000284
 31
0.0
1001
ACAD
1000
ASC_BOUNDS
1002
{
1070
    19
1002
}
  0
LINE
  5
C58
  8
2
 10
153.12419611492351
 20
77.000000000000284
 30
0.0
 11
152.5468458457338
 21
76.000000000000284
 31
0.0
1001
ACAD
1000
ASC_BOUNDS
1002
{
1070
    19
1002
}
  0
LINE
  5
C59
  8
0
 10
153.12419611492351
 20
98.500000000000284
 30
0.0
 11
153.12419611492351
 21
93.000000000000298
 31
0.0
1001
ACAD
1000
ASC_BOUNDS
1002
{
1070
    19
1002
}
  0
LINE
  5
C5A
  8
0
 10
139.12419611492351
 20
98.500000000000284
 30
0.0
 11
139.12419611492351
 21
93.000000000000284
 31
0.0
1001
ACAD
1000
ASC_BOUNDS
1002
{
1070
    19
1002
}
  0
LINE
  5
C5B
  8
0
 10
152.62419611492351
 20
99.000000000000284
 30
0.0
 11
139.62419611492351
 21
99.000000000000284
 31
0.0
1001
ACAD
1000
ASC_BOUNDS
1002
{
1070
    19
1002
}
  0
LINE
  5
C5C
  8
0
 10
139.12419611492351
 20
98.500000000000284
 30
0.0
 11
153.12419611492351
 21
98.500000000000284
 31
0.0
  0
LINE
  5
C5D
  8
0
 10
139.62419611492351
 20
99.000000000000284
 30
0.0
 11
139.12419611492351
 21
98.500000000000284
 31
0.0
1001
ACAD
1000
ASC_BOUNDS
1002
{
1070
    19
1002
}
  0
LINE
  5
C5E
  8
0
 10
152.62419611492351
 20
99.000000000000284
 30
0.0
 11
153.12419611492351
 21
98.500000000000284
 31
0.0
1001
ACAD
1000
ASC_BOUNDS
1002
{
1070
    19
1002
}
  0
ARC
  5
C5F
  8
2
 10
147.87991507299211
 20
66.600000000000932
 30
0.0
 40
3.5
 50
3.2758289597832979
 51
76.27086732450978
  0
LINE
  5
C60
  8
2
 10
140.87419611492351
 20
66.800000000000011
 30
0.0
 11
151.37419611492351
 21
66.800000000000011
 31
0.0
  0
ARC
  5
C62
  8
2
 10
144.36847715685479
 20
66.600000000000932
 30
0.0
 40
3.5
 50
103.72913267549021
 51
176.7241710402167
  0
LINE
  5
C63
  8
2
 10
140.87419611492351
 20
66.799999999993616
 30
0.0
 11
140.87419611492351
 21
66.0
 31
0.0
  0
LINE
  5
C64
  8
2
 10
143.53781477056049
 20
70.0
 30
0.0
 11
148.71057745928641
 21
70.0
 31
0.0
  0
LINE
  5
C65
  8
2
 10
151.37419611492351
 20
66.800000000000011
 30
0.0
 11
151.37419611492351
 21
66.0
 31
0.0
  0
LINE
  5
C67
  8
1
 10
146.12419611492351
 20
104.0
 30
0.0
 11
146.12419611492351
 21
45.0
 31
0.0
  0
LINE
  5
C68
  8
0
 10
143.12419611492339
 20
60.0
 30
0.0
 11
143.12419611492339
 21
51.0
 31
0.0
  0
LINE
  5
C69
  8
3
 10
143.66569611492341
 20
60.0
 30
0.0
 11
143.66569611492341
 21
50.458500000000072
 31
0.0
  0
LINE
  5
C6A
  8
3
 10
148.58269611492361
 20
60.0
 30
0.0
 11
148.58269611492361
 21
50.458500000000072
 31
0.0
  0
LINE
  5
C6B
  8
0
 10
149.12419611492339
 20
60.0
 30
0.0
 11
149.12419611492339
 21
51.0
 31
0.0
  0
LINE
  5
C6C
  8
0
 10
143.12419611492339
 20
51.0
 30
0.0
 11
149.12419611492339
 21
51.0
 31
0.0
  0
LINE
  5
C6D
  8
0
 10
148.12419611492339
 20
50.0
 30
0.0
 11
144.12419611492339
 21
50.0
 31
0.0
  0
LINE
  5
C6E
  8
0
 10
144.12419611492339
 20
50.0
 30
0.0
 11
143.12419611492339
 21
51.0
 31
0.0
  0
LINE
  5
C6F
  8
0
 10
149.12419611492339
 20
51.0
 30
0.0
 11
148.12419611492339
 21
50.0
 31
0.0
  0
LINE
  5
C72
  8
0
 10
159.12419611492351
 20
92.999999999999972
 30
0.0
 11
133.12419611492359
 21
93.000000000000057
 31
0.0
1001
ACAD
1000
ASC_BOUNDS
1002
{
1070
    19
1005
0
1002
}
  0
LINE
  5
C73
  8
0
 10
132.12419611492351
 20
91.999999999999972
 30
0.0
 11
160.12419611492351
 21
91.999999999999972
 31
0.0
  0
LINE
  5
C74
  8
0
 10
133.12419611492351
 20
60.0
 30
0.0
 11
159.12419611492351
 21
60.0
 31
0.0
1001
ACAD
1000
ASC_BOUNDS
1002
{
1070
    19
1005
0
1002
}
  0
LINE
  5
C75
  8
0
 10
132.12419611492351
 20
61.0
 30
0.0
 11
160.12419611492351
 21
61.0
 31
0.0
  0
LINE
  5
C7A
  8
0
 10
132.12419611492351
 20
91.999999999999972
 30
0.0
 11
132.12419611492351
 21
61.0
 31
0.0
1001
ACAD
1000
ASC_BOUNDS
1002
{
1070
    19
1002
}
  0
LINE
  5
C7B
  8
0
 10
132.12419611492351
 20
61.0
 30
0.0
 11
133.12419611492351
 21
60.0
 31
0.0
1001
ACAD
1000
ASC_BOUNDS
1002
{
1070
    19
1005
0
1002
}
  0
LINE
  5
C86
  8
0
 10
133.12419611492351
 20
92.999999999999972
 30
0.0
 11
132.12419611492351
 21
91.999999999999972
 31
0.0
1001
ACAD
1000
ASC_BOUNDS
1002
{
1070
    19
1002
}
  0
LINE
  5
C87
  8
2
 10
139.12419611492351
 20
92.999999999999972
 30
0.0
 11
139.12419611492351
 21
66.799999999999983
 31
0.0
1001
ACAD
1000
ASC_BOUNDS
1002
{
1070
    19
1005
0
1005
0
1005
0
1002
}
  0
LINE
  5
C88
  8
2
 10
153.12419611492351
 20
66.800000000000011
 30
0.0
 11
153.12419611492351
 21
92.999999999999972
 31
0.0
1001
ACAD
1000
ASC_BOUNDS
1002
{
1070
    19
1002
}
  0
LINE
  5
C89
  8
0
 10
147.1241961141082
 20
80.422649731280103
 30
0.0
 11
146.12419611410911
 21
79.845299462090338
 31
0.0
  0
CIRCLE
  5
C8A
  8
0
 10
146.12419611492351
 20
81.0
 30
0.0
 40
2.0
  0
CIRCLE
  5
C8B
  8
3
 10
146.12419611492351
 20
81.0
 30
0.0
 40
1.6209999999999991
  0
LINE
  5
C8C
  8
0
 10
160.12419611492351
 20
91.999999999999972
 30
0.0
 11
160.12419611492351
 21
61.0
 31
0.0
1001
ACAD
1000
ASC_BOUNDS
1002
{
1070
    19
1002
}
  0
LINE
  5
C8D
  8
0
 10
146.12419611492311
 20
79.845299462561002
 30
0.0
 11
145.12419611492311
 21
80.422649731750425
 31
0.0
  0
LINE
  5
C8E
  8
2
 10
139.92419611492349
 20
66.0
 30
0.0
 11
152.32419611492341
 21
66.0
 31
0.0
1001
ACAD
1000
ASC_BOUNDS
1002
{
1070
    19
1005
0
1002
}
  0
LINE
  5
C91
  8
2
 10
139.12419611492351
 20
66.799999999999983
 30
0.0
 11
139.92419611492349
 21
66.0
 31
0.0
1001
ACAD
1000
ASC_BOUNDS
1002
{
1070
    19
1005
0
1002
}
  0
LINE
  5
C92
  8
2
 10
152.32419611492341
 20
66.0
 30
0.0
 11
153.12419611492351
 21
66.800000000000011
 31
0.0
1001
ACAD
1000
ASC_BOUNDS
1002
{
1070
    19
1002
}
  0
LINE
  5
C93
  8
0
 10
160.12419611492351
 20
61.0
 30
0.0
 11
159.12419611492351
 21
60.0
 31
0.0
1001
ACAD
1000
ASC_BOUNDS
1002
{
1070
    19
1005
0
1002
}
  0
LINE
  5
C94
  8
1
 10
142.12419611492351
 20
81.0
 30
0.0
 11
150.12419611492351
 21
81.0
 31
0.0
  0
LINE
  5
C95
  8
0
 10
146.12419611492311
 20
82.154700537438984
 30
0.0
 11
147.12419611492319
 21
81.577350268249575
 31
0.0
  0
LINE
  5
C96
  8
0
 10
145.12419611573711
 20
81.577350268719897
 30
0.0
 11
146.12419611573711
 21
82.154700537909662
 31
0.0
  0
LINE
  5
C97
  8
0
 10
145.12419611573711
 20
80.422649731280686
 30
0.0
 11
145.12419611573711
 21
81.577350269659846
 31
0.0
  0
LINE
  5
C98
  8
0
 10
147.12419611410911
 20
81.577350268720025
 30
0.0
 11
147.12419611410911
 21
80.422649730340822
 31
0.0
  0
LINE
  5
C99
  8
0
 10
159.12419611492351
 20
92.999999999999972
 30
0.0
 11
160.12419611492351
 21
91.999999999999972
 31
0.0
1001
ACAD
1000
ASC_BOUNDS
1002
{
1070
    19
1002
}
  0
LINE
  5
C9A
  8
1
 10
130.14881943373319
 20
67.687131069919843
 30
0.0
 11
141.09957279611379
 21
69.421560012352529
 31
0.0
  0
LINE
  5
C9B
  8
2
 10
132.12419611492351
 20
69.265581407235274
 30
0.0
 11
139.12419611492351
 21
70.374272489507064
 31
0.0
  0
LINE
  5
C9C
  8
2
 10
132.12419611492351
 20
66.73441859276528
 30
0.0
 11
139.12419611492351
 21
67.843109675037056
 31
0.0
  0
LINE
  5
CB1
  8
0
 10
71.0
 20
98.500000000000284
 30
0.0
 11
70.999999999999986
 21
93.000000000000298
 31
0.0
1001
ACAD
1000
ASC_BOUNDS
1002
{
1070
    19
1002
}
  0
LINE
  5
CB2
  8
0
 10
57.0
 20
98.500000000000284
 30
0.0
 11
57.000000000000007
 21
93.000000000000284
 31
0.0
1001
ACAD
1000
ASC_BOUNDS
1002
{
1070
    19
1002
}
  0
LINE
  5
CB3
  8
0
 10
70.5
 20
99.000000000000284
 30
0.0
 11
57.5
 21
99.000000000000284
 31
0.0
1001
ACAD
1000
ASC_BOUNDS
1002
{
1070
    19
1002
}
  0
LINE
  5
CB4
  8
0
 10
57.0
 20
98.500000000000284
 30
0.0
 11
71.0
 21
98.500000000000284
 31
0.0
  0
LINE
  5
CB5
  8
0
 10
57.5
 20
99.000000000000284
 30
0.0
 11
57.0
 21
98.500000000000284
 31
0.0
1001
ACAD
1000
ASC_BOUNDS
1002
{
1070
    19
1002
}
  0
LINE
  5
CB6
  8
0
 10
70.5
 20
99.000000000000284
 30
0.0
 11
71.0
 21
98.500000000000284
 31
0.0
1001
ACAD
1000
ASC_BOUNDS
1002
{
1070
    19
1002
}
  0
LINE
  5
CB8
  8
1
 10
64.0
 20
104.0
 30
0.0
 11
64.0
 21
45.0
 31
0.0
  0
LINE
  5
CB9
  8
3
 10
61.541499999999928
 20
60.0
 30
0.0
 11
61.541499999999928
 21
50.458500000000072
 31
0.0
  0
LINE
  5
CBA
  8
0
 10
60.999999999999879
 20
60.0
 30
0.0
 11
60.999999999999879
 21
51.0
 31
0.0
  0
LINE
  5
CBB
  8
0
 10
66.999999999999886
 20
60.0
 30
0.0
 11
66.999999999999886
 21
51.0
 31
0.0
  0
LINE
  5
CBC
  8
3
 10
66.458500000000072
 20
60.0
 30
0.0
 11
66.458500000000072
 21
50.458500000000072
 31
0.0
  0
LINE
  5
CBE
  8
0
 10
60.999999999999879
 20
51.0
 30
0.0
 11
66.999999999999886
 21
51.0
 31
0.0
  0
LINE
  5
CBF
  8
0
 10
65.999999999999886
 20
50.0
 30
0.0
 11
61.999999999999879
 21
50.0
 31
0.0
  0
LINE
  5
CC0
  8
0
 10
61.999999999999879
 20
50.0
 30
0.0
 11
60.999999999999879
 21
51.0
 31
0.0
  0
LINE
  5
CC1
  8
0
 10
66.999999999999886
 20
51.0
 30
0.0
 11
65.999999999999886
 21
50.0
 31
0.0
  0
LINE
  5
CC2
  8
0
 10
64.0
 20
82.758329260460044
 30
0.0
 11
61.5
 21
81.314953260460044
 31
0.0
  0
POLYLINE
  5
CC3
  8
0
 66
     1
 10
0.0
 20
0.0
 30
0.0
  0
VERTEX
  5
CC4
  8
0
 10
64.0
 20
85.748626753677456
 30
0.0
 42
0.097391
  0
VERTEX
  5
CC5
  8
0
 10
62.083660000000009
 20
85.371784753677446
 30
0.0
 42
0.098029
  0
VERTEX
  5
CC6
  8
0
 10
60.464466000000002
 20
84.302190753677451
 30
0.0
 42
0.098944
 70
     2
 50
224.645117
  0
VERTEX
  5
CC7
  8
0
 10
59.379650999999988
 20
82.697118753677444
 30
0.0
 42
0.099602
 50
224.645117
  0
VERTEX
  5
CC8
  8
0
 10
59.0
 20
80.810184753677476
 30
0.0
 42
0.099602
  0
SEQEND
  5
CC9
  8
0
  0
LINE
  5
CCA
  8
0
 10
77.000000000000014
 20
92.999999999999972
 30
0.0
 11
51.0
 21
92.999999999999972
 31
0.0
1001
ACAD
1000
ASC_BOUNDS
1002
{
1070
    19
1005
0
1002
}
  0
LINE
  5
CCB
  8
0
 10
50.0
 20
91.999999999999972
 30
0.0
 11
78.0
 21
91.999999999999972
 31
0.0
  0
LINE
  5
CCC
  8
0
 10
61.5
 20
78.42820226046004
 30
0.0
 11
64.0
 21
76.984826260460039
 31
0.0
  0
LINE
  5
CCE
  8
0
 10
50.0
 20
61.0
 30
0.0
 11
78.0
 21
61.0
 31
0.0
  0
LINE
  5
CCF
  8
0
 10
51.0
 20
60.0
 30
0.0
 11
77.000000000000014
 21
60.000000000000007
 31
0.0
1001
ACAD
1000
ASC_BOUNDS
1002
{
1070
    19
1005
0
1002
}
  0
LINE
  5
CD0
  8
1
 10
57.0
 20
79.871578260460041
 30
0.0
 11
71.0
 21
79.871578260460041
 31
0.0
  0
LINE
  5
CD3
  8
0
 10
61.5
 20
81.314953260460044
 30
0.0
 11
61.5
 21
78.42820226046004
 31
0.0
  0
LINE
  5
CD5
  8
0
 10
50.0
 20
91.999999999999972
 30
0.0
 11
50.0
 21
61.0
 31
0.0
1001
ACAD
1000
ASC_BOUNDS
1002
{
1070
    19
1005
0
1005
0
1002
}
  0
LINE
  5
CD6
  8
0
 10
51.0
 20
60.0
 30
0.0
 11
50.0
 21
61.0
 31
0.0
1001
ACAD
1000
ASC_BOUNDS
1002
{
1070
    19
1005
0
1005
0
1002
}
  0
LINE
  5
CD8
  8
0
 10
51.0
 20
92.999999999999972
 30
0.0
 11
50.0
 21
91.999999999999972
 31
0.0
1001
ACAD
1000
ASC_BOUNDS
1002
{
1070
    19
1005
0
1005
0
1002
}
  0
LINE
  5
CDA
  8
0
 10
78.0
 20
91.999999999999972
 30
0.0
 11
78.0
 21
61.0
 31
0.0
1001
ACAD
1000
ASC_BOUNDS
1002
{
1070
    19
1002
}
  0
LINE
  5
CDB
  8
0
 10
69.0
 20
79.871578260460041
 30
0.0
 11
69.0
 21
80.810184260460048
 31
0.0
  0
LINE
  5
CDC
  8
0
 10
66.5
 20
78.42820226046004
 30
0.0
 11
66.5
 21
81.314953260460044
 31
0.0
  0
LINE
  5
CE1
  8
0
 10
78.0
 20
61.0
 30
0.0
 11
77.0
 21
60.0
 31
0.0
1001
ACAD
1000
ASC_BOUNDS
1002
{
1070
    19
1005
0
1002
}
  0
LINE
  5
CE3
  8
0
 10
64.0
 20
76.984826260460039
 30
0.0
 11
66.5
 21
78.42820226046004
 31
0.0
  0
POLYLINE
  5
CE8
  8
0
 66
     1
 10
0.0
 20
0.0
 30
0.0
  0
VERTEX
  5
CE9
  8
0
 10
69.0
 20
80.810184753677476
 30
0.0
 42
0.099602
  0
VERTEX
  5
CEA
  8
0
 10
68.620349000000004
 20
82.697118753677444
 30
0.0
 42
0.098944
  0
VERTEX
  5
CEB
  8
0
 10
67.535533999999998
 20
84.302190753677451
 30
0.0
 42
0.098029
 70
     2
 50
135.354883
  0
VERTEX
  5
CEC
  8
0
 10
65.916339999999991
 20
85.371784753677446
 30
0.0
 42
0.097391
 50
135.354883
  0
VERTEX
  5
CED
  8
0
 10
64.0
 20
85.748626753677456
 30
0.0
 42
0.097391
  0
SEQEND
  5
CEE
  8
0
  0
LINE
  5
CEF
  8
0
 10
66.5
 20
81.314953260460044
 30
0.0
 11
64.0
 21
82.758329260460044
 31
0.0
  0
LINE
  5
CF3
  8
0
 10
77.0
 20
92.999999999999972
 30
0.0
 11
78.0
 21
91.999999999999972
 31
0.0
1001
ACAD
1000
ASC_BOUNDS
1002
{
1070
    19
1002
}
  0
LINE
  5
D03
  8
0
 10
59.0
 20
80.810184260460048
 30
0.0
 11
59.0
 21
79.871578260460041
 31
0.0
  0
LINE
  5
D06
  8
1
 10
67.26558140723499
 20
68.000000000000298
 30
0.0
 11
60.73441859276501
 21
68.000000000000298
 31
0.0
  0
CIRCLE
  5
D07
  8
0
 10
64.0
 20
68.000000000000298
 30
0.0
 40
1.2655814072349889
  0
CIRCLE
  5
E58
  8
0
 10
64.0
 20
79.871578260460041
 30
0.0
 40
4.3071799999999998
  0
CIRCLE
  5
E59
  8
0
 10
64.0
 20
79.871578260460041
 30
0.0
 40
5.0
  0
LINE
  5
E5C
  8
0
 10
132.4494017837462
 20
150.00000000000031
 30
0.0
 11
124.6120001766045
 21
150.0000000000002
 31
0.0
  0
LINE
  5
E5D
  8
3
 10
132.3417515657878
 20
150.54150000000021
 30
0.0
 11
124.3268368911158
 21
150.54150000000021
 31
0.0
  0
LINE
  5
E5E
  8
3
 10
132.34175156578789
 20
155.45850000000041
 30
0.0
 11
124.3268368911158
 21
155.4585000000005
 31
0.0
  0
LINE
  5
E5F
  8
0
 10
132.4494017837462
 20
156.00000000000031
 30
0.0
 11
124.6120001766045
 21
156.0000000000002
 31
0.0
  0
POLYLINE
  5
E60
  8
0
 10
118.42222859070705
 20
156.97787767614051
 30
0.0
 66
     1
 70
     8
  0
VERTEX
  8
0
  5
3125
 10
118.422
 20
156.978
 30
0.000000
  70
    32
  0
VERTEX
  8
0
  5
3126
 10
118.412
 20
156.938
 30
0.000000
  70
    32
  0
VERTEX
  8
0
  5
3127
 10
118.402
 20
156.896
 30
0.000000
  70
    32
  0
VERTEX
  8
0
  5
3128
 10
118.392
 20
156.854
 30
0.000000
  70
    32
  0
VERTEX
  8
0
  5
3129
 10
118.382
 20
156.811
 30
0.000000
  70
    32
  0
VERTEX
  8
0
  5
312A
 10
118.372
 20
156.767
 30
0.000000
  70
    32
  0
VERTEX
  8
0
  5
312B
 10
118.362
 20
156.722
 30
0.000000
  70
    32
  0
VERTEX
  8
0
  5
312C
 10
118.352
 20
156.676
 30
0.000000
  70
    32
  0
VERTEX
  8
0
  5
312D
 10
118.343
 20
156.630
 30
0.000000
  70
    32
  0
VERTEX
  8
0
  5
312E
 10
118.334
 20
156.582
 30
0.000000
  70
    32
  0
VERTEX
  8
0
  5
312F
 10
118.324
 20
156.533
 30
0.000000
  70
    32
  0
VERTEX
  8
0
  5
3130
 10
118.315
 20
156.484
 30
0.000000
  70
    32
  0
VERTEX
  8
0
  5
3131
 10
118.306
 20
156.434
 30
0.000000
  70
    32
  0
VERTEX
  8
0
  5
3132
 10
118.297
 20
156.383
 30
0.000000
  70
    32
  0
VERTEX
  8
0
  5
3133
 10
118.289
 20
156.331
 30
0.000000
  70
    32
  0
VERTEX
  8
0
  5
3134
 10
118.280
 20
156.278
 30
0.000000
  70
    32
  0
VERTEX
  8
0
  5
3135
 10
118.272
 20
156.224
 30
0.000000
  70
    32
  0
VERTEX
  8
0
  5
3136
 10
118.263
 20
156.170
 30
0.000000
  70
    32
  0
VERTEX
  8
0
  5
3137
 10
118.255
 20
156.115
 30
0.000000
  70
    32
  0
VERTEX
  8
0
  5
3138
 10
118.247
 20
156.059
 30
0.000000
  70
    32
  0
VERTEX
  8
0
  5
3139
 10
118.239
 20
156.002
 30
0.000000
  70
    32
  0
VERTEX
  8
0
  5
313A
 10
118.231
 20
155.945
 30
0.000000
  70
    32
  0
VERTEX
  8
0
  5
313B
 10
118.224
 20
155.887
 30
0.000000
  70
    32
  0
VERTEX
  8
0
  5
313C
 10
118.216
 20
155.828
 30
0.000000
  70
    32
  0
VERTEX
  8
0
  5
313D
 10
118.209
 20
155.768
 30
0.000000
  70
    32
  0
VERTEX
  8
0
  5
313E
 10
118.202
 20
155.708
 30
0.000000
  70
    32
  0
VERTEX
  8
0
  5
313F
 10
118.195
 20
155.647
 30
0.000000
  70
    32
  0
VERTEX
  8
0
  5
3140
 10
118.188
 20
155.586
 30
0.000000
  70
    32
  0
VERTEX
  8
0
  5
3141
 10
118.182
 20
155.524
 30
0.000000
  70
    32
  0
VERTEX
  8
0
  5
3142
 10
118.175
 20
155.461
 30
0.000000
  70
    32
  0
VERTEX
  8
0
  5
3143
 10
118.169
 20
155.397
 30
0.000000
  70
    32
  0
VERTEX
  8
0
  5
3144
 10
118.163
 20
155.333
 30
0.000000
  70
    32
  0
VERTEX
  8
0
  5
3145
 10
118.157
 20
155.269
 30
0.000000
  70
    32
  0
VERTEX
  8
0
  5
3146
 10
118.151
 20
155.204
 30
0.000000
  70
    32
  0
VERTEX
  8
0
  5
3147
 10
118.145
 20
155.138
 30
0.000000
  70
    32
  0
VERTEX
  8
0
  5
3148
 10
118.140
 20
155.072
 30
0.000000
  70
    32
  0
VERTEX
  8
0
  5
3149
 10
118.134
 20
155.005
 30
0.000000
  70
    32
  0
VERTEX
  8
0
  5
314A
 10
118.129
 20
154.938
 30
0.000000
  70
    32
  0
VERTEX
  8
0
  5
314B
 10
118.124
 20
154.870
 30
0.000000
  70
    32
  0
VERTEX
  8
0
  5
314C
 10
118.120
 20
154.802
 30
0.000000
  70
    32
  0
VERTEX
  8
0
  5
314D
 10
118.115
 20
154.734
 30
0.000000
  70
    32
  0
VERTEX
  8
0
  5
314E
 10
118.110
 20
154.665
 30
0.000000
  70
    32
  0
VERTEX
  8
0
  5
314F
 10
118.106
 20
154.595
 30
0.000000
  70
    32
  0
VERTEX
  8
0
  5
3150
 10
118.102
 20
154.525
 30
0.000000
  70
    32
  0
VERTEX
  8
0
  5
3151
 10
118.098
 20
154.455
 30
0.000000
  70
    32
  0
VERTEX
  8
0
  5
3152
 10
118.095
 20
154.385
 30
0.000000
  70
    32
  0
VERTEX
  8
0
  5
3153
 10
118.091
 20
154.314
 30
0.000000
  70
    32
  0
VERTEX
  8
0
  5
3154
 10
118.088
 20
154.243
 30
0.000000
  70
    32
  0
VERTEX
  8
0
  5
3155
 10
118.085
 20
154.171
 30
0.000000
  70
    32
  0
VERTEX
  8
0
  5
3156
 10
118.082
 20
154.099
 30
0.000000
  70
    32
  0
VERTEX
  8
0
  5
3157
 10
118.079
 20
154.027
 30
0.000000
  70
    32
  0
VERTEX
  8
0
  5
3158
 10
118.076
 20
153.955
 30
0.000000
  70
    32
  0
VERTEX
  8
0
  5
3159
 10
118.074
 20
153.882
 30
0.000000
  70
    32
  0
VERTEX
  8
0
  5
315A
 10
118.072
 20
153.810
 30
0.000000
  70
    32
  0
VERTEX
  8
0
  5
315B
 10
118.070
 20
153.737
 30
0.000000
  70
    32
  0
VERTEX
  8
0
  5
315C
 10
118.068
 20
153.663
 30
0.000000
  70
    32
  0
VERTEX
  8
0
  5
315D
 10
118.066
 20
153.590
 30
0.000000
  70
    32
  0
VERTEX
  8
0
  5
315E
 10
118.065
 20
153.517
 30
0.000000
  70
    32
  0
VERTEX
  8
0
  5
315F
 10
118.064
 20
153.443
 30
0.000000
  70
    32
  0
VERTEX
  8
0
  5
3160
 10
118.063
 20
153.369
 30
0.000000
  70
    32
  0
VERTEX
  8
0
  5
3161
 10
118.062
 20
153.296
 30
0.000000
  70
    32
  0
VERTEX
  8
0
  5
3162
 10
118.061
 20
153.222
 30
0.000000
  70
    32
  0
VERTEX
  8
0
  5
3163
 10
118.061
 20
153.148
 30
0.000000
  70
    32
  0
VERTEX
  8
0
  5
3164
 10
118.060
 20
153.074
 30
0.000000
  70
    32
  0
VERTEX
  8
0
  5
3165
 10
118.060
 20
153.000
 30
0.000000
  70
    32
  0
VERTEX
  8
0
  5
3166
 10
118.060
 20
152.926
 30
0.000000
  70
    32
  0
VERTEX
  8
0
  5
3167
 10
118.061
 20
152.852
 30
0.000000
  70
    32
  0
VERTEX
  8
0
  5
3168
 10
118.061
 20
152.778
 30
0.000000
  70
    32
  0
VERTEX
  8
0
  5
3169
 10
118.062
 20
152.704
 30
0.000000
  70
    32
  0
VERTEX
  8
0
  5
316A
 10
118.063
 20
152.631
 30
0.000000
  70
    32
  0
VERTEX
  8
0
  5
316B
 10
118.064
 20
152.557
 30
0.000000
  70
    32
  0
VERTEX
  8
0
  5
316C
 10
118.065
 20
152.483
 30
0.000000
  70
    32
  0
VERTEX
  8
0
  5
316D
 10
118.066
 20
152.410
 30
0.000000
  70
    32
  0
VERTEX
  8
0
  5
316E
 10
118.068
 20
152.337
 30
0.000000
  70
    32
  0
VERTEX
  8
0
  5
316F
 10
118.070
 20
152.263
 30
0.000000
  70
    32
  0
VERTEX
  8
0
  5
3170
 10
118.072
 20
152.190
 30
0.000000
  70
    32
  0
VERTEX
  8
0
  5
3171
 10
118.074
 20
152.118
 30
0.000000
  70
    32
  0
VERTEX
  8
0
  5
3172
 10
118.076
 20
152.045
 30
0.000000
  70
    32
  0
VERTEX
  8
0
  5
3173
 10
118.079
 20
151.973
 30
0.000000
  70
    32
  0
VERTEX
  8
0
  5
3174
 10
118.082
 20
151.901
 30
0.000000
  70
    32
  0
VERTEX
  8
0
  5
3175
 10
118.085
 20
151.829
 30
0.000000
  70
    32
  0
VERTEX
  8
0
  5
3176
 10
118.088
 20
151.757
 30
0.000000
  70
    32
  0
VERTEX
  8
0
  5
3177
 10
118.091
 20
151.686
 30
0.000000
  70
    32
  0
VERTEX
  8
0
  5
3178
 10
118.095
 20
151.615
 30
0.000000
  70
    32
  0
VERTEX
  8
0
  5
3179
 10
118.098
 20
151.545
 30
0.000000
  70
    32
  0
VERTEX
  8
0
  5
317A
 10
118.102
 20
151.475
 30
0.000000
  70
    32
  0
VERTEX
  8
0
  5
317B
 10
118.106
 20
151.405
 30
0.000000
  70
    32
  0
VERTEX
  8
0
  5
317C
 10
118.110
 20
151.335
 30
0.000000
  70
    32
  0
VERTEX
  8
0
  5
317D
 10
118.115
 20
151.266
 30
0.000000
  70
    32
  0
VERTEX
  8
0
  5
317E
 10
118.120
 20
151.198
 30
0.000000
  70
    32
  0
VERTEX
  8
0
  5
317F
 10
118.124
 20
151.130
 30
0.000000
  70
    32
  0
VERTEX
  8
0
  5
3180
 10
118.129
 20
151.062
 30
0.000000
  70
    32
  0
VERTEX
  8
0
  5
3181
 10
118.134
 20
150.995
 30
0.000000
  70
    32
  0
VERTEX
  8
0
  5
3182
 10
118.140
 20
150.928
 30
0.000000
  70
    32
  0
VERTEX
  8
0
  5
3183
 10
118.145
 20
150.862
 30
0.000000
  70
    32
  0
VERTEX
  8
0
  5
3184
 10
118.151
 20
150.796
 30
0.000000
  70
    32
  0
VERTEX
  8
0
  5
3185
 10
118.157
 20
150.731
 30
0.000000
  70
    32
  0
VERTEX
  8
0
  5
3186
 10
118.163
 20
150.667
 30
0.000000
  70
    32
  0
VERTEX
  8
0
  5
3187
 10
118.169
 20
150.603
 30
0.000000
  70
    32
  0
VERTEX
  8
0
  5
3188
 10
118.175
 20
150.539
 30
0.000000
  70
    32
  0
VERTEX
  8
0
  5
3189
 10
118.182
 20
150.476
 30
0.000000
  70
    32
  0
VERTEX
  8
0
  5
318A
 10
118.188
 20
150.414
 30
0.000000
  70
    32
  0
VERTEX
  8
0
  5
318B
 10
118.195
 20
150.353
 30
0.000000
  70
    32
  0
VERTEX
  8
0
  5
318C
 10
118.202
 20
150.292
 30
0.000000
  70
    32
  0
VERTEX
  8
0
  5
318D
 10
118.209
 20
150.232
 30
0.000000
  70
    32
  0
VERTEX
  8
0
  5
318E
 10
118.216
 20
150.172
 30
0.000000
  70
    32
  0
VERTEX
  8
0
  5
318F
 10
118.224
 20
150.113
 30
0.000000
  70
    32
  0
VERTEX
  8
0
  5
3190
 10
118.231
 20
150.055
 30
0.000000
  70
    32
  0
VERTEX
  8
0
  5
3191
 10
118.239
 20
149.998
 30
0.000000
  70
    32
  0
VERTEX
  8
0
  5
3192
 10
118.247
 20
149.941
 30
0.000000
  70
    32
  0
VERTEX
  8
0
  5
3193
 10
118.255
 20
149.885
 30
0.000000
  70
    32
  0
VERTEX
  8
0
  5
3194
 10
118.263
 20
149.830
 30
0.000000
  70
    32
  0
VERTEX
  8
0
  5
3195
 10
118.272
 20
149.776
 30
0.000000
  70
    32
  0
VERTEX
  8
0
  5
3196
 10
118.280
 20
149.722
 30
0.000000
  70
    32
  0
VERTEX
  8
0
  5
3197
 10
118.289
 20
149.669
 30
0.000000
  70
    32
  0
VERTEX
  8
0
  5
3198
 10
118.297
 20
149.617
 30
0.000000
  70
    32
  0
VERTEX
  8
0
  5
3199
 10
118.306
 20
149.566
 30
0.000000
  70
    32
  0
VERTEX
  8
0
  5
319A
 10
118.315
 20
149.516
 30
0.000000
  70
    32
  0
VERTEX
  8
0
  5
319B
 10
118.324
 20
149.467
 30
0.000000
  70
    32
  0
VERTEX
  8
0
  5
319C
 10
118.334
 20
149.418
 30
0.000000
  70
    32
  0
VERTEX
  8
0
  5
319D
 10
118.343
 20
149.370
 30
0.000000
  70
    32
  0
VERTEX
  8
0
  5
319E
 10
118.352
 20
149.324
 30
0.000000
  70
    32
  0
VERTEX
  8
0
  5
319F
 10
118.362
 20
149.278
 30
0.000000
  70
    32
  0
VERTEX
  8
0
  5
31A0
 10
118.372
 20
149.233
 30
0.000000
  70
    32
  0
VERTEX
  8
0
  5
31A1
 10
118.382
 20
149.189
 30
0.000000
  70
    32
  0
VERTEX
  8
0
  5
31A2
 10
118.392
 20
149.146
 30
0.000000
  70
    32
  0
VERTEX
  8
0
  5
31A3
 10
118.402
 20
149.104
 30
0.000000
  70
    32
  0
VERTEX
  8
0
  5
31A4
 10
118.412
 20
149.062
 30
0.000000
  70
    32
  0
VERTEX
  8
0
  5
31A5
 10
118.422
 20
149.022
 30
0.000000
  70
    32
  0
SEQEND
  8
0
  5
31A6
  0
POLYLINE
  5
E62
  8
0
 10
124.6120001766045
 20
156.00000000000023
 30
0.0
 66
     1
 70
     8
  0
VERTEX
  8
0
  5
31A7
 10
124.612
 20
156.000
 30
0.000000
  70
    32
  0
VERTEX
  8
0
  5
31A8
 10
124.600
 20
155.999
 30
0.000000
  70
    32
  0
VERTEX
  8
0
  5
31A9
 10
124.588
 20
155.996
 30
0.000000
  70
    32
  0
VERTEX
  8
0
  5
31AA
 10
124.575
 20
155.992
 30
0.000000
  70
    32
  0
VERTEX
  8
0
  5
31AB
 10
124.563
 20
155.986
 30
0.000000
  70
    32
  0
VERTEX
  8
0
  5
31AC
 10
124.551
 20
155.977
 30
0.000000
  70
    32
  0
VERTEX
  8
0
  5
31AD
 10
124.539
 20
155.968
 30
0.000000
  70
    32
  0
VERTEX
  8
0
  5
31AE
 10
124.527
 20
155.956
 30
0.000000
  70
    32
  0
VERTEX
  8
0
  5
31AF
 10
124.515
 20
155.942
 30
0.000000
  70
    32
  0
VERTEX
  8
0
  5
31B0
 10
124.503
 20
155.927
 30
0.000000
  70
    32
  0
VERTEX
  8
0
  5
31B1
 10
124.491
 20
155.910
 30
0.000000
  70
    32
  0
VERTEX
  8
0
  5
31B2
 10
124.479
 20
155.891
 30
0.000000
  70
    32
  0
VERTEX
  8
0
  5
31B3
 10
124.468
 20
155.871
 30
0.000000
  70
    32
  0
VERTEX
  8
0
  5
31B4
 10
124.456
 20
155.849
 30
0.000000
  70
    32
  0
VERTEX
  8
0
  5
31B5
 10
124.444
 20
155.825
 30
0.000000
  70
    32
  0
VERTEX
  8
0
  5
31B6
 10
124.433
 20
155.799
 30
0.000000
  70
    32
  0
VERTEX
  8
0
  5
31B7
 10
124.422
 20
155.772
 30
0.000000
  70
    32
  0
VERTEX
  8
0
  5
31B8
 10
124.410
 20
155.743
 30
0.000000
  70
    32
  0
VERTEX
  8
0
  5
31B9
 10
124.399
 20
155.712
 30
0.000000
  70
    32
  0
VERTEX
  8
0
  5
31BA
 10
124.388
 20
155.680
 30
0.000000
  70
    32
  0
VERTEX
  8
0
  5
31BB
 10
124.377
 20
155.646
 30
0.000000
  70
    32
  0
VERTEX
  8
0
  5
31BC
 10
124.367
 20
155.610
 30
0.000000
  70
    32
  0
VERTEX
  8
0
  5
31BD
 10
124.356
 20
155.573
 30
0.000000
  70
    32
  0
VERTEX
  8
0
  5
31BE
 10
124.346
 20
155.535
 30
0.000000
  70
    32
  0
VERTEX
  8
0
  5
31BF
 10
124.336
 20
155.494
 30
0.000000
  70
    32
  0
VERTEX
  8
0
  5
31C0
 10
124.325
 20
155.453
 30
0.000000
  70
    32
  0
VERTEX
  8
0
  5
31C1
 10
124.316
 20
155.410
 30
0.000000
  70
    32
  0
VERTEX
  8
0
  5
31C2
 10
124.306
 20
155.365
 30
0.000000
  70
    32
  0
VERTEX
  8
0
  5
31C3
 10
124.296
 20
155.319
 30
0.000000
  70
    32
  0
VERTEX
  8
0
  5
31C4
 10
124.287
 20
155.272
 30
0.000000
  70
    32
  0
VERTEX
  8
0
  5
31C5
 10
124.278
 20
155.223
 30
0.000000
  70
    32
  0
VERTEX
  8
0
  5
31C6
 10
124.269
 20
155.173
 30
0.000000
  70
    32
  0
VERTEX
  8
0
  5
31C7
 10
124.260
 20
155.121
 30
0.000000
  70
    32
  0
VERTEX
  8
0
  5
31C8
 10
124.252
 20
155.069
 30
0.000000
  70
    32
  0
VERTEX
  8
0
  5
31C9
 10
124.243
 20
155.015
 30
0.000000
  70
    32
  0
VERTEX
  8
0
  5
31CA
 10
124.235
 20
154.960
 30
0.000000
  70
    32
  0
VERTEX
  8
0
  5
31CB
 10
124.227
 20
154.903
 30
0.000000
  70
    32
  0
VERTEX
  8
0
  5
31CC
 10
124.220
 20
154.846
 30
0.000000
  70
    32
  0
VERTEX
  8
0
  5
31CD
 10
124.212
 20
154.787
 30
0.000000
  70
    32
  0
VERTEX
  8
0
  5
31CE
 10
124.205
 20
154.727
 30
0.000000
  70
    32
  0
VERTEX
  8
0
  5
31CF
 10
124.198
 20
154.667
 30
0.000000
  70
    32
  0
VERTEX
  8
0
  5
31D0
 10
124.192
 20
154.605
 30
0.000000
  70
    32
  0
VERTEX
  8
0
  5
31D1
 10
124.185
 20
154.542
 30
0.000000
  70
    32
  0
VERTEX
  8
0
  5
31D2
 10
124.179
 20
154.479
 30
0.000000
  70
    32
  0
VERTEX
  8
0
  5
31D3
 10
124.173
 20
154.414
 30
0.000000
  70
    32
  0
VERTEX
  8
0
  5
31D4
 10
124.168
 20
154.349
 30
0.000000
  70
    32
  0
VERTEX
  8
0
  5
31D5
 10
124.162
 20
154.283
 30
0.000000
  70
    32
  0
VERTEX
  8
0
  5
31D6
 10
124.157
 20
154.216
 30
0.000000
  70
    32
  0
VERTEX
  8
0
  5
31D7
 10
124.152
 20
154.148
 30
0.000000
  70
    32
  0
VERTEX
  8
0
  5
31D8
 10
124.148
 20
154.080
 30
0.000000
  70
    32
  0
VERTEX
  8
0
  5
31D9
 10
124.143
 20
154.011
 30
0.000000
  70
    32
  0
VERTEX
  8
0
  5
31DA
 10
124.140
 20
153.941
 30
0.000000
  70
    32
  0
VERTEX
  8
0
  5
31DB
 10
124.136
 20
153.871
 30
0.000000
  70
    32
  0
VERTEX
  8
0
  5
31DC
 10
124.132
 20
153.800
 30
0.000000
  70
    32
  0
VERTEX
  8
0
  5
31DD
 10
124.129
 20
153.729
 30
0.000000
  70
    32
  0
VERTEX
  8
0
  5
31DE
 10
124.126
 20
153.657
 30
0.000000
  70
    32
  0
VERTEX
  8
0
  5
31DF
 10
124.124
 20
153.585
 30
0.000000
  70
    32
  0
VERTEX
  8
0
  5
31E0
 10
124.122
 20
153.513
 30
0.000000
  70
    32
  0
VERTEX
  8
0
  5
31E1
 10
124.120
 20
153.440
 30
0.000000
  70
    32
  0
VERTEX
  8
0
  5
31E2
 10
124.118
 20
153.367
 30
0.000000
  70
    32
  0
VERTEX
  8
0
  5
31E3
 10
124.117
 20
153.294
 30
0.000000
  70
    32
  0
VERTEX
  8
0
  5
31E4
 10
124.116
 20
153.221
 30
0.000000
  70
    32
  0
VERTEX
  8
0
  5
31E5
 10
124.115
 20
153.147
 30
0.000000
  70
    32
  0
VERTEX
  8
0
  5
31E6
 10
124.115
 20
153.074
 30
0.000000
  70
    32
  0
VERTEX
  8
0
  5
31E7
 10
124.114
 20
153.000
 30
0.000000
  70
    32
  0
VERTEX
  8
0
  5
31E8
 10
124.115
 20
152.926
 30
0.000000
  70
    32
  0
VERTEX
  8
0
  5
31E9
 10
124.115
 20
152.853
 30
0.000000
  70
    32
  0
VERTEX
  8
0
  5
31EA
 10
124.116
 20
152.779
 30
0.000000
  70
    32
  0
VERTEX
  8
0
  5
31EB
 10
124.117
 20
152.706
 30
0.000000
  70
    32
  0
VERTEX
  8
0
  5
31EC
 10
124.118
 20
152.633
 30
0.000000
  70
    32
  0
VERTEX
  8
0
  5
31ED
 10
124.120
 20
152.560
 30
0.000000
  70
    32
  0
VERTEX
  8
0
  5
31EE
 10
124.122
 20
152.487
 30
0.000000
  70
    32
  0
VERTEX
  8
0
  5
31EF
 10
124.124
 20
152.415
 30
0.000000
  70
    32
  0
VERTEX
  8
0
  5
31F0
 10
124.126
 20
152.343
 30
0.000000
  70
    32
  0
VERTEX
  8
0
  5
31F1
 10
124.129
 20
152.271
 30
0.000000
  70
    32
  0
VERTEX
  8
0
  5
31F2
 10
124.132
 20
152.200
 30
0.000000
  70
    32
  0
VERTEX
  8
0
  5
31F3
 10
124.136
 20
152.129
 30
0.000000
  70
    32
  0
VERTEX
  8
0
  5
31F4
 10
124.140
 20
152.059
 30
0.000000
  70
    32
  0
VERTEX
  8
0
  5
31F5
 10
124.143
 20
151.989
 30
0.000000
  70
    32
  0
VERTEX
  8
0
  5
31F6
 10
124.148
 20
151.920
 30
0.000000
  70
    32
  0
VERTEX
  8
0
  5
31F7
 10
124.152
 20
151.852
 30
0.000000
  70
    32
  0
VERTEX
  8
0
  5
31F8
 10
124.157
 20
151.784
 30
0.000000
  70
    32
  0
VERTEX
  8
0
  5
31F9
 10
124.162
 20
151.717
 30
0.000000
  70
    32
  0
VERTEX
  8
0
  5
31FA
 10
124.168
 20
151.651
 30
0.000000
  70
    32
  0
VERTEX
  8
0
  5
31FB
 10
124.173
 20
151.586
 30
0.000000
  70
    32
  0
VERTEX
  8
0
  5
31FC
 10
124.179
 20
151.521
 30
0.000000
  70
    32
  0
VERTEX
  8
0
  5
31FD
 10
124.185
 20
151.458
 30
0.000000
  70
    32
  0
VERTEX
  8
0
  5
31FE
 10
124.192
 20
151.395
 30
0.000000
  70
    32
  0
VERTEX
  8
0
  5
31FF
 10
124.198
 20
151.333
 30
0.000000
  70
    32
  0
VERTEX
  8
0
  5
3200
 10
124.205
 20
151.273
 30
0.000000
  70
    32
  0
VERTEX
  8
0
  5
3201
 10
124.212
 20
151.213
 30
0.000000
  70
    32
  0
VERTEX
  8
0
  5
3202
 10
124.220
 20
151.154
 30
0.000000
  70
    32
  0
VERTEX
  8
0
  5
3203
 10
124.227
 20
151.097
 30
0.000000
  70
    32
  0
VERTEX
  8
0
  5
3204
 10
124.235
 20
151.040
 30
0.000000
  70
    32
  0
VERTEX
  8
0
  5
3205
 10
124.243
 20
150.985
 30
0.000000
  70
    32
  0
VERTEX
  8
0
  5
3206
 10
124.252
 20
150.931
 30
0.000000
  70
    32
  0
VERTEX
  8
0
  5
3207
 10
124.260
 20
150.879
 30
0.000000
  70
    32
  0
VERTEX
  8
0
  5
3208
 10
124.269
 20
150.827
 30
0.000000
  70
    32
  0
VERTEX
  8
0
  5
3209
 10
124.278
 20
150.777
 30
0.000000
  70
    32
  0
VERTEX
  8
0
  5
320A
 10
124.287
 20
150.728
 30
0.000000
  70
    32
  0
VERTEX
  8
0
  5
320B
 10
124.296
 20
150.681
 30
0.000000
  70
    32
  0
VERTEX
  8
0
  5
320C
 10
124.306
 20
150.635
 30
0.000000
  70
    32
  0
VERTEX
  8
0
  5
320D
 10
124.316
 20
150.590
 30
0.000000
  70
    32
  0
VERTEX
  8
0
  5
320E
 10
124.325
 20
150.547
 30
0.000000
  70
    32
  0
VERTEX
  8
0
  5
320F
 10
124.336
 20
150.506
 30
0.000000
  70
    32
  0
VERTEX
  8
0
  5
3210
 10
124.346
 20
150.465
 30
0.000000
  70
    32
  0
VERTEX
  8
0
  5
3211
 10
124.356
 20
150.427
 30
0.000000
  70
    32
  0
VERTEX
  8
0
  5
3212
 10
124.367
 20
150.390
 30
0.000000
  70
    32
  0
VERTEX
  8
0
  5
3213
 10
124.377
 20
150.354
 30
0.000000
  70
    32
  0
VERTEX
  8
0
  5
3214
 10
124.388
 20
150.320
 30
0.000000
  70
    32
  0
VERTEX
  8
0
  5
3215
 10
124.399
 20
150.288
 30
0.000000
  70
    32
  0
VERTEX
  8
0
  5
3216
 10
124.410
 20
150.257
 30
0.000000
  70
    32
  0
VERTEX
  8
0
  5
3217
 10
124.422
 20
150.228
 30
0.000000
  70
    32
  0
VERTEX
  8
0
  5
3218
 10
124.433
 20
150.201
 30
0.000000
  70
    32
  0
VERTEX
  8
0
  5
3219
 10
124.444
 20
150.175
 30
0.000000
  70
    32
  0
VERTEX
  8
0
  5
321A
 10
124.456
 20
150.151
 30
0.000000
  70
    32
  0
VERTEX
  8
0
  5
321B
 10
124.468
 20
150.129
 30
0.000000
  70
    32
  0
VERTEX
  8
0
  5
321C
 10
124.479
 20
150.109
 30
0.000000
  70
    32
  0
VERTEX
  8
0
  5
321D
 10
124.491
 20
150.090
 30
0.000000
  70
    32
  0
VERTEX
  8
0
  5
321E
 10
124.503
 20
150.073
 30
0.000000
  70
    32
  0
VERTEX
  8
0
  5
321F
 10
124.515
 20
150.058
 30
0.000000
  70
    32
  0
VERTEX
  8
0
  5
3220
 10
124.527
 20
150.044
 30
0.000000
  70
    32
  0
VERTEX
  8
0
  5
3221
 10
124.539
 20
150.032
 30
0.000000
  70
    32
  0
VERTEX
  8
0
  5
3222
 10
124.551
 20
150.023
 30
0.000000
  70
    32
  0
VERTEX
  8
0
  5
3223
 10
124.563
 20
150.014
 30
0.000000
  70
    32
  0
VERTEX
  8
0
  5
3224
 10
124.575
 20
150.008
 30
0.000000
  70
    32
  0
VERTEX
  8
0
  5
3225
 10
124.588
 20
150.004
 30
0.000000
  70
    32
  0
VERTEX
  8
0
  5
3226
 10
124.600
 20
150.001
 30
0.000000
  70
    32
  0
VERTEX
  8
0
  5
3227
 10
124.612
 20
150.000
 30
0.000000
  70
    32
  0
SEQEND
  8
0
  5
3228
  0
LINE
  5
E64
  8
0
 10
118.42222859070699
 20
149.0221223238602
 30
0.0
 11
119.69567204137
 21
148.0654607932637
 31
0.0
  0
LINE
  5
E66
  8
0
 10
119.6924515585731
 20
157.93193429769801
 30
0.0
 11
118.42222859070699
 21
156.97787767614039
 31
0.0
  0
LINE
  5
E6B
  8
0
 10
119.88274318815689
 20
158.0000000000002
 30
0.0
 11
124.6120001766044
 21
158.00000000000031
 31
0.0
  0
LINE
  5
E6C
  8
0
 10
119.88274318815679
 20
148.00000000000031
 30
0.0
 11
124.6120001766044
 21
148.00000000000031
 31
0.0
  0
POLYLINE
  5
EBE
  8
0
 66
     1
 10
0.0
 20
0.0
 30
0.0
  0
VERTEX
  5
EC0
  8
0
 10
118.8913861484275
 20
153.0000000000237
 30
0.0
 42
0.0204885679907403
  0
VERTEX
  5
EC1
  8
0
 10
118.97594786962949
 20
150.93723446655881
 30
0.0
 42
0.0284551997414696
  0
VERTEX
  5
EC2
  8
0
 10
119.18174790278719
 20
149.4644660940744
 30
0.0
 42
0.0627584938142858
 70
     2
 50
281.21466913528849
  0
VERTEX
  5
EC3
  8
0
 10
119.612116673459
 20
148.1704918241272
 30
0.0
 42
0.2887343517365198
 50
281.21466913528849
  0
VERTEX
  5
EC4
  8
0
 10
119.88274318815689
 20
148.0000000000002
 30
0.0
  0
SEQEND
  5
EBF
  8
0
  0
POLYLINE
  5
EC5
  8
0
 66
     1
 10
0.0
 20
0.0
 30
0.0
  0
VERTEX
  5
EC7
  8
0
 10
119.88274318815689
 20
158.00000000004721
 30
0.0
 42
0.2887343517365198
  0
VERTEX
  5
EC8
  8
0
 10
119.612116673459
 20
157.82950817592021
 30
0.0
 42
0.0627584938142856
  0
VERTEX
  5
EC9
  8
0
 10
119.18174790278719
 20
156.53553390597301
 30
0.0
 42
0.0284551997414592
 70
     2
 50
258.7853308647114
  0
VERTEX
  5
ECA
  8
0
 10
118.97594786962949
 20
155.06276553348891
 30
0.0
 42
0.0204885679907381
 50
258.7853308647114
  0
VERTEX
  5
ECB
  8
0
 10
118.8913861484275
 20
153.0000000000237
 30
0.0
  0
SEQEND
  5
EC6
  8
0
  0
LINE
  5
F03
  8
2
 10
148.62419611492359
 20
86.133974596215864
 30
0.0
 11
149.12419611492359
 21
87.000000000000284
 31
0.0
  0
LINE
  5
F04
  8
2
 10
143.62419611492319
 20
86.133974596215864
 30
0.0
 11
143.12419611492331
 21
87.000000000000284
 31
0.0
  0
LINE
  5
F05
  8
2
 10
148.62419611492359
 20
97.500000000000284
 30
0.0
 11
148.62419611492359
 21
77.000000000000284
 31
0.0
  0
LINE
  5
F06
  8
2
 10
143.62419611492319
 20
97.500000000000398
 30
0.0
 11
143.62419611492319
 21
77.000000000000284
 31
0.0
  0
LINE
  5
F07
  8
2
 10
143.62419611492319
 20
77.000000000000284
 30
0.0
 11
148.62419611492359
 21
77.000000000000284
 31
0.0
  0
LINE
  5
F08
  8
2
 10
143.62419611492319
 20
77.000000000000284
 30
0.0
 11
143.04684584573371
 21
76.000000000000398
 31
0.0
  0
LINE
  5
F09
  8
2
 10
148.62419611492359
 20
77.000000000000284
 30
0.0
 11
149.2015463841131
 21
76.000000000000398
 31
0.0
  0
LINE
  5
F0A
  8
2
 10
149.12419611492359
 20
98.366025403784704
 30
0.0
 11
149.12419611492359
 21
87.000000000000284
 31
0.0
  0
LINE
  5
F0B
  8
2
 10
143.12419611492331
 20
98.366025403784818
 30
0.0
 11
143.12419611492331
 21
87.000000000000284
 31
0.0
  0
LINE
  5
F0C
  8
2
 10
149.12419611492359
 20
87.000000000000284
 30
0.0
 11
143.12419611492331
 21
87.000000000000284
 31
0.0
  0
LINE
  5
F0D
  8
2
 10
143.62419611492319
 20
97.500000000000284
 30
0.0
 11
148.62419611492359
 21
97.500000000000284
 31
0.0
  0
LINE
  5
F0E
  8
2
 10
143.62419611492319
 20
97.500000000000284
 30
0.0
 11
142.7581707111388
 21
99.000000000000284
 31
0.0
  0
LINE
  5
F0F
  8
2
 10
148.62419611492359
 20
97.500000000000284
 30
0.0
 11
149.49022151870801
 21
99.000000000000284
 31
0.0
  0
LINE
  5
F3C
  8
2
 10
148.58269611492349
 20
64.0
 30
0.0
 11
149.12419611492351
 21
64.937905512298343
 31
0.0
  0
LINE
  5
F3D
  8
2
 10
143.66569611492329
 20
64.0
 30
0.0
 11
143.12419611492351
 21
64.937905512298471
 31
0.0
  0
LINE
  5
F3E
  8
2
 10
143.12419611492351
 20
64.0
 30
0.0
 11
149.12419611492339
 21
64.0
 31
0.0
  0
LINE
  5
F3F
  8
2
 10
143.12419611492339
 20
66.0
 30
0.0
 11
143.12419611492339
 21
60.0
 31
0.0
  0
LINE
  5
F40
  8
2
 10
143.66569611492341
 20
64.0
 30
0.0
 11
143.66569611492341
 21
60.0
 31
0.0
  0
LINE
  5
F41
  8
2
 10
148.58269611492361
 20
64.0
 30
0.0
 11
148.58269611492361
 21
60.0
 31
0.0
  0
LINE
  5
F42
  8
2
 10
149.12419611492339
 20
66.0
 30
0.0
 11
149.12419611492339
 21
60.0
 31
0.0
  0
LINE
  5
2F2D
  8
0
 10
119.3116079931945
 20
75.920824898079474
 30
0.0
 11
120.4557307988299
 21
75.089571022524552
 31
0.0
  0
LINE
  5
2F2E
  8
0
 10
118.06013227287271
 20
83.822331622840608
 30
0.0
 11
118.8913861484276
 21
84.966454428475942
 31
0.0
  0
LINE
  5
2F2F
  8
0
 10
124.7464413943224
 20
83.868873825090205
 30
0.0
 11
125.6850481845638
 21
77.942743781519454
 31
0.0
  0
LINE
  5
2F35
  8
3
 10
124.83115065714161
 20
83.334040588657928
 30
0.0
 11
132.12419611492351
 21
84.489145511750152
 31
0.0
  0
LINE
  5
2F36
  8
3
 10
132.12419611492351
 20
79.510854488250487
 30
0.0
 11
125.60033892174449
 21
78.477577017951631
 31
0.0
  0
LINE
  5
2F37
  8
0
 10
125.3941725018056
 20
75.871743347725683
 30
0.0
 11
123.82982785140329
 21
85.748626753677087
 31
0.0
  0
LINE
  5
2F38
  8
0
 10
120.4557307988299
 20
75.089571022524552
 30
0.0
 11
125.3941725018056
 21
75.871743347725683
 31
0.0
  0
LINE
  5
2F39
  8
0
 10
120.4557307988299
 20
75.089571022524552
 30
0.0
 11
118.8913861484276
 21
84.966454428475942
 31
0.0
  0
LINE
  5
2F3A
  8
0
 10
132.12419611492351
 20
78.962604622636263
 30
0.0
 11
125.0813035717251
 21
77.847120028915953
 31
0.0
1001
ACAD
1000
ASC_BOUNDS
1002
{
1070
    19
1005
0
1002
}
  0
LINE
  5
2F3B
  8
0
 10
124.14269678148371
 20
83.773250072486846
 30
0.0
 11
132.12419611492351
 21
85.037395377364334
 31
0.0
1001
ACAD
1000
ASC_BOUNDS
1002
{
1070
    19
1005
0
1002
}
  0
LINE
  5
2F3C
  8
0
 10
118.8913861484276
 20
84.966454428475942
 30
0.0
 11
123.82982785140329
 21
85.748626753677087
 31
0.0
  0
LINE
  5
2F3D
  8
0
 10
119.3116079931945
 20
75.920824898079474
 30
0.0
 11
118.06013227287271
 21
83.822331622840608
 31
0.0
  0
LINE
  5
2F3E
  8
1
 10
116.71049345184331
 20
79.558709330379543
 30
0.0
 11
141.09957279611379
 21
83.421560012352558
 31
0.0
  0
LINE
  5
2F3F
  8
3
 10
124.83185395864631
 20
83.329600117718471
 30
0.0
 11
124.172900946501
 21
83.582548479859298
 31
0.0
  0
LINE
  5
2F40
  8
3
 10
125.60033892174459
 20
78.477577017951631
 30
0.0
 11
125.05180270821241
 21
78.033381150603901
 31
0.0
  0
POLYLINE
  5
307D
  8
0
 66
     1
 10
0.0
 20
0.0
 30
0.0
  0
VERTEX
  5
307F
  8
0
 10
123.82982785140329
 20
153.00000000000031
 30
0.0
 42
0.0161781154664052
  0
VERTEX
  5
3080
  8
0
 10
123.89668910879151
 20
150.93413028126719
 30
0.0
 42
0.0226213546318856
  0
VERTEX
  5
3081
  8
0
 10
124.0589208213982
 20
149.46446609406749
 30
0.0
 42
0.0515278591655856
 70
     2
 50
278.89097604403543
  0
VERTEX
  5
3082
  8
0
 10
124.4084325223637
 20
148.14072089308209
 30
0.0
 42
0.3119926097097851
 50
278.89097604403543
  0
VERTEX
  5
3083
  8
0
 10
124.6120001766044
 20
148.00000000000031
 30
0.0
 42
0.3119926097098529
  0
VERTEX
  5
3084
  8
0
 10
124.8155678308452
 20
148.14072089308209
 30
0.0
 42
0.0515278591655806
  0
VERTEX
  5
3085
  8
0
 10
125.1650795318106
 20
149.46446609406749
 30
0.0
 42
0.0082689842242943
 70
     2
 50
81.109023955964574
  0
VERTEX
  5
3086
  8
0
 10
125.2398049075771
 20
150.0000000000002
 30
0.0
 42
0.0161781154664001
 50
81.109023955964574
  0
SEQEND
  5
307E
  8
0
  0
POLYLINE
  5
3087
  8
0
 66
     1
 10
0.0
 20
0.0
 30
0.0
  0
VERTEX
  5
3089
  8
0
 10
125.2398049075771
 20
156.0000000000002
 30
0.0
 42
0.0082689842242921
  0
VERTEX
  5
308A
  8
0
 10
125.1650795318106
 20
156.53553390593299
 30
0.0
 42
0.0515278591655984
 70
     2
 50
98.890976044035398
  0
VERTEX
  5
308B
  8
0
 10
124.8155678308451
 20
157.85927910691839
 30
0.0
 42
0.3119926097098728
 50
98.890976044035398
  0
VERTEX
  5
308C
  8
0
 10
124.6120001766044
 20
158.00000000000031
 30
0.0
 42
0.311992609709819
  0
VERTEX
  5
308D
  8
0
 10
124.4084325223637
 20
157.85927910691839
 30
0.0
 42
0.051527859165583
  0
VERTEX
  5
308E
  8
0
 10
124.0589208213982
 20
156.53553390593299
 30
0.0
 42
0.0226213546318973
 70
     2
 50
261.10902395596457
  0
VERTEX
  5
308F
  8
0
 10
123.89668910879151
 20
155.0658697187327
 30
0.0
 42
0.0161781154664027
 50
261.10902395596457
  0
VERTEX
  5
3090
  8
0
 10
123.82982785140329
 20
153.00000000000031
 30
0.0
 42
0.0161781154664052
  0
SEQEND
  5
3088
  8
0
  0
ENDSEC
  0
EOF
