  0
SECTION
  2
HEADER
  9
$ACADVER
  1
AC1009
  9
$INSBASE
 10
82.638099999999994
 20
103.82319099999999
 30
0.0
  9
$EXTMIN
 10
0.0
 20
-2.960436562073669
 30
0.0
  9
$EXTMAX
 10
376.45301303949509
 20
350.11026142178082
 30
0.0
  9
$LIMMIN
 10
0.0
 20
0.0
  9
$LIMMAX
 10
375.0
 20
270.0
  9
$ORTHOMODE
 70
     1
  9
$REGENMODE
 70
     1
  9
$FILLMODE
 70
     1
  9
$QTEXTMODE
 70
     0
  9
$MIRRTEXT
 70
     0
  9
$DRAGMODE
 70
     2
  9
$LTSCALE
 40
10.0
  9
$OSMODE
 70
  3071
  9
$ATTMODE
 70
     1
  9
$TEXTSIZE
 40
0.06
  9
$TRACEWID
 40
0.05
  9
$TEXTSTYLE
  7
STANDARD
  9
$CLAYER
  8
0
  9
$CELTYPE
  6
BYLAYER
  9
$CECOLOR
 62
   256
  9
$DIMSCALE
 40
1.0
  9
$DIMASZ
 40
3.0
  9
$DIMEXO
 40
2.0
  9
$DIMDLI
 40
10.0
  9
$DIMRND
 40
0.0
  9
$DIMDLE
 40
0.0
  9
$DIMEXE
 40
2.0
  9
$DIMTP
 40
0.0
  9
$DIMTM
 40
0.0
  9
$DIMTXT
 40
3.0
  9
$DIMCEN
 40
0.0
  9
$DIMTSZ
 40
0.0
  9
$DIMTOL
 70
     0
  9
$DIMLIM
 70
     0
  9
$DIMTIH
 70
     0
  9
$DIMTOH
 70
     0
  9
$DIMSE1
 70
     0
  9
$DIMSE2
 70
     0
  9
$DIMTAD
 70
     1
  9
$DIMZIN
 70
     0
  9
$DIMBLK
  1

  9
$DIMASO
 70
     0
  9
$DIMSHO
 70
     0
  9
$DIMPOST
  1

  9
$DIMAPOST
  1

  9
$DIMALT
 70
     0
  9
$DIMALTD
 70
     2
  9
$DIMALTF
 40
25.399999999999999
  9
$DIMLFAC
 40
1.0
  9
$DIMTOFL
 70
     1
  9
$DIMTVP
 40
1.6000000000000001
  9
$DIMTIX
 70
     1
  9
$DIMSOXD
 70
     0
  9
$DIMSAH
 70
     0
  9
$DIMBLK1
  1

  9
$DIMBLK2
  1

  9
$DIMSTYLE
  2
STANDARD
  9
$DIMCLRD
 70
     0
  9
$DIMCLRE
 70
     0
  9
$DIMCLRT
 70
     0
  9
$DIMTFAC
 40
1.0
  9
$DIMGAP
 40
0.09
  9
$LUNITS
 70
     2
  9
$LUPREC
 70
     4
  9
$SKETCHINC
 40
0.1
  9
$FILLETRAD
 40
0.0
  9
$AUNITS
 70
     0
  9
$AUPREC
 70
     4
  9
$MENU
  1
E:\r13\win\SUPPORT\ACAD
  9
$ELEVATION
 40
0.0
  9
$PELEVATION
 40
0.0
  9
$THICKNESS
 40
0.0
  9
$LIMCHECK
 70
     0
  9
$BLIPMODE
 70
     0
  9
$CHAMFERA
 40
0.0
  9
$CHAMFERB
 40
0.0
  9
$SKPOLY
 70
     0
  9
$TDCREATE
 40
2449840.348113426
  9
$TDUPDATE
 40
2456597.6491136812
  9
$TDINDWG
 40
0.6047029282
  9
$TDUSRTIMER
 40
0.6047029282
  9
$USRTIMER
 70
     1
  9
$ANGBASE
 50
0.0
  9
$ANGDIR
 70
     0
  9
$PDMODE
 70
     1
  9
$PDSIZE
 40
0.0
  9
$PLINEWID
 40
0.0
  9
$COORDS
 70
     1
  9
$SPLFRAME
 70
     0
  9
$SPLINETYPE
 70
     6
  9
$SPLINESEGS
 70
     8
  9
$ATTDIA
 70
     0
  9
$ATTREQ
 70
     1
  9
$HANDLING
 70
     1
  9
$HANDSEED
  5
5FA2
  9
$SURFTAB1
 70
     6
  9
$SURFTAB2
 70
     6
  9
$SURFTYPE
 70
     6
  9
$SURFU
 70
     6
  9
$SURFV
 70
     6
  9
$UCSNAME
  2

  9
$UCSORG
 10
0.0
 20
0.0
 30
0.0
  9
$UCSXDIR
 10
1.0
 20
0.0
 30
0.0
  9
$UCSYDIR
 10
0.0
 20
1.0
 30
0.0
  9
$PUCSNAME
  2

  9
$PUCSORG
 10
0.0
 20
0.0
 30
0.0
  9
$PUCSXDIR
 10
1.0
 20
0.0
 30
0.0
  9
$PUCSYDIR
 10
0.0
 20
1.0
 30
0.0
  9
$USERI1
 70
     3
  9
$USERI2
 70
     1
  9
$USERI3
 70
     0
  9
$USERI4
 70
     0
  9
$USERI5
 70
     0
  9
$USERR1
 40
1.0
  9
$USERR2
 40
3.0
  9
$USERR3
 40
3.0
  9
$USERR4
 40
3.0
  9
$USERR5
 40
10.0
  9
$WORLDVIEW
 70
     1
  9
$SHADEDGE
 70
     3
  9
$SHADEDIF
 70
    70
  9
$TILEMODE
 70
     1
  9
$MAXACTVP
 70
    16
  9
$PLIMCHECK
 70
     0
  9
$PEXTMIN
 10
1.0000000000000000E+020
 20
1.0000000000000000E+020
 30
1.0000000000000000E+020
  9
$PEXTMAX
 10
-1.0000000000000000E+020
 20
-1.0000000000000000E+020
 30
-1.0000000000000000E+020
  9
$PLIMMIN
 10
0.0
 20
0.0
  9
$PLIMMAX
 10
12.0
 20
9.0
  9
$UNITMODE
 70
     0
  9
$VISRETAIN
 70
     0
  9
$PLINEGEN
 70
     0
  9
$PSLTSCALE
 70
     0
  0
ENDSEC
  0
SECTION
  2
TABLES
  0
TABLE
  2
VPORT
 70
     1
  0
VPORT
  2
*ACTIVE
 70
     0
 10
0.0
 20
0.0
 11
1.0
 21
1.0
 12
198.0104324420891
 22
173.57265475515501
 13
0.0
 23
0.0
 14
5.0
 24
5.0
 15
10.0
 25
10.0
 16
0.0
 26
0.0
 36
1.0
 17
0.0
 27
0.0
 37
0.0
 40
356.26336950482403
 41
1.8318713450292401
 42
50.0
 43
0.0
 44
0.0
 50
0.0
 51
0.0
 71
     0
 72
   100
 73
     1
 74
     0
 75
     0
 76
     0
 77
     0
 78
     0
  0
ENDTAB
  0
TABLE
  2
LTYPE
 70
     4
  0
LTYPE
  2
CONTINUOUS
 70
     0
  3
Solid Line
 72
    65
 73
     0
 40
0.0
  0
LTYPE
  2
CENTER
 70
     0
  3
____ _ ____ _ ____ _ ____ _ ____ _ ____ _ ____
 72
    65
 73
     4
 40
2.0
 49
1.25
 49
-0.25
 49
0.25
 49
-0.25
  0
LTYPE
  2
HIDDEN
 70
     0
  3
__ __ __ __ __ __ __ __ __ __ __ __ __ __ __ __
 72
    65
 73
     2
 40
0.375
 49
0.25
 49
-0.125
  0
LTYPE
  2
PHANTOM2
 70
     0
  3
___ _ _ ___ _ _ ___ _ _ ___ _ _
 72
    65
 73
     6
 40
1.25
 49
0.625
 49
-0.125
 49
0.125
 49
-0.125
 49
0.125
 49
-0.125
  0
ENDTAB
  0
TABLE
  2
LAYER
 70
     5
  0
LAYER
  2
0
 70
     0
 62
     7
  6
CONTINUOUS
  0
LAYER
  2
1
 70
     0
 62
     1
  6
CENTER
  0
LAYER
  2
2
 70
     0
 62
     2
  6
HIDDEN
  0
LAYER
  2
3
 70
     0
 62
     3
  6
CONTINUOUS
  0
LAYER
  2
DEFPOINTS
 70
     0
 62
     7
  6
CONTINUOUS
  0
ENDTAB
  0
TABLE
  2
STYLE
 70
     2
  0
STYLE
  2
STANDARD
 70
     0
 40
0.0
 41
1.0
 50
0.0
 71
     0
 42
0.06
  3
TXT
  4
BIGFONT
  0
STYLE
  2
STANDARD1
 70
     0
 40
0.0
 41
1.0
 50
0.0
 71
     0
 42
3.0
  3
txt
  4

  0
ENDTAB
  0
TABLE
  2
VIEW
 70
     0
  0
ENDTAB
  0
TABLE
  2
UCS
 70
     0
  0
ENDTAB
  0
TABLE
  2
APPID
 70
     3
  0
APPID
  2
ACAD
 70
     0
  0
APPID
  2
ACAD_MLEADERVER
 70
     0
  0
APPID
  2
ACAD_NAV_VCDISPLAY
 70
     0
  0
ENDTAB
  0
TABLE
  2
DIMSTYLE
 70
     1
  0
DIMSTYLE
  2
STANDARD
 70
     0
  3

  4

  5

  6

  7

 40
1.0
 41
0.18
 42
0.0625
 43
0.38
 44
0.18
 45
0.0
 46
0.0
 47
0.0
 48
0.0
140
0.18
141
0.09
142
0.0
143
25.399999999999999
144
1.0
145
0.0
146
1.0
147
0.09
 71
     0
 72
     0
 73
     1
 74
     1
 75
     0
 76
     0
 77
     0
 78
     0
170
     0
171
     2
172
     0
173
     0
174
     0
175
     0
176
     0
177
     0
178
     0
  0
ENDTAB
  0
ENDSEC
  0
SECTION
  2
BLOCKS
  0
BLOCK
  8
0
  2
$MODEL_SPACE
 70
     0
 10
0.0
 20
0.0
 30
0.0
  3
$MODEL_SPACE
  1

  0
ENDBLK
  5
223
  8
0
  0
BLOCK
 67
     1
  8
0
  2
$PAPER_SPACE
 70
     0
 10
0.0
 20
0.0
 30
0.0
  3
$PAPER_SPACE
  1

  0
ENDBLK
  5
221
 67
     1
  8
0
  0
ENDSEC
  0
SECTION
  2
ENTITIES
  0
ARC
  5
57AE
  8
0
 10
215.45301303949489
 20
42.110261421781722
 30
0.0
 40
13.99999999999843
 50
50.791603809977879
 51
61.17455083958874
  0
ARC
  5
57AF
  8
0
 10
215.45301303949489
 20
42.110261421781722
 30
0.0
 40
13.99999999999843
 50
118.8254491604112
 51
129.208396190022
  0
LINE
  5
57B0
  8
0
 10
208.03036330868451
 20
116.11026142178061
 30
0.0
 11
208.70301303949489
 21
114.9451979123195
 31
0.0
  0
LINE
  5
57B1
  8
0
 10
222.20301303949489
 20
114.9451979123195
 30
0.0
 11
222.8756627703053
 21
116.11026142178061
 31
0.0
  0
LINE
  5
57B3
  8
0
 10
223.45301303949481
 20
168.11026142178039
 30
0.0
 11
223.45301303949481
 21
240.88326142178059
 31
0.0
  0
LINE
  5
57B4
  8
0
 10
207.453013039495
 20
240.88326142178059
 30
0.0
 11
207.453013039495
 21
168.11026142178039
 31
0.0
  0
LINE
  5
57B6
  8
0
 10
223.45301303949481
 20
240.88326142178059
 30
0.0
 11
222.22601303949489
 21
242.11026142178059
 31
0.0
  0
LINE
  5
57B7
  8
0
 10
208.68001303949501
 20
242.11026142178059
 30
0.0
 11
207.453013039495
 21
240.88326142178059
 31
0.0
  0
LINE
  5
57B8
  8
0
 10
222.20301303949489
 20
54.375557993816592
 30
0.0
 11
222.20301303949489
 21
114.9451979123195
 31
0.0
  0
LINE
  5
57B9
  8
0
 10
208.70301303949489
 20
114.9451979123195
 30
0.0
 11
208.70301303949489
 21
54.375557993816592
 31
0.0
  0
LINE
  5
57BA
  8
0
 10
239.45301303949489
 20
73.110261421780592
 30
0.0
 11
239.45301303949489
 21
66.110261421780592
 31
0.0
  0
LINE
  5
57BB
  8
0
 10
271.45301303949481
 20
66.110261421780592
 30
0.0
 11
271.45301303949481
 21
73.110261421780592
 31
0.0
  0
LINE
  5
57BC
  8
0
 10
244.45301303949481
 20
81.110261421780606
 30
0.0
 11
244.45301303949481
 21
73.110261421780592
 31
0.0
  0
LINE
  5
57BD
  8
0
 10
266.45301303949492
 20
73.110261421780592
 30
0.0
 11
266.45301303949492
 21
81.110261421780606
 31
0.0
  0
LINE
  5
57BE
  8
0
 10
247.45301303949489
 20
220.0102614217806
 30
0.0
 11
247.45301303949489
 21
141.11026142178059
 31
0.0
  0
LINE
  5
57BF
  8
0
 10
247.45301303949489
 20
116.11026142178019
 30
0.0
 11
247.45301303949489
 21
83.110261421780592
 31
0.0
  0
LINE
  5
57C0
  8
0
 10
263.45301303949492
 20
83.110261421780592
 30
0.0
 11
263.45301303949492
 21
116.11026142178019
 31
0.0
  0
LINE
  5
57C1
  8
0
 10
263.45301303949492
 20
141.11026142178059
 30
0.0
 11
263.45301303949492
 21
220.0102614217806
 31
0.0
  0
LINE
  5
57C2
  8
0
 10
263.45301303949492
 20
220.0102614217806
 30
0.0
 11
261.54775715116909
 21
221.11026142178059
 31
0.0
  0
LINE
  5
57C3
  8
0
 10
249.3582689278206
 20
221.11026142178059
 30
0.0
 11
247.45301303949489
 21
220.0102614217806
 31
0.0
  0
LINE
  5
57C4
  8
0
 10
247.45301303949489
 20
83.110261421780592
 30
0.0
 11
249.953013039495
 21
81.666885748806521
 31
0.0
  0
LINE
  5
57C5
  8
0
 10
260.95301303949498
 20
81.666885748806521
 30
0.0
 11
263.45301303949492
 21
83.110261421780592
 31
0.0
  0
LINE
  5
57C6
  8
0
 10
260.95301303949498
 20
81.110261421780606
 30
0.0
 11
260.95301303949498
 21
81.666885748806521
 31
0.0
  0
LINE
  5
57C7
  8
0
 10
249.953013039495
 20
81.666885748806521
 30
0.0
 11
249.953013039495
 21
81.110261421780606
 31
0.0
  0
POLYLINE
  5
57C8
  8
0
 66
     1
 10
0.0
 20
0.0
 30
0.0
 70
   128
  0
VERTEX
  5
5E04
  8
0
 10
199.453013039495
 20
146.7102614217803
 30
0.0
  0
VERTEX
  5
5E05
  8
0
 10
200.2536294434189
 20
146.3115979053587
 30
0.0
  0
VERTEX
  5
5E06
  8
0
 10
200.67852549505039
 20
146.11026142178031
 30
0.0
  0
SEQEND
  5
5E07
  8
0
  0
POLYLINE
  5
57C9
  8
0
 66
     1
 10
0.0
 20
0.0
 30
0.0
 70
   128
  0
VERTEX
  5
5E08
  8
0
 10
230.2275005839393
 20
146.11026142178031
 30
0.0
  0
VERTEX
  5
5E09
  8
0
 10
230.65239663557091
 20
146.3115979053587
 30
0.0
  0
VERTEX
  5
5E0A
  8
0
 10
231.45301303949489
 20
146.7102614217803
 30
0.0
  0
SEQEND
  5
5E0B
  8
0
  0
LINE
  5
57CA
  8
0
 10
199.453013039495
 20
150.11026142178031
 30
0.0
 11
199.453013039495
 21
146.7102614217803
 31
0.0
  0
LINE
  5
57CB
  8
0
 10
231.45301303949489
 20
146.7102614217803
 30
0.0
 11
231.45301303949489
 21
150.11026142178031
 31
0.0
  0
LINE
  5
57CC
  8
0
 10
229.30941950004589
 20
166.74978951746101
 30
0.0
 11
226.95301303949489
 21
168.11026142178031
 31
0.0
  0
LINE
  5
57CD
  8
0
 10
203.95301303949489
 20
168.11026142178031
 30
0.0
 11
201.59660657894381
 21
166.74978951746101
 31
0.0
  0
LINE
  5
57CE
  8
0
 10
199.453013039495
 20
141.61026142178031
 30
0.0
 11
199.95301303949481
 21
141.11026142178031
 31
0.0
  0
LINE
  5
57CF
  8
0
 10
230.95301303949489
 20
141.11026142178031
 30
0.0
 11
231.45301303949489
 21
141.61026142178031
 31
0.0
  0
LINE
  5
57D0
  8
0
 10
231.45301303949489
 20
141.61026142178031
 30
0.0
 11
231.45301303949489
 21
145.61026142178039
 31
0.0
  0
LINE
  5
57D1
  8
0
 10
199.453013039495
 20
145.61026142178039
 30
0.0
 11
199.453013039495
 21
141.61026142178031
 31
0.0
  0
LINE
  5
57D2
  8
0
 10
231.45301303949489
 20
145.61026142178039
 30
0.0
 11
230.95301303949489
 21
146.11026142178031
 31
0.0
  0
LINE
  5
57D3
  8
0
 10
199.95301303949481
 20
146.11026142178031
 30
0.0
 11
199.453013039495
 21
145.61026142178039
 31
0.0
  0
LINE
  5
57D4
  8
0
 10
158.05301303949491
 20
118.0882855686866
 30
0.0
 11
176.05301303949469
 21
116.11026142178061
 31
0.0
  0
ARC
  5
57D5
  8
0
 10
151.45301303949481
 20
128.11026142178059
 30
0.0
 40
11.99999999999998
 50
240.0000000000002
 51
303.36701296923258
  0
LINE
  5
57D6
  8
0
 10
145.45301303949481
 20
141.11026142178059
 30
0.0
 11
145.45301303949481
 21
117.7179565763674
 31
0.0
  0
LINE
  5
57D7
  8
0
 10
145.45301303949481
 20
141.11026142178059
 30
0.0
 11
270.45301303949492
 21
141.11026142178059
 31
0.0
  0
LINE
  5
57D8
  8
0
 10
270.45301303949492
 20
141.11026142178059
 30
0.0
 11
270.45301303949492
 21
116.11026142178061
 31
0.0
  0
LINE
  5
57D9
  8
0
 10
270.45301303949492
 20
116.11026142178061
 30
0.0
 11
176.05301303949469
 21
116.11026142178061
 31
0.0
  0
LINE
  5
57DA
  8
0
 10
229.45301303949509
 20
32.110261421781018
 30
0.0
 11
201.453013039495
 21
32.110261421780592
 31
0.0
  0
LINE
  5
57DC
  8
0
 10
201.536562342568
 20
37.710261421780793
 30
0.0
 11
201.45301303949509
 21
37.710261421780793
 31
0.0
  0
POLYLINE
  5
57DD
  8
0
 66
     1
 10
0.0
 20
0.0
 30
0.0
 70
   128
  0
VERTEX
  5
5E0C
  8
0
 10
201.536562342568
 20
37.710261421780793
 30
0.0
  0
VERTEX
  5
5E0D
  8
0
 10
201.65327925580769
 20
36.754810622896287
 30
0.0
  0
VERTEX
  5
5E0E
  8
0
 10
202.17293378172479
 20
35.526454381467211
 30
0.0
  0
VERTEX
  5
5E0F
  8
0
 10
203.10072315922059
 20
34.418357187580227
 30
0.0
  0
VERTEX
  5
5E10
  8
0
 10
203.99003477557079
 20
33.744867782576989
 30
0.0
  0
VERTEX
  5
5E11
  8
0
 10
205.00349879992689
 20
33.207736563507872
 30
0.0
  0
VERTEX
  5
5E12
  8
0
 10
206.71660797277161
 20
32.63288998314323
 30
0.0
  0
VERTEX
  5
5E13
  8
0
 10
208.54013171911251
 20
32.30765279714285
 30
0.0
  0
VERTEX
  5
5E14
  8
0
 10
210.99553104401321
 20
32.137581708508208
 30
0.0
  0
VERTEX
  5
5E15
  8
0
 10
213.46817047646451
 20
32.110261421780763
 30
0.0
  0
SEQEND
  5
5E16
  8
0
  0
POLYLINE
  5
57DF
  8
0
 66
     1
 10
0.0
 20
0.0
 30
0.0
 70
   128
  0
VERTEX
  5
5E17
  8
0
 10
217.43785560252559
 20
32.110261421780763
 30
0.0
  0
VERTEX
  5
5E18
  8
0
 10
220.16920449771709
 20
32.146155830852713
 30
0.0
  0
VERTEX
  5
5E19
  8
0
 10
222.90055339290859
 20
32.380196460094403
 30
0.0
  0
VERTEX
  5
5E1A
  8
0
 10
224.72350143280829
 20
32.777561938753031
 30
0.0
  0
VERTEX
  5
5E1B
  8
0
 10
226.4973142750259
 20
33.499574015521937
 30
0.0
  0
VERTEX
  5
5E1C
  8
0
 10
227.97788760057969
 20
34.582178887686332
 30
0.0
  0
VERTEX
  5
5E1D
  8
0
 10
228.5686743311127
 20
35.277268711779193
 30
0.0
  0
VERTEX
  5
5E1E
  8
0
 10
229.03226221114869
 20
36.100834089025739
 30
0.0
  0
VERTEX
  5
5E1F
  8
0
 10
229.3593323456694
 20
37.427541808698841
 30
0.0
  0
VERTEX
  5
5E20
  8
0
 10
229.36946373642189
 20
37.710261421780793
 30
0.0
  0
SEQEND
  5
5E21
  8
0
  0
LINE
  5
57E0
  8
0
 10
229.45301303949509
 20
37.710261421780793
 30
0.0
 11
229.36946373642189
 21
37.710261421780793
 31
0.0
  0
LINE
  5
57E3
  8
0
 10
201.536562342568
 20
42.110261421780763
 30
0.0
 11
201.536562342568
 21
37.710261421780793
 31
0.0
  0
LINE
  5
57E4
  8
0
 10
229.4530130394952
 20
42.110261421780791
 30
0.0
 11
201.4530130394952
 21
42.110261421780791
 31
0.0
  0
LINE
  5
57E6
  8
0
 10
229.36946373642189
 20
37.710261421780793
 30
0.0
 11
229.36946373642189
 21
42.110261421780763
 31
0.0
  0
LINE
  5
57E8
  8
0
 10
201.453013039495
 20
32.110261421780592
 30
0.0
 11
201.45301303949509
 21
42.110261421780763
 31
0.0
  0
LINE
  5
57E9
  8
0
 10
222.2030130394939
 20
54.375557993816592
 30
0.0
 11
208.70301303949489
 21
54.375557993816592
 31
0.0
  0
LINE
  5
57EA
  8
0
 10
206.6030130394951
 20
42.110261421780763
 30
0.0
 11
206.6030130394949
 21
52.958187490848623
 31
0.0
  0
LINE
  5
57EB
  8
0
 10
224.30301303949491
 20
52.958187490848623
 30
0.0
 11
224.3030130394973
 21
42.110261421780763
 31
0.0
  0
LINE
  5
57ED
  8
0
 10
229.45301303949509
 20
42.110261421780763
 30
0.0
 11
229.45301303949509
 21
32.110261421780557
 31
0.0
  0
LINE
  5
57EE
  8
0
 10
222.20301303949489
 20
114.9451979123195
 30
0.0
 11
208.70301303949489
 21
114.9451979123195
 31
0.0
  0
LINE
  5
57F0
  8
0
 10
223.45301303949481
 20
240.88326142178059
 30
0.0
 11
207.453013039495
 21
240.88326142178059
 31
0.0
  0
LINE
  5
57F1
  8
0
 10
222.22601303949489
 20
242.11026142178059
 30
0.0
 11
208.68001303949501
 21
242.11026142178059
 31
0.0
  0
LINE
  5
57F3
  8
0
 10
239.45301303949489
 20
66.110261421780592
 30
0.0
 11
271.45301303949481
 21
66.110261421780592
 31
0.0
  0
LINE
  5
57F5
  8
0
 10
239.45301303949489
 20
73.110261421780592
 30
0.0
 11
271.45301303949481
 21
73.110261421780621
 31
0.0
  0
LINE
  5
57F7
  8
0
 10
244.45301303949481
 20
81.110261421780606
 30
0.0
 11
266.45301303949492
 21
81.110261421780621
 31
0.0
  0
LINE
  5
57F8
  8
0
 10
263.45301303949492
 20
83.110261421780592
 30
0.0
 11
247.45301303949489
 21
83.110261421780592
 31
0.0
  0
LINE
  5
57F9
  8
0
 10
263.45301303949492
 20
220.0102614217806
 30
0.0
 11
247.45301303949489
 21
220.0102614217806
 31
0.0
  0
LINE
  5
57FA
  8
0
 10
249.3582689278206
 20
221.11026142178059
 30
0.0
 11
261.54775715116909
 21
221.11026142178059
 31
0.0
  0
LINE
  5
57FB
  8
0
 10
260.95301303949498
 20
81.666885748806521
 30
0.0
 11
249.953013039495
 21
81.666885748806521
 31
0.0
  0
LINE
  5
57FD
  8
0
 10
199.453013039495
 20
146.7102614217803
 30
0.0
 11
231.45301303949489
 21
146.71026142178081
 31
0.0
  0
LINE
  5
57FF
  8
0
 10
199.453013039495
 20
150.11026142178031
 30
0.0
 11
231.45301303949489
 21
150.11026142178071
 31
0.0
  0
LINE
  5
5800
  8
0
 10
201.59660657894381
 20
150.11026142178031
 30
0.0
 11
201.59660657894381
 21
166.74978951746101
 31
0.0
  0
ARC
  5
5801
  8
0
 10
205.06070819408171
 20
161.51628710559859
 30
0.0
 40
6.2761092641039866
 50
56.499071751164841
 51
123.5009282488373
  0
LINE
  5
5802
  8
0
 10
208.52480980921939
 20
150.11026142178051
 30
0.0
 11
208.52480980921939
 21
166.74978951746121
 31
0.0
  0
ARC
  5
5803
  8
0
 10
215.45301303949481
 20
144.38477478347659
 30
0.0
 40
23.413540613314971
 50
72.788136995660423
 51
107.2118630043379
  0
LINE
  5
5804
  8
0
 10
222.38121626977039
 20
150.11026142178051
 30
0.0
 11
222.38121626977039
 21
166.7497895174611
 31
0.0
  0
ARC
  5
5805
  8
0
 10
225.84531788490801
 20
161.51628710559879
 30
0.0
 40
6.2761092641037806
 50
56.499071751160997
 51
123.50092824883529
  0
LINE
  5
5806
  8
0
 10
229.30941950004589
 20
150.11026142178031
 30
0.0
 11
229.30941950004589
 21
166.74978951746101
 31
0.0
  0
LINE
  5
5808
  8
0
 10
203.95301303949489
 20
168.11026142178031
 30
0.0
 11
226.95301303949449
 21
168.11026142178059
 31
0.0
  0
LINE
  5
5809
  8
0
 10
199.453013039495
 20
141.61026142178031
 30
0.0
 11
231.45301303949489
 21
141.61026142178031
 31
0.0
  0
LINE
  5
580A
  8
0
 10
231.45301303949429
 20
145.6102614217809
 30
0.0
 11
199.453013039495
 21
145.61026142178039
 31
0.0
  0
LINE
  5
580D
  8
0
 10
199.95301303949481
 20
146.11026142178031
 30
0.0
 11
230.95301303949441
 21
146.11026142178079
 31
0.0
  0
LINE
  5
580F
  8
1
 10
170.45301303949509
 20
144.11026142178059
 30
0.0
 11
170.453013039495
 21
113.70758727503861
 31
0.0
  0
LINE
  5
5827
  8
3
 10
222.45301303949489
 20
241.88326142178059
 30
0.0
 11
222.45301303949489
 21
168.11026142178039
 31
0.0
  0
LINE
  5
5828
  8
3
 10
208.45301303949489
 20
241.88326142178059
 30
0.0
 11
208.45301303949481
 21
168.11026142178039
 31
0.0
  0
LINE
  5
5829
  8
3
 10
262.45301303949492
 20
220.58761169097019
 30
0.0
 11
262.45301303949481
 21
141.11026142178059
 31
0.0
  0
LINE
  5
582A
  8
3
 10
248.45301303949481
 20
220.58761169097019
 30
0.0
 11
248.45301303949481
 21
141.11026142178059
 31
0.0
  0
LINE
  5
582E
  8
1
 10
215.453013039495
 20
247.11026142178059
 30
0.0
 11
215.45301303949489
 21
27.110261421780759
 31
0.0
  0
LINE
  5
582F
  8
1
 10
255.45301303949489
 20
61.110261421780557
 30
0.0
 11
255.45301303949469
 21
226.11026142178059
 31
0.0
  0
LINE
  5
5890
  8
0
 10
145.45301303949481
 20
350.11026142178059
 30
0.0
 11
270.45301303949492
 21
350.11026142178059
 31
0.0
  0
LINE
  5
5891
  8
0
 10
270.45301303949492
 20
312.11026142178059
 30
0.0
 11
270.45301303949492
 21
350.11026142178059
 31
0.0
  0
LINE
  5
5892
  8
0
 10
145.45301303949481
 20
312.11026142178059
 30
0.0
 11
270.45301303949492
 21
312.11026142178059
 31
0.0
  0
LINE
  5
5893
  8
0
 10
145.45301303949481
 20
312.11026142178059
 30
0.0
 11
145.45301303949481
 21
350.11026142178059
 31
0.0
  0
LINE
  5
5894
  8
0
 10
170.45301303949481
 20
339.61026142178059
 30
0.0
 11
201.8975713277689
 21
339.61026142178059
 31
0.0
  0
ARC
  5
5895
  8
0
 10
170.45301303949481
 20
331.11026142178059
 30
0.0
 40
8.5
 50
90.0
 51
270.0
  0
LINE
  5
5896
  8
0
 10
201.89757132776899
 20
322.61026142178059
 30
0.0
 11
170.45301303949481
 21
322.61026142178059
 31
0.0
  0
CIRCLE
  5
5897
  8
0
 10
215.45301303949489
 20
331.11026142178122
 30
0.0
 40
7.9999999999998863
  0
LINE
  5
5899
  8
0
 10
201.453013039495
 20
322.61026142178059
 30
0.0
 11
201.453013039495
 21
323.36429472936561
 31
0.0
  0
LINE
  5
589A
  8
0
 10
201.45301303949489
 20
338.8562281141954
 30
0.0
 11
201.45301303949489
 21
339.61026142178059
 31
0.0
  0
LINE
  5
589B
  8
0
 10
257.76241411625341
 20
335.11026142178002
 30
0.0
 11
253.1436119627364
 21
335.11026142178002
 31
0.0
  0
LINE
  5
589C
  8
0
 10
253.1436119627364
 20
335.11026142178002
 30
0.0
 11
250.83421088597791
 21
331.11026142178002
 31
0.0
  0
LINE
  5
589D
  8
0
 10
250.83421088597791
 20
331.11026142178002
 30
0.0
 11
253.1436119627364
 21
327.11026142178002
 31
0.0
  0
LINE
  5
589E
  8
0
 10
253.1436119627364
 20
327.11026142178002
 30
0.0
 11
257.76241411625341
 21
327.11026142178002
 31
0.0
  0
LINE
  5
589F
  8
0
 10
257.76241411625341
 20
327.11026142178002
 30
0.0
 11
260.07181519301201
 21
331.11026142178002
 31
0.0
  0
LINE
  5
58A0
  8
0
 10
260.07181519301201
 20
331.11026142178002
 30
0.0
 11
257.76241411625341
 21
335.11026142178002
 31
0.0
  0
CIRCLE
  5
58A2
  8
0
 10
255.45301303949489
 20
331.11026142178002
 30
0.0
 40
8.0
  0
ARC
  5
58A3
  8
0
 10
255.45301303949489
 20
331.11026142178042
 30
0.0
 40
16.0
 50
339.63586519368278
 51
20.3641348063178
  0
CIRCLE
  5
58A4
  8
0
 10
215.45301303949489
 20
331.11026142178088
 30
0.0
 40
11.50000000000005
  0
LINE
  5
58A5
  8
0
 10
201.59660657894381
 20
331.11026142178088
 30
0.0
 11
208.52480980921931
 21
343.11026142178099
 31
0.0
  0
LINE
  5
58A6
  8
0
 10
208.52480980921931
 20
343.11026142178099
 30
0.0
 11
222.38121626977031
 21
343.11026142178099
 31
0.0
  0
LINE
  5
58A7
  8
0
 10
222.38121626977031
 20
343.11026142178099
 30
0.0
 11
229.30941950004589
 21
331.11026142178088
 31
0.0
  0
LINE
  5
58A8
  8
0
 10
229.30941950004589
 20
331.11026142178088
 30
0.0
 11
222.38121626977039
 21
319.11026142178082
 31
0.0
  0
LINE
  5
58A9
  8
0
 10
222.38121626977039
 20
319.11026142178082
 30
0.0
 11
208.52480980921939
 21
319.11026142178082
 31
0.0
  0
LINE
  5
58AA
  8
0
 10
208.52480980921939
 20
319.11026142178082
 30
0.0
 11
201.59660657894381
 21
331.11026142178088
 31
0.0
  0
CIRCLE
  5
58AC
  8
0
 10
215.45301303949489
 20
331.11026142178071
 30
0.0
 40
16.00000000000006
  0
CIRCLE
  5
58B5
  8
3
 10
215.45301303949489
 20
331.11026142178122
 30
0.0
 40
7.0
  0
CIRCLE
  5
58B6
  8
3
 10
255.45301303949489
 20
331.11026142178002
 30
0.0
 40
7.0
  0
LINE
  5
58B7
  8
1
 10
140.45301303949469
 20
331.11026142178019
 30
0.0
 11
276.45301303949492
 21
331.11026142178042
 31
0.0
  0
LINE
  5
58B8
  8
0
 10
40.45301303949509
 20
116.11026142178
 30
0.0
 11
78.45301303949509
 21
116.11026142178061
 31
0.0
  0
ARC
  5
58B9
  8
0
 10
59.453013039493392
 20
42.110261421781701
 30
0.0
 40
13.999999999997931
 50
118.82544916040909
 51
180.00000000000631
  0
ARC
  5
58BA
  8
0
 10
59.453013039493392
 20
42.110261421781701
 30
0.0
 40
14.0
 50
359.99999999999687
 51
61.174550839585208
  0
LINE
  5
58BB
  8
0
 10
52.030363308684748
 20
116.11026142178019
 30
0.0
 11
52.703013039494977
 21
114.9451979123194
 31
0.0
  0
LINE
  5
58BC
  8
0
 10
66.203013039494977
 20
114.9451979123196
 30
0.0
 11
66.875662770305212
 21
116.11026142178039
 31
0.0
  0
LINE
  5
58BD
  8
0
 10
67.45301303949384
 20
240.8832614217807
 30
0.0
 11
66.226013039493751
 21
242.11026142178071
 31
0.0
  0
LINE
  5
58BE
  8
0
 10
52.680013039493822
 20
242.11026142178039
 30
0.0
 11
51.45301303949384
 21
240.8832614217805
 31
0.0
  0
LINE
  5
58C0
  8
0
 10
67.453013039494181
 20
168.11026142178039
 30
0.0
 11
67.45301303949384
 21
240.8832614217807
 31
0.0
  0
LINE
  5
58C1
  8
0
 10
51.45301303949384
 20
240.8832614217805
 30
0.0
 11
51.453013039494181
 21
168.11026142178019
 31
0.0
  0
LINE
  5
58C3
  8
0
 10
66.203013039495303
 20
54.375557993816606
 30
0.0
 11
66.203013039494977
 21
114.9451979123196
 31
0.0
  0
LINE
  5
58C4
  8
0
 10
52.703013039494977
 20
114.9451979123194
 30
0.0
 11
52.703013039495318
 21
54.37555799381645
 31
0.0
  0
LINE
  5
58C5
  8
0
 10
43.453013039494863
 20
73.110261421780564
 30
0.0
 11
43.453013039494863
 21
66.110261421780564
 31
0.0
  0
LINE
  5
58C6
  8
0
 10
75.453013039494863
 20
66.110261421780564
 30
0.0
 11
75.453013039494863
 21
73.110261421780564
 31
0.0
  0
LINE
  5
58C7
  8
0
 10
48.453013039494863
 20
81.110261421780564
 30
0.0
 11
48.453013039494863
 21
73.110261421780564
 31
0.0
  0
LINE
  5
58C8
  8
0
 10
70.453013039494863
 20
73.110261421780564
 30
0.0
 11
70.453013039494863
 21
81.110261421780564
 31
0.0
  0
POLYLINE
  5
58C9
  8
0
 66
     1
 10
0.0
 20
0.0
 30
0.0
 70
   128
  0
VERTEX
  5
5E22
  8
0
 10
74.227500583938991
 20
146.11026142178051
 30
0.0
  0
VERTEX
  5
5E23
  8
0
 10
74.65239663557054
 20
146.31159790535901
 30
0.0
  0
VERTEX
  5
5E24
  8
0
 10
75.453013039494522
 20
146.7102614217805
 30
0.0
  0
SEQEND
  5
5E25
  8
0
  0
POLYLINE
  5
58CA
  8
0
 66
     1
 10
0.0
 20
0.0
 30
0.0
 70
   128
  0
VERTEX
  5
5E26
  8
0
 10
43.453013039494522
 20
146.7102614217801
 30
0.0
  0
VERTEX
  5
5E27
  8
0
 10
44.25362944341839
 20
146.3115979053585
 30
0.0
  0
VERTEX
  5
5E28
  8
0
 10
44.678525495049939
 20
146.11026142178011
 30
0.0
  0
SEQEND
  5
5E29
  8
0
  0
LINE
  5
58CB
  8
0
 10
43.453013039494401
 20
150.11026142178011
 30
0.0
 11
43.453013039494522
 21
146.7102614217801
 31
0.0
  0
LINE
  5
58CC
  8
0
 10
75.453013039494522
 20
146.7102614217805
 30
0.0
 11
75.453013039494394
 21
150.11026142178051
 31
0.0
  0
LINE
  5
58CD
  8
0
 10
71.453013039494181
 20
167.82158628718571
 30
0.0
 11
70.953013039494181
 21
168.11026142178039
 31
0.0
  0
LINE
  5
58CE
  8
0
 10
47.953013039494166
 20
168.11026142178019
 30
0.0
 11
47.453013039494181
 21
167.82158628718531
 31
0.0
  0
LINE
  5
58CF
  8
0
 10
75.453013039494522
 20
145.61026142178051
 30
0.0
 11
74.953013039494522
 21
146.11026142178051
 31
0.0
  0
LINE
  5
58D0
  8
0
 10
43.953013039494522
 20
146.11026142178011
 30
0.0
 11
43.453013039494522
 21
145.61026142178011
 31
0.0
  0
LINE
  5
58D1
  8
0
 10
43.453013039494522
 20
141.61026142178011
 30
0.0
 11
43.953013039494522
 21
141.11026142178011
 31
0.0
  0
LINE
  5
58D2
  8
0
 10
74.953013039494522
 20
141.11026142178051
 30
0.0
 11
75.453013039494522
 21
141.61026142178051
 31
0.0
  0
LINE
  5
58D3
  8
0
 10
75.453013039494522
 20
141.61026142178051
 30
0.0
 11
75.453013039494522
 21
145.61026142178051
 31
0.0
  0
LINE
  5
58D4
  8
0
 10
43.453013039494522
 20
145.61026142178011
 30
0.0
 11
43.453013039494522
 21
141.61026142178011
 31
0.0
  0
LINE
  5
58D5
  8
0
 10
78.453013039494749
 20
141.11026142178051
 30
0.0
 11
40.453013039494742
 21
141.11026142178011
 31
0.0
  0
LINE
  5
58D6
  8
0
 10
78.453013039494749
 20
141.11026142178051
 30
0.0
 11
78.453013039495204
 21
116.11026142178061
 31
0.0
  0
LINE
  5
58D7
  8
0
 10
78.45301303949509
 20
117.7179565763673
 30
0.0
 11
40.45301303949509
 21
117.7179565763668
 31
0.0
  0
LINE
  5
58D8
  8
0
 10
40.453013039494742
 20
141.11026142178011
 30
0.0
 11
40.453013039495197
 21
116.11026142178
 31
0.0
  0
LINE
  5
58DD
  8
0
 10
45.536562342568793
 20
37.710261421780359
 30
0.0
 11
45.453013039495772
 21
37.710261421780359
 31
0.0
  0
POLYLINE
  5
58DE
  8
0
 66
     1
 10
0.0
 20
0.0
 30
0.0
 70
   128
  0
VERTEX
  5
5E2A
  8
0
 10
45.536562342568793
 20
37.710261421780359
 30
0.0
  0
VERTEX
  5
5E2B
  8
0
 10
45.653279255808449
 20
36.75481062289581
 30
0.0
  0
VERTEX
  5
5E2C
  8
0
 10
46.172933781725419
 20
35.526454381466777
 30
0.0
  0
VERTEX
  5
5E2D
  8
0
 10
47.100723159221388
 20
34.418357187579801
 30
0.0
  0
VERTEX
  5
5E2E
  8
0
 10
47.99003477557175
 20
33.74486778257657
 30
0.0
  0
VERTEX
  5
5E2F
  8
0
 10
49.003498799927797
 20
33.207736563507439
 30
0.0
  0
VERTEX
  5
5E30
  8
0
 10
50.716607972772522
 20
32.63288998314286
 30
0.0
  0
VERTEX
  5
5E31
  8
0
 10
52.540131719113447
 20
32.307652797142538
 30
0.0
  0
VERTEX
  5
5E32
  8
0
 10
54.995531044014001
 20
32.137581708507952
 30
0.0
  0
VERTEX
  5
5E33
  8
0
 10
57.468170476465268
 20
32.110261421780557
 30
0.0
  0
SEQEND
  5
5E34
  8
0
  0
LINE
  5
58E0
  8
0
 10
45.453013039495659
 20
32.110261421780393
 30
0.0
 11
45.453013039495772
 21
42.110261421781978
 31
0.0
  0
LINE
  5
58E1
  8
0
 10
73.453013039495659
 20
32.110261421780741
 30
0.0
 11
45.453013039495659
 21
32.110261421780507
 31
0.0
  0
POLYLINE
  5
58E2
  8
0
 66
     1
 10
0.0
 20
0.0
 30
0.0
 70
   128
  0
VERTEX
  5
5E35
  8
0
 10
61.437855602526383
 20
32.110261421780621
 30
0.0
  0
VERTEX
  5
5E36
  8
0
 10
64.169204497717942
 20
32.146155830852571
 30
0.0
  0
VERTEX
  5
5E37
  8
0
 10
66.900553392909387
 20
32.380196460094247
 30
0.0
  0
VERTEX
  5
5E38
  8
0
 10
68.723501432809243
 20
32.777561938752939
 30
0.0
  0
VERTEX
  5
5E39
  8
0
 10
70.497314275026838
 20
33.499574015521858
 30
0.0
  0
VERTEX
  5
5E3A
  8
0
 10
71.977887600580516
 20
34.582178887686297
 30
0.0
  0
VERTEX
  5
5E3B
  8
0
 10
72.568674331113471
 20
35.277268711779101
 30
0.0
  0
VERTEX
  5
5E3C
  8
0
 10
73.032262211149487
 20
36.10083408902571
 30
0.0
  0
VERTEX
  5
5E3D
  8
0
 10
73.359332345670168
 20
37.427541808698798
 30
0.0
  0
VERTEX
  5
5E3E
  8
0
 10
73.369463736422745
 20
37.710261421780757
 30
0.0
  0
SEQEND
  5
5E3F
  8
0
  0
LINE
  5
58E3
  8
0
 10
73.453013039495772
 20
37.710261421780757
 30
0.0
 11
73.369463736422745
 21
37.710261421780757
 31
0.0
  0
LINE
  5
58E4
  8
0
 10
73.453013039495659
 20
42.110261421781409
 30
0.0
 11
73.453013039495659
 21
32.110261421780741
 31
0.0
  0
LINE
  5
58E6
  8
0
 10
45.536562342568793
 20
42.110261421780343
 30
0.0
 11
45.536562342568793
 21
37.710261421780359
 31
0.0
  0
LINE
  5
58E7
  8
0
 10
73.453013039493385
 20
42.110261421780727
 30
0.0
 11
45.453013039495431
 21
42.110261421780343
 31
0.0
  0
LINE
  5
58E8
  8
0
 10
73.369463736422745
 20
37.710261421780757
 30
0.0
 11
73.369463736422745
 21
42.110261421780727
 31
0.0
  0
LINE
  5
58ED
  8
0
 10
66.203013039495303
 20
54.37555799381667
 30
0.0
 11
52.703013039495318
 21
54.37555799381645
 31
0.0
  0
ARC
  5
58EF
  8
0
 10
59.453013039493612
 20
42.110261421781701
 30
0.0
 40
10.847926069067251
 50
359.9999999999954
 51
180.00000000000909
  0
LINE
  5
58F0
  8
0
 10
66.203013039494977
 20
114.9451979123196
 30
0.0
 11
52.703013039494977
 21
114.9451979123194
 31
0.0
  0
LINE
  5
58F4
  8
0
 10
67.453013039493612
 20
240.88326142178059
 30
0.0
 11
51.45301303949384
 21
240.8832614217805
 31
0.0
  0
LINE
  5
58F6
  8
0
 10
66.226013039493751
 20
242.11026142178079
 30
0.0
 11
52.680013039493822
 21
242.11026142178039
 31
0.0
  0
LINE
  5
58F8
  8
0
 10
43.453013039494863
 20
66.110261421780564
 30
0.0
 11
52.703013039495197
 21
66.110261421780564
 31
0.0
  0
LINE
  5
58F9
  8
0
 10
66.203013039495204
 20
66.110261421780564
 30
0.0
 11
75.453013039494863
 21
66.110261421780564
 31
0.0
  0
LINE
  5
58FA
  8
0
 10
43.453013039494863
 20
73.110261421780564
 30
0.0
 11
52.70301303949509
 21
73.110261421780564
 31
0.0
  0
LINE
  5
58FB
  8
0
 10
66.20301303949509
 20
73.110261421780564
 30
0.0
 11
75.453013039494863
 21
73.110261421780564
 31
0.0
  0
LINE
  5
58FC
  8
0
 10
48.453013039494863
 20
81.110261421780564
 30
0.0
 11
52.703013039495168
 21
81.110261421780564
 31
0.0
  0
LINE
  5
58FD
  8
0
 10
66.203013039495175
 20
81.110261421780564
 30
0.0
 11
70.453013039494863
 21
81.110261421780564
 31
0.0
  0
LINE
  5
58FE
  8
0
 10
43.453013039494522
 20
146.7102614217801
 30
0.0
 11
75.453013039494522
 21
146.7102614217805
 31
0.0
  0
LINE
  5
58FF
  8
0
 10
43.453013039494401
 20
150.11026142178011
 30
0.0
 11
75.453013039494394
 21
150.11026142178051
 31
0.0
  0
LINE
  5
5900
  8
0
 10
47.453013039494522
 20
150.11026142178011
 30
0.0
 11
47.453013039494181
 21
166.74978951746081
 31
0.0
  0
ARC
  5
5901
  8
0
 10
53.453013039494522
 20
150.1732850382879
 30
0.0
 40
17.628967659736642
 50
70.101866777413761
 51
109.898133222588
  0
LINE
  5
5902
  8
0
 10
59.453013039494522
 20
150.11026142178031
 30
0.0
 11
59.453013039494287
 21
166.74978951746101
 31
0.0
  0
LINE
  5
5903
  8
0
 10
47.953013039494166
 20
168.11026142178019
 30
0.0
 11
70.953013039494181
 21
168.11026142178039
 31
0.0
  0
LINE
  5
5904
  8
0
 10
47.453013039494181
 20
166.74978951746081
 30
0.0
 11
47.453013039494181
 21
167.82026282963909
 31
0.0
  0
LINE
  5
5905
  8
0
 10
71.453013039494294
 20
166.7497895174611
 30
0.0
 11
71.453013039494181
 21
167.82084075143459
 31
0.0
  0
ARC
  5
5906
  8
0
 10
65.453013039494522
 20
150.1732850382881
 30
0.0
 40
17.628967659736741
 50
70.101866777413761
 51
109.8981332225879
  0
LINE
  5
5907
  8
0
 10
71.453013039494522
 20
150.11026142178039
 30
0.0
 11
71.453013039494294
 21
166.7497895174611
 31
0.0
  0
LINE
  5
5908
  8
0
 10
75.453013039494522
 20
145.61026142178051
 30
0.0
 11
43.453013039494522
 21
145.61026142178011
 31
0.0
  0
LINE
  5
5909
  8
0
 10
43.953013039494522
 20
146.11026142178011
 30
0.0
 11
74.953013039494522
 21
146.11026142178051
 31
0.0
  0
LINE
  5
590A
  8
0
 10
43.453013039494522
 20
141.61026142178011
 30
0.0
 11
75.453013039494522
 21
141.61026142178051
 31
0.0
  0
LINE
  5
590C
  8
3
 10
66.453013039493726
 20
241.8832614217807
 30
0.0
 11
66.453013039494294
 21
168.11026142178051
 31
0.0
  0
LINE
  5
590D
  8
3
 10
52.45301303949384
 20
241.8832614217805
 30
0.0
 11
52.453013039494181
 21
168.11026142178031
 31
0.0
  0
LINE
  5
5910
  8
1
 10
59.45301303949384
 20
247.11026142178059
 30
0.0
 11
59.453013039495659
 21
27.110261421780621
 31
0.0
  0
LINE
  5
5965
  8
0
 10
348.95301303949492
 20
116.110261421781
 30
0.0
 11
349.45301303949492
 21
116.110261421781
 31
0.0
  0
LINE
  5
5966
  8
0
 10
365.45301303949492
 20
116.11026142178071
 30
0.0
 11
365.95301303949492
 21
116.11026142178071
 31
0.0
  0
ARC
  5
5967
  8
0
 10
357.45301303949651
 20
42.110261421781722
 30
0.0
 40
13.99999999999989
 50
118.82544916041471
 51
180.00000000000469
  0
ARC
  5
5968
  8
0
 10
357.45301303949651
 20
42.110261421781722
 30
0.0
 40
13.99999999999806
 50
359.99999999999528
 51
61.1745508395908
  0
LINE
  5
5969
  8
0
 10
365.453013039496
 20
240.8832614217805
 30
0.0
 11
364.22601303949608
 21
242.11026142178051
 31
0.0
  0
LINE
  5
596A
  8
0
 10
350.68001303949632
 20
242.11026142178071
 30
0.0
 11
349.453013039496
 21
240.8832614217807
 31
0.0
  0
LINE
  5
596E
  8
0
 10
365.453013039496
 20
220.0102614217806
 30
0.0
 11
365.453013039496
 21
240.8832614217805
 31
0.0
  0
LINE
  5
596F
  8
0
 10
349.453013039496
 20
240.8832614217807
 30
0.0
 11
349.453013039496
 21
220.0102614217806
 31
0.0
  0
LINE
  5
5971
  8
0
 10
364.20301303949458
 20
54.375557993816471
 30
0.0
 11
364.20301303949458
 21
66.110261421780592
 31
0.0
  0
LINE
  5
5972
  8
0
 10
350.70301303949458
 20
66.110261421780592
 30
0.0
 11
350.70301303949458
 21
54.375557993816642
 31
0.0
  0
LINE
  5
5973
  8
0
 10
341.45301303949492
 20
73.110261421780592
 30
0.0
 11
341.45301303949492
 21
66.110261421780592
 31
0.0
  0
LINE
  5
5974
  8
0
 10
373.45301303949481
 20
66.110261421780592
 30
0.0
 11
373.45301303949481
 21
73.110261421780592
 31
0.0
  0
LINE
  5
5975
  8
0
 10
346.45301303949481
 20
81.110261421780606
 30
0.0
 11
346.45301303949481
 21
73.110261421780592
 31
0.0
  0
LINE
  5
5976
  8
0
 10
368.45301303949492
 20
73.110261421780592
 30
0.0
 11
368.45301303949492
 21
81.110261421780606
 31
0.0
  0
LINE
  5
5977
  8
0
 10
365.45301303949492
 20
220.0102614217806
 30
0.0
 11
363.54775715116898
 21
221.11026142178059
 31
0.0
  0
LINE
  5
5978
  8
0
 10
351.35826892782052
 20
221.11026142178059
 30
0.0
 11
349.45301303949509
 21
220.0102614217806
 31
0.0
  0
LINE
  5
5979
  8
0
 10
349.45301303949492
 20
220.0102614217806
 30
0.0
 11
349.45301303949492
 21
141.11026142178099
 31
0.0
  0
LINE
  5
597A
  8
0
 10
349.45301303949492
 20
121.110261421781
 30
0.0
 11
349.45301303949492
 21
83.110261421780592
 31
0.0
  0
LINE
  5
597B
  8
0
 10
365.45301303949492
 20
83.110261421780592
 30
0.0
 11
365.45301303949492
 21
121.11026142178071
 31
0.0
  0
LINE
  5
597C
  8
0
 10
365.45301303949492
 20
141.11026142178071
 30
0.0
 11
365.45301303949492
 21
220.0102614217806
 31
0.0
  0
LINE
  5
597D
  8
0
 10
349.45301303949492
 20
83.110261421780592
 30
0.0
 11
351.95301303949492
 21
81.666885748806521
 31
0.0
  0
LINE
  5
597E
  8
0
 10
362.95301303949481
 20
81.666885748806521
 30
0.0
 11
365.45301303949492
 21
83.110261421780592
 31
0.0
  0
LINE
  5
597F
  8
0
 10
362.95301303949481
 20
81.110261421780606
 30
0.0
 11
362.95301303949481
 21
81.666885748806521
 31
0.0
  0
LINE
  5
5980
  8
0
 10
351.95301303949492
 20
81.666885748806521
 30
0.0
 11
351.95301303949492
 21
81.110261421780606
 31
0.0
  0
POLYLINE
  5
5981
  8
0
 66
     1
 10
0.0
 20
0.0
 30
0.0
 70
   128
  0
VERTEX
  5
5E40
  8
0
 10
372.2275005839399
 20
146.11026142178059
 30
0.0
  0
VERTEX
  5
5E41
  8
0
 10
372.65239663557168
 20
146.31159790535901
 30
0.0
  0
VERTEX
  5
5E42
  8
0
 10
373.4530130394956
 20
146.71026142178059
 30
0.0
  0
SEQEND
  5
5E43
  8
0
  0
POLYLINE
  5
5982
  8
0
 66
     1
 10
0.0
 20
0.0
 30
0.0
 70
   128
  0
VERTEX
  5
5E44
  8
0
 10
341.45301303949549
 20
146.71026142178101
 30
0.0
  0
VERTEX
  5
5E45
  8
0
 10
342.25362944341941
 20
146.31159790535941
 30
0.0
  0
VERTEX
  5
5E46
  8
0
 10
342.67852549505102
 20
146.1102614217811
 30
0.0
  0
SEQEND
  5
5E47
  8
0
  0
LINE
  5
5983
  8
0
 10
341.45301303949549
 20
150.1102614217811
 30
0.0
 11
341.45301303949549
 21
146.71026142178101
 31
0.0
  0
LINE
  5
5984
  8
0
 10
373.4530130394956
 20
146.71026142178059
 30
0.0
 11
373.4530130394956
 21
150.11026142178059
 31
0.0
  0
LINE
  5
5985
  8
0
 10
369.453013039496
 20
167.82158628718591
 30
0.0
 11
368.95301303949577
 21
168.11026142178071
 31
0.0
  0
LINE
  5
5986
  8
0
 10
345.95301303949577
 20
168.11026142178099
 30
0.0
 11
345.45301303949577
 21
167.82158628718619
 31
0.0
  0
LINE
  5
5987
  8
0
 10
341.45301303949549
 20
141.6102614217811
 30
0.0
 11
341.9530130394956
 21
141.1102614217811
 31
0.0
  0
LINE
  5
5988
  8
0
 10
372.9530130394956
 20
141.11026142178059
 30
0.0
 11
373.4530130394956
 21
141.61026142178059
 31
0.0
  0
LINE
  5
5989
  8
0
 10
373.4530130394956
 20
145.61026142178059
 30
0.0
 11
372.9530130394956
 21
146.11026142178059
 31
0.0
  0
LINE
  5
598A
  8
0
 10
341.9530130394956
 20
146.1102614217811
 30
0.0
 11
341.45301303949549
 21
145.6102614217811
 31
0.0
  0
LINE
  5
598B
  8
0
 10
373.4530130394956
 20
141.61026142178059
 30
0.0
 11
373.4530130394956
 21
145.61026142178059
 31
0.0
  0
LINE
  5
598C
  8
0
 10
341.45301303949549
 20
145.6102614217811
 30
0.0
 11
341.45301303949549
 21
141.6102614217811
 31
0.0
  0
LINE
  5
598D
  8
0
 10
338.45301303949509
 20
141.1102614217811
 30
0.0
 11
338.45301303949492
 21
116.1102614217811
 31
0.0
  0
LINE
  5
598E
  8
0
 10
365.95301303949492
 20
116.11026142178071
 30
0.0
 11
365.95301303949509
 21
121.11026142178071
 31
0.0
  0
LINE
  5
598F
  8
0
 10
348.95301303949509
 20
121.110261421781
 30
0.0
 11
365.95301303949509
 21
121.11026142178071
 31
0.0
  0
LINE
  5
5990
  8
0
 10
348.95301303949492
 20
116.110261421781
 30
0.0
 11
348.95301303949509
 21
121.110261421781
 31
0.0
  0
LINE
  5
5991
  8
0
 10
338.45301303949492
 20
116.1102614217811
 30
0.0
 11
348.95301303949492
 21
116.110261421781
 31
0.0
  0
LINE
  5
5992
  8
0
 10
376.45301303949509
 20
141.11026142178059
 30
0.0
 11
376.45301303949492
 21
116.11026142178061
 31
0.0
  0
LINE
  5
5993
  8
0
 10
365.95301303949492
 20
116.11026142178071
 30
0.0
 11
376.45301303949492
 21
116.11026142178061
 31
0.0
  0
LINE
  5
5994
  8
0
 10
338.45301303949509
 20
141.1102614217811
 30
0.0
 11
376.45301303949509
 21
141.11026142178059
 31
0.0
  0
POLYLINE
  5
5995
  8
0
 10
349.45301303949503
 20
117.04128236827013
 30
0.0
 66
     1
 70
     8
  0
VERTEX
  8
0
  5
5E9E
 10
349.453
 20
117.041
 30
0.000000
  70
    32
  0
VERTEX
  8
0
  5
5E9F
 10
349.445
 20
117.039
 30
0.000000
  70
    32
  0
VERTEX
  8
0
  5
5EA0
 10
349.438
 20
117.037
 30
0.000000
  70
    32
  0
VERTEX
  8
0
  5
5EA1
 10
349.430
 20
117.034
 30
0.000000
  70
    32
  0
VERTEX
  8
0
  5
5EA2
 10
349.423
 20
117.032
 30
0.000000
  70
    32
  0
VERTEX
  8
0
  5
5EA3
 10
349.415
 20
117.029
 30
0.000000
  70
    32
  0
VERTEX
  8
0
  5
5EA4
 10
349.408
 20
117.027
 30
0.000000
  70
    32
  0
VERTEX
  8
0
  5
5EA5
 10
349.400
 20
117.025
 30
0.000000
  70
    32
  0
VERTEX
  8
0
  5
5EA6
 10
349.393
 20
117.022
 30
0.000000
  70
    32
  0
VERTEX
  8
0
  5
5EA7
 10
349.386
 20
117.020
 30
0.000000
  70
    32
  0
VERTEX
  8
0
  5
5EA8
 10
349.379
 20
117.017
 30
0.000000
  70
    32
  0
VERTEX
  8
0
  5
5EA9
 10
349.371
 20
117.015
 30
0.000000
  70
    32
  0
VERTEX
  8
0
  5
5EAA
 10
349.364
 20
117.013
 30
0.000000
  70
    32
  0
VERTEX
  8
0
  5
5EAB
 10
349.357
 20
117.010
 30
0.000000
  70
    32
  0
VERTEX
  8
0
  5
5EAC
 10
349.350
 20
117.008
 30
0.000000
  70
    32
  0
VERTEX
  8
0
  5
5EAD
 10
349.344
 20
117.006
 30
0.000000
  70
    32
  0
VERTEX
  8
0
  5
5EAE
 10
349.337
 20
117.003
 30
0.000000
  70
    32
  0
VERTEX
  8
0
  5
5EAF
 10
349.330
 20
117.001
 30
0.000000
  70
    32
  0
VERTEX
  8
0
  5
5EB0
 10
349.323
 20
116.998
 30
0.000000
  70
    32
  0
VERTEX
  8
0
  5
5EB1
 10
349.317
 20
116.996
 30
0.000000
  70
    32
  0
VERTEX
  8
0
  5
5EB2
 10
349.310
 20
116.993
 30
0.000000
  70
    32
  0
VERTEX
  8
0
  5
5EB3
 10
349.303
 20
116.991
 30
0.000000
  70
    32
  0
VERTEX
  8
0
  5
5EB4
 10
349.297
 20
116.989
 30
0.000000
  70
    32
  0
VERTEX
  8
0
  5
5EB5
 10
349.291
 20
116.986
 30
0.000000
  70
    32
  0
VERTEX
  8
0
  5
5EB6
 10
349.284
 20
116.984
 30
0.000000
  70
    32
  0
VERTEX
  8
0
  5
5EB7
 10
349.278
 20
116.981
 30
0.000000
  70
    32
  0
VERTEX
  8
0
  5
5EB8
 10
349.272
 20
116.979
 30
0.000000
  70
    32
  0
VERTEX
  8
0
  5
5EB9
 10
349.265
 20
116.977
 30
0.000000
  70
    32
  0
VERTEX
  8
0
  5
5EBA
 10
349.259
 20
116.974
 30
0.000000
  70
    32
  0
VERTEX
  8
0
  5
5EBB
 10
349.253
 20
116.972
 30
0.000000
  70
    32
  0
VERTEX
  8
0
  5
5EBC
 10
349.247
 20
116.969
 30
0.000000
  70
    32
  0
VERTEX
  8
0
  5
5EBD
 10
349.241
 20
116.967
 30
0.000000
  70
    32
  0
VERTEX
  8
0
  5
5EBE
 10
349.235
 20
116.964
 30
0.000000
  70
    32
  0
VERTEX
  8
0
  5
5EBF
 10
349.230
 20
116.962
 30
0.000000
  70
    32
  0
VERTEX
  8
0
  5
5EC0
 10
349.224
 20
116.960
 30
0.000000
  70
    32
  0
VERTEX
  8
0
  5
5EC1
 10
349.218
 20
116.957
 30
0.000000
  70
    32
  0
VERTEX
  8
0
  5
5EC2
 10
349.213
 20
116.955
 30
0.000000
  70
    32
  0
VERTEX
  8
0
  5
5EC3
 10
349.207
 20
116.952
 30
0.000000
  70
    32
  0
VERTEX
  8
0
  5
5EC4
 10
349.201
 20
116.950
 30
0.000000
  70
    32
  0
VERTEX
  8
0
  5
5EC5
 10
349.196
 20
116.947
 30
0.000000
  70
    32
  0
VERTEX
  8
0
  5
5EC6
 10
349.191
 20
116.945
 30
0.000000
  70
    32
  0
VERTEX
  8
0
  5
5EC7
 10
349.185
 20
116.942
 30
0.000000
  70
    32
  0
VERTEX
  8
0
  5
5EC8
 10
349.180
 20
116.940
 30
0.000000
  70
    32
  0
VERTEX
  8
0
  5
5EC9
 10
349.175
 20
116.938
 30
0.000000
  70
    32
  0
VERTEX
  8
0
  5
5ECA
 10
349.170
 20
116.935
 30
0.000000
  70
    32
  0
VERTEX
  8
0
  5
5ECB
 10
349.164
 20
116.933
 30
0.000000
  70
    32
  0
VERTEX
  8
0
  5
5ECC
 10
349.159
 20
116.930
 30
0.000000
  70
    32
  0
VERTEX
  8
0
  5
5ECD
 10
349.154
 20
116.928
 30
0.000000
  70
    32
  0
VERTEX
  8
0
  5
5ECE
 10
349.150
 20
116.925
 30
0.000000
  70
    32
  0
VERTEX
  8
0
  5
5ECF
 10
349.145
 20
116.923
 30
0.000000
  70
    32
  0
VERTEX
  8
0
  5
5ED0
 10
349.140
 20
116.920
 30
0.000000
  70
    32
  0
VERTEX
  8
0
  5
5ED1
 10
349.135
 20
116.918
 30
0.000000
  70
    32
  0
VERTEX
  8
0
  5
5ED2
 10
349.130
 20
116.915
 30
0.000000
  70
    32
  0
VERTEX
  8
0
  5
5ED3
 10
349.126
 20
116.913
 30
0.000000
  70
    32
  0
VERTEX
  8
0
  5
5ED4
 10
349.121
 20
116.911
 30
0.000000
  70
    32
  0
VERTEX
  8
0
  5
5ED5
 10
349.117
 20
116.908
 30
0.000000
  70
    32
  0
VERTEX
  8
0
  5
5ED6
 10
349.112
 20
116.906
 30
0.000000
  70
    32
  0
VERTEX
  8
0
  5
5ED7
 10
349.108
 20
116.903
 30
0.000000
  70
    32
  0
VERTEX
  8
0
  5
5ED8
 10
349.104
 20
116.901
 30
0.000000
  70
    32
  0
VERTEX
  8
0
  5
5ED9
 10
349.099
 20
116.898
 30
0.000000
  70
    32
  0
VERTEX
  8
0
  5
5EDA
 10
349.095
 20
116.896
 30
0.000000
  70
    32
  0
VERTEX
  8
0
  5
5EDB
 10
349.091
 20
116.893
 30
0.000000
  70
    32
  0
VERTEX
  8
0
  5
5EDC
 10
349.087
 20
116.891
 30
0.000000
  70
    32
  0
VERTEX
  8
0
  5
5EDD
 10
349.083
 20
116.888
 30
0.000000
  70
    32
  0
VERTEX
  8
0
  5
5EDE
 10
349.079
 20
116.886
 30
0.000000
  70
    32
  0
VERTEX
  8
0
  5
5EDF
 10
349.075
 20
116.883
 30
0.000000
  70
    32
  0
VERTEX
  8
0
  5
5EE0
 10
349.071
 20
116.881
 30
0.000000
  70
    32
  0
VERTEX
  8
0
  5
5EE1
 10
349.067
 20
116.878
 30
0.000000
  70
    32
  0
VERTEX
  8
0
  5
5EE2
 10
349.064
 20
116.876
 30
0.000000
  70
    32
  0
VERTEX
  8
0
  5
5EE3
 10
349.060
 20
116.873
 30
0.000000
  70
    32
  0
VERTEX
  8
0
  5
5EE4
 10
349.056
 20
116.871
 30
0.000000
  70
    32
  0
VERTEX
  8
0
  5
5EE5
 10
349.053
 20
116.868
 30
0.000000
  70
    32
  0
VERTEX
  8
0
  5
5EE6
 10
349.049
 20
116.866
 30
0.000000
  70
    32
  0
VERTEX
  8
0
  5
5EE7
 10
349.046
 20
116.863
 30
0.000000
  70
    32
  0
VERTEX
  8
0
  5
5EE8
 10
349.043
 20
116.861
 30
0.000000
  70
    32
  0
VERTEX
  8
0
  5
5EE9
 10
349.039
 20
116.859
 30
0.000000
  70
    32
  0
VERTEX
  8
0
  5
5EEA
 10
349.036
 20
116.856
 30
0.000000
  70
    32
  0
VERTEX
  8
0
  5
5EEB
 10
349.033
 20
116.854
 30
0.000000
  70
    32
  0
VERTEX
  8
0
  5
5EEC
 10
349.030
 20
116.851
 30
0.000000
  70
    32
  0
VERTEX
  8
0
  5
5EED
 10
349.027
 20
116.849
 30
0.000000
  70
    32
  0
VERTEX
  8
0
  5
5EEE
 10
349.024
 20
116.846
 30
0.000000
  70
    32
  0
VERTEX
  8
0
  5
5EEF
 10
349.021
 20
116.844
 30
0.000000
  70
    32
  0
VERTEX
  8
0
  5
5EF0
 10
349.018
 20
116.841
 30
0.000000
  70
    32
  0
VERTEX
  8
0
  5
5EF1
 10
349.015
 20
116.839
 30
0.000000
  70
    32
  0
VERTEX
  8
0
  5
5EF2
 10
349.013
 20
116.836
 30
0.000000
  70
    32
  0
VERTEX
  8
0
  5
5EF3
 10
349.010
 20
116.834
 30
0.000000
  70
    32
  0
VERTEX
  8
0
  5
5EF4
 10
349.007
 20
116.831
 30
0.000000
  70
    32
  0
VERTEX
  8
0
  5
5EF5
 10
349.005
 20
116.829
 30
0.000000
  70
    32
  0
VERTEX
  8
0
  5
5EF6
 10
349.002
 20
116.826
 30
0.000000
  70
    32
  0
VERTEX
  8
0
  5
5EF7
 10
349.000
 20
116.824
 30
0.000000
  70
    32
  0
VERTEX
  8
0
  5
5EF8
 10
348.997
 20
116.821
 30
0.000000
  70
    32
  0
VERTEX
  8
0
  5
5EF9
 10
348.995
 20
116.819
 30
0.000000
  70
    32
  0
VERTEX
  8
0
  5
5EFA
 10
348.993
 20
116.816
 30
0.000000
  70
    32
  0
VERTEX
  8
0
  5
5EFB
 10
348.991
 20
116.814
 30
0.000000
  70
    32
  0
VERTEX
  8
0
  5
5EFC
 10
348.989
 20
116.811
 30
0.000000
  70
    32
  0
VERTEX
  8
0
  5
5EFD
 10
348.987
 20
116.809
 30
0.000000
  70
    32
  0
VERTEX
  8
0
  5
5EFE
 10
348.985
 20
116.806
 30
0.000000
  70
    32
  0
VERTEX
  8
0
  5
5EFF
 10
348.983
 20
116.804
 30
0.000000
  70
    32
  0
VERTEX
  8
0
  5
5F00
 10
348.981
 20
116.801
 30
0.000000
  70
    32
  0
VERTEX
  8
0
  5
5F01
 10
348.979
 20
116.799
 30
0.000000
  70
    32
  0
VERTEX
  8
0
  5
5F02
 10
348.977
 20
116.796
 30
0.000000
  70
    32
  0
VERTEX
  8
0
  5
5F03
 10
348.975
 20
116.794
 30
0.000000
  70
    32
  0
VERTEX
  8
0
  5
5F04
 10
348.974
 20
116.791
 30
0.000000
  70
    32
  0
VERTEX
  8
0
  5
5F05
 10
348.972
 20
116.788
 30
0.000000
  70
    32
  0
VERTEX
  8
0
  5
5F06
 10
348.971
 20
116.786
 30
0.000000
  70
    32
  0
VERTEX
  8
0
  5
5F07
 10
348.969
 20
116.783
 30
0.000000
  70
    32
  0
VERTEX
  8
0
  5
5F08
 10
348.968
 20
116.781
 30
0.000000
  70
    32
  0
VERTEX
  8
0
  5
5F09
 10
348.967
 20
116.778
 30
0.000000
  70
    32
  0
VERTEX
  8
0
  5
5F0A
 10
348.965
 20
116.776
 30
0.000000
  70
    32
  0
VERTEX
  8
0
  5
5F0B
 10
348.964
 20
116.773
 30
0.000000
  70
    32
  0
VERTEX
  8
0
  5
5F0C
 10
348.963
 20
116.771
 30
0.000000
  70
    32
  0
VERTEX
  8
0
  5
5F0D
 10
348.962
 20
116.768
 30
0.000000
  70
    32
  0
VERTEX
  8
0
  5
5F0E
 10
348.961
 20
116.766
 30
0.000000
  70
    32
  0
VERTEX
  8
0
  5
5F0F
 10
348.960
 20
116.763
 30
0.000000
  70
    32
  0
VERTEX
  8
0
  5
5F10
 10
348.959
 20
116.761
 30
0.000000
  70
    32
  0
VERTEX
  8
0
  5
5F11
 10
348.958
 20
116.758
 30
0.000000
  70
    32
  0
VERTEX
  8
0
  5
5F12
 10
348.957
 20
116.756
 30
0.000000
  70
    32
  0
VERTEX
  8
0
  5
5F13
 10
348.957
 20
116.753
 30
0.000000
  70
    32
  0
VERTEX
  8
0
  5
5F14
 10
348.956
 20
116.751
 30
0.000000
  70
    32
  0
VERTEX
  8
0
  5
5F15
 10
348.956
 20
116.748
 30
0.000000
  70
    32
  0
VERTEX
  8
0
  5
5F16
 10
348.955
 20
116.746
 30
0.000000
  70
    32
  0
VERTEX
  8
0
  5
5F17
 10
348.955
 20
116.743
 30
0.000000
  70
    32
  0
VERTEX
  8
0
  5
5F18
 10
348.954
 20
116.741
 30
0.000000
  70
    32
  0
VERTEX
  8
0
  5
5F19
 10
348.954
 20
116.738
 30
0.000000
  70
    32
  0
VERTEX
  8
0
  5
5F1A
 10
348.954
 20
116.736
 30
0.000000
  70
    32
  0
VERTEX
  8
0
  5
5F1B
 10
348.953
 20
116.733
 30
0.000000
  70
    32
  0
VERTEX
  8
0
  5
5F1C
 10
348.953
 20
116.731
 30
0.000000
  70
    32
  0
VERTEX
  8
0
  5
5F1D
 10
348.953
 20
116.728
 30
0.000000
  70
    32
  0
VERTEX
  8
0
  5
5F1E
 10
348.953
 20
116.726
 30
0.000000
  70
    32
  0
SEQEND
  8
0
  5
5F1F
  0
POLYLINE
  5
5996
  8
0
 10
365.9530130394952
 20
116.72564671192929
 30
0.0
 66
     1
 70
     8
  0
VERTEX
  8
0
  5
5F20
 10
365.953
 20
116.726
 30
0.000000
  70
    32
  0
VERTEX
  8
0
  5
5F21
 10
365.953
 20
116.728
 30
0.000000
  70
    32
  0
VERTEX
  8
0
  5
5F22
 10
365.953
 20
116.731
 30
0.000000
  70
    32
  0
VERTEX
  8
0
  5
5F23
 10
365.953
 20
116.733
 30
0.000000
  70
    32
  0
VERTEX
  8
0
  5
5F24
 10
365.953
 20
116.736
 30
0.000000
  70
    32
  0
VERTEX
  8
0
  5
5F25
 10
365.952
 20
116.738
 30
0.000000
  70
    32
  0
VERTEX
  8
0
  5
5F26
 10
365.952
 20
116.741
 30
0.000000
  70
    32
  0
VERTEX
  8
0
  5
5F27
 10
365.952
 20
116.743
 30
0.000000
  70
    32
  0
VERTEX
  8
0
  5
5F28
 10
365.951
 20
116.746
 30
0.000000
  70
    32
  0
VERTEX
  8
0
  5
5F29
 10
365.951
 20
116.748
 30
0.000000
  70
    32
  0
VERTEX
  8
0
  5
5F2A
 10
365.950
 20
116.751
 30
0.000000
  70
    32
  0
VERTEX
  8
0
  5
5F2B
 10
365.949
 20
116.753
 30
0.000000
  70
    32
  0
VERTEX
  8
0
  5
5F2C
 10
365.949
 20
116.756
 30
0.000000
  70
    32
  0
VERTEX
  8
0
  5
5F2D
 10
365.948
 20
116.758
 30
0.000000
  70
    32
  0
VERTEX
  8
0
  5
5F2E
 10
365.947
 20
116.761
 30
0.000000
  70
    32
  0
VERTEX
  8
0
  5
5F2F
 10
365.946
 20
116.763
 30
0.000000
  70
    32
  0
VERTEX
  8
0
  5
5F30
 10
365.945
 20
116.766
 30
0.000000
  70
    32
  0
VERTEX
  8
0
  5
5F31
 10
365.944
 20
116.768
 30
0.000000
  70
    32
  0
VERTEX
  8
0
  5
5F32
 10
365.943
 20
116.771
 30
0.000000
  70
    32
  0
VERTEX
  8
0
  5
5F33
 10
365.942
 20
116.773
 30
0.000000
  70
    32
  0
VERTEX
  8
0
  5
5F34
 10
365.941
 20
116.776
 30
0.000000
  70
    32
  0
VERTEX
  8
0
  5
5F35
 10
365.939
 20
116.778
 30
0.000000
  70
    32
  0
VERTEX
  8
0
  5
5F36
 10
365.938
 20
116.781
 30
0.000000
  70
    32
  0
VERTEX
  8
0
  5
5F37
 10
365.937
 20
116.783
 30
0.000000
  70
    32
  0
VERTEX
  8
0
  5
5F38
 10
365.935
 20
116.786
 30
0.000000
  70
    32
  0
VERTEX
  8
0
  5
5F39
 10
365.934
 20
116.788
 30
0.000000
  70
    32
  0
VERTEX
  8
0
  5
5F3A
 10
365.932
 20
116.791
 30
0.000000
  70
    32
  0
VERTEX
  8
0
  5
5F3B
 10
365.931
 20
116.794
 30
0.000000
  70
    32
  0
VERTEX
  8
0
  5
5F3C
 10
365.929
 20
116.796
 30
0.000000
  70
    32
  0
VERTEX
  8
0
  5
5F3D
 10
365.927
 20
116.799
 30
0.000000
  70
    32
  0
VERTEX
  8
0
  5
5F3E
 10
365.925
 20
116.801
 30
0.000000
  70
    32
  0
VERTEX
  8
0
  5
5F3F
 10
365.923
 20
116.804
 30
0.000000
  70
    32
  0
VERTEX
  8
0
  5
5F40
 10
365.921
 20
116.806
 30
0.000000
  70
    32
  0
VERTEX
  8
0
  5
5F41
 10
365.919
 20
116.809
 30
0.000000
  70
    32
  0
VERTEX
  8
0
  5
5F42
 10
365.917
 20
116.811
 30
0.000000
  70
    32
  0
VERTEX
  8
0
  5
5F43
 10
365.915
 20
116.814
 30
0.000000
  70
    32
  0
VERTEX
  8
0
  5
5F44
 10
365.913
 20
116.816
 30
0.000000
  70
    32
  0
VERTEX
  8
0
  5
5F45
 10
365.911
 20
116.819
 30
0.000000
  70
    32
  0
VERTEX
  8
0
  5
5F46
 10
365.909
 20
116.821
 30
0.000000
  70
    32
  0
VERTEX
  8
0
  5
5F47
 10
365.906
 20
116.824
 30
0.000000
  70
    32
  0
VERTEX
  8
0
  5
5F48
 10
365.904
 20
116.826
 30
0.000000
  70
    32
  0
VERTEX
  8
0
  5
5F49
 10
365.901
 20
116.829
 30
0.000000
  70
    32
  0
VERTEX
  8
0
  5
5F4A
 10
365.899
 20
116.831
 30
0.000000
  70
    32
  0
VERTEX
  8
0
  5
5F4B
 10
365.896
 20
116.834
 30
0.000000
  70
    32
  0
VERTEX
  8
0
  5
5F4C
 10
365.893
 20
116.836
 30
0.000000
  70
    32
  0
VERTEX
  8
0
  5
5F4D
 10
365.891
 20
116.839
 30
0.000000
  70
    32
  0
VERTEX
  8
0
  5
5F4E
 10
365.888
 20
116.841
 30
0.000000
  70
    32
  0
VERTEX
  8
0
  5
5F4F
 10
365.885
 20
116.844
 30
0.000000
  70
    32
  0
VERTEX
  8
0
  5
5F50
 10
365.882
 20
116.846
 30
0.000000
  70
    32
  0
VERTEX
  8
0
  5
5F51
 10
365.879
 20
116.849
 30
0.000000
  70
    32
  0
VERTEX
  8
0
  5
5F52
 10
365.876
 20
116.851
 30
0.000000
  70
    32
  0
VERTEX
  8
0
  5
5F53
 10
365.873
 20
116.854
 30
0.000000
  70
    32
  0
VERTEX
  8
0
  5
5F54
 10
365.870
 20
116.856
 30
0.000000
  70
    32
  0
VERTEX
  8
0
  5
5F55
 10
365.867
 20
116.859
 30
0.000000
  70
    32
  0
VERTEX
  8
0
  5
5F56
 10
365.863
 20
116.861
 30
0.000000
  70
    32
  0
VERTEX
  8
0
  5
5F57
 10
365.860
 20
116.863
 30
0.000000
  70
    32
  0
VERTEX
  8
0
  5
5F58
 10
365.857
 20
116.866
 30
0.000000
  70
    32
  0
VERTEX
  8
0
  5
5F59
 10
365.853
 20
116.868
 30
0.000000
  70
    32
  0
VERTEX
  8
0
  5
5F5A
 10
365.850
 20
116.871
 30
0.000000
  70
    32
  0
VERTEX
  8
0
  5
5F5B
 10
365.846
 20
116.873
 30
0.000000
  70
    32
  0
VERTEX
  8
0
  5
5F5C
 10
365.842
 20
116.876
 30
0.000000
  70
    32
  0
VERTEX
  8
0
  5
5F5D
 10
365.839
 20
116.878
 30
0.000000
  70
    32
  0
VERTEX
  8
0
  5
5F5E
 10
365.835
 20
116.881
 30
0.000000
  70
    32
  0
VERTEX
  8
0
  5
5F5F
 10
365.831
 20
116.883
 30
0.000000
  70
    32
  0
VERTEX
  8
0
  5
5F60
 10
365.827
 20
116.886
 30
0.000000
  70
    32
  0
VERTEX
  8
0
  5
5F61
 10
365.823
 20
116.888
 30
0.000000
  70
    32
  0
VERTEX
  8
0
  5
5F62
 10
365.819
 20
116.891
 30
0.000000
  70
    32
  0
VERTEX
  8
0
  5
5F63
 10
365.815
 20
116.893
 30
0.000000
  70
    32
  0
VERTEX
  8
0
  5
5F64
 10
365.811
 20
116.896
 30
0.000000
  70
    32
  0
VERTEX
  8
0
  5
5F65
 10
365.807
 20
116.898
 30
0.000000
  70
    32
  0
VERTEX
  8
0
  5
5F66
 10
365.802
 20
116.901
 30
0.000000
  70
    32
  0
VERTEX
  8
0
  5
5F67
 10
365.798
 20
116.903
 30
0.000000
  70
    32
  0
VERTEX
  8
0
  5
5F68
 10
365.794
 20
116.906
 30
0.000000
  70
    32
  0
VERTEX
  8
0
  5
5F69
 10
365.789
 20
116.908
 30
0.000000
  70
    32
  0
VERTEX
  8
0
  5
5F6A
 10
365.785
 20
116.911
 30
0.000000
  70
    32
  0
VERTEX
  8
0
  5
5F6B
 10
365.780
 20
116.913
 30
0.000000
  70
    32
  0
VERTEX
  8
0
  5
5F6C
 10
365.776
 20
116.915
 30
0.000000
  70
    32
  0
VERTEX
  8
0
  5
5F6D
 10
365.771
 20
116.918
 30
0.000000
  70
    32
  0
VERTEX
  8
0
  5
5F6E
 10
365.766
 20
116.920
 30
0.000000
  70
    32
  0
VERTEX
  8
0
  5
5F6F
 10
365.761
 20
116.923
 30
0.000000
  70
    32
  0
VERTEX
  8
0
  5
5F70
 10
365.757
 20
116.925
 30
0.000000
  70
    32
  0
VERTEX
  8
0
  5
5F71
 10
365.752
 20
116.928
 30
0.000000
  70
    32
  0
VERTEX
  8
0
  5
5F72
 10
365.747
 20
116.930
 30
0.000000
  70
    32
  0
VERTEX
  8
0
  5
5F73
 10
365.742
 20
116.933
 30
0.000000
  70
    32
  0
VERTEX
  8
0
  5
5F74
 10
365.736
 20
116.935
 30
0.000000
  70
    32
  0
VERTEX
  8
0
  5
5F75
 10
365.731
 20
116.938
 30
0.000000
  70
    32
  0
VERTEX
  8
0
  5
5F76
 10
365.726
 20
116.940
 30
0.000000
  70
    32
  0
VERTEX
  8
0
  5
5F77
 10
365.721
 20
116.942
 30
0.000000
  70
    32
  0
VERTEX
  8
0
  5
5F78
 10
365.715
 20
116.945
 30
0.000000
  70
    32
  0
VERTEX
  8
0
  5
5F79
 10
365.710
 20
116.947
 30
0.000000
  70
    32
  0
VERTEX
  8
0
  5
5F7A
 10
365.705
 20
116.950
 30
0.000000
  70
    32
  0
VERTEX
  8
0
  5
5F7B
 10
365.699
 20
116.952
 30
0.000000
  70
    32
  0
VERTEX
  8
0
  5
5F7C
 10
365.693
 20
116.955
 30
0.000000
  70
    32
  0
VERTEX
  8
0
  5
5F7D
 10
365.688
 20
116.957
 30
0.000000
  70
    32
  0
VERTEX
  8
0
  5
5F7E
 10
365.682
 20
116.960
 30
0.000000
  70
    32
  0
VERTEX
  8
0
  5
5F7F
 10
365.676
 20
116.962
 30
0.000000
  70
    32
  0
VERTEX
  8
0
  5
5F80
 10
365.671
 20
116.964
 30
0.000000
  70
    32
  0
VERTEX
  8
0
  5
5F81
 10
365.665
 20
116.967
 30
0.000000
  70
    32
  0
VERTEX
  8
0
  5
5F82
 10
365.659
 20
116.969
 30
0.000000
  70
    32
  0
VERTEX
  8
0
  5
5F83
 10
365.653
 20
116.972
 30
0.000000
  70
    32
  0
VERTEX
  8
0
  5
5F84
 10
365.647
 20
116.974
 30
0.000000
  70
    32
  0
VERTEX
  8
0
  5
5F85
 10
365.641
 20
116.977
 30
0.000000
  70
    32
  0
VERTEX
  8
0
  5
5F86
 10
365.634
 20
116.979
 30
0.000000
  70
    32
  0
VERTEX
  8
0
  5
5F87
 10
365.628
 20
116.981
 30
0.000000
  70
    32
  0
VERTEX
  8
0
  5
5F88
 10
365.622
 20
116.984
 30
0.000000
  70
    32
  0
VERTEX
  8
0
  5
5F89
 10
365.615
 20
116.986
 30
0.000000
  70
    32
  0
VERTEX
  8
0
  5
5F8A
 10
365.609
 20
116.989
 30
0.000000
  70
    32
  0
VERTEX
  8
0
  5
5F8B
 10
365.603
 20
116.991
 30
0.000000
  70
    32
  0
VERTEX
  8
0
  5
5F8C
 10
365.596
 20
116.993
 30
0.000000
  70
    32
  0
VERTEX
  8
0
  5
5F8D
 10
365.589
 20
116.996
 30
0.000000
  70
    32
  0
VERTEX
  8
0
  5
5F8E
 10
365.583
 20
116.998
 30
0.000000
  70
    32
  0
VERTEX
  8
0
  5
5F8F
 10
365.576
 20
117.001
 30
0.000000
  70
    32
  0
VERTEX
  8
0
  5
5F90
 10
365.569
 20
117.003
 30
0.000000
  70
    32
  0
VERTEX
  8
0
  5
5F91
 10
365.562
 20
117.006
 30
0.000000
  70
    32
  0
VERTEX
  8
0
  5
5F92
 10
365.556
 20
117.008
 30
0.000000
  70
    32
  0
VERTEX
  8
0
  5
5F93
 10
365.549
 20
117.010
 30
0.000000
  70
    32
  0
VERTEX
  8
0
  5
5F94
 10
365.542
 20
117.013
 30
0.000000
  70
    32
  0
VERTEX
  8
0
  5
5F95
 10
365.535
 20
117.015
 30
0.000000
  70
    32
  0
VERTEX
  8
0
  5
5F96
 10
365.527
 20
117.017
 30
0.000000
  70
    32
  0
VERTEX
  8
0
  5
5F97
 10
365.520
 20
117.020
 30
0.000000
  70
    32
  0
VERTEX
  8
0
  5
5F98
 10
365.513
 20
117.022
 30
0.000000
  70
    32
  0
VERTEX
  8
0
  5
5F99
 10
365.506
 20
117.025
 30
0.000000
  70
    32
  0
VERTEX
  8
0
  5
5F9A
 10
365.498
 20
117.027
 30
0.000000
  70
    32
  0
VERTEX
  8
0
  5
5F9B
 10
365.491
 20
117.029
 30
0.000000
  70
    32
  0
VERTEX
  8
0
  5
5F9C
 10
365.483
 20
117.032
 30
0.000000
  70
    32
  0
VERTEX
  8
0
  5
5F9D
 10
365.476
 20
117.034
 30
0.000000
  70
    32
  0
VERTEX
  8
0
  5
5F9E
 10
365.468
 20
117.037
 30
0.000000
  70
    32
  0
VERTEX
  8
0
  5
5F9F
 10
365.461
 20
117.039
 30
0.000000
  70
    32
  0
VERTEX
  8
0
  5
5FA0
 10
365.453
 20
117.041
 30
0.000000
  70
    32
  0
SEQEND
  8
0
  5
5FA1
  0
LINE
  5
5998
  8
0
 10
343.45301303949441
 20
32.110261421780763
 30
0.0
 11
343.45301303949492
 21
42.11026142178229
 31
0.0
  0
LINE
  5
5999
  8
0
 10
343.53656234256732
 20
37.710261421780793
 30
0.0
 11
343.45301303949458
 21
37.710261421780793
 31
0.0
  0
POLYLINE
  5
599A
  8
0
 66
     1
 10
0.0
 20
0.0
 30
0.0
 70
   128
  0
VERTEX
  5
5E48
  8
0
 10
343.53656234256732
 20
37.710261421780793
 30
0.0
  0
VERTEX
  5
5E49
  8
0
 10
343.65327925580709
 20
36.75481062289623
 30
0.0
  0
VERTEX
  5
5E4A
  8
0
 10
344.17293378172423
 20
35.526454381467211
 30
0.0
  0
VERTEX
  5
5E4B
  8
0
 10
345.10072315922002
 20
34.41835718758017
 30
0.0
  0
VERTEX
  5
5E4C
  8
0
 10
345.99003477557022
 20
33.744867782576883
 30
0.0
  0
VERTEX
  5
5E4D
  8
0
 10
347.00349879992632
 20
33.207736563507751
 30
0.0
  0
VERTEX
  5
5E4E
  8
0
 10
348.71660797277099
 20
32.63288998314318
 30
0.0
  0
VERTEX
  5
5E4F
  8
0
 10
350.54013171911203
 20
32.307652797142737
 30
0.0
  0
VERTEX
  5
5E50
  8
0
 10
352.99553104401281
 20
32.137581708508087
 30
0.0
  0
VERTEX
  5
5E51
  8
0
 10
355.46817047646391
 20
32.110261421780592
 30
0.0
  0
SEQEND
  5
5E52
  8
0
  0
LINE
  5
599B
  8
0
 10
371.45301303949418
 20
32.110261421780422
 30
0.0
 11
343.45301303949458
 21
32.110261421780713
 31
0.0
  0
POLYLINE
  5
599C
  8
0
 66
     1
 10
0.0
 20
0.0
 30
0.0
 70
   128
  0
VERTEX
  5
5E53
  8
0
 10
359.43785560252491
 20
32.110261421780542
 30
0.0
  0
VERTEX
  5
5E54
  8
0
 10
362.16920449771652
 20
32.146155830852479
 30
0.0
  0
VERTEX
  5
5E55
  8
0
 10
364.90055339290802
 20
32.380196460094112
 30
0.0
  0
VERTEX
  5
5E56
  8
0
 10
366.72350143280778
 20
32.77756193875274
 30
0.0
  0
VERTEX
  5
5E57
  8
0
 10
368.49731427502547
 20
33.499574015521553
 30
0.0
  0
VERTEX
  5
5E58
  8
0
 10
369.97788760057921
 20
34.582178887685991
 30
0.0
  0
VERTEX
  5
5E59
  8
0
 10
370.56867433111211
 20
35.277268711778788
 30
0.0
  0
VERTEX
  5
5E5A
  8
0
 10
371.03226221114801
 20
36.100834089025398
 30
0.0
  0
VERTEX
  5
5E5B
  8
0
 10
371.35933234566892
 20
37.427541808698443
 30
0.0
  0
VERTEX
  5
5E5C
  8
0
 10
371.36946373642149
 20
37.710261421780388
 30
0.0
  0
SEQEND
  5
5E5D
  8
0
  0
LINE
  5
599D
  8
0
 10
371.45301303949458
 20
37.710261421780388
 30
0.0
 11
371.36946373642149
 21
37.710261421780388
 31
0.0
  0
LINE
  5
599E
  8
0
 10
371.45301303949509
 20
42.110261421780592
 30
0.0
 11
371.45301303949418
 21
32.110261421780422
 31
0.0
  0
LINE
  5
59A0
  8
0
 10
343.53656234256749
 20
42.110261421780763
 30
0.0
 11
343.53656234256732
 21
37.710261421780793
 31
0.0
  0
LINE
  5
59A1
  8
0
 10
371.45301303949441
 20
42.110261421780393
 30
0.0
 11
343.45301303949668
 21
42.110261421780763
 31
0.0
  0
LINE
  5
59A2
  8
0
 10
371.36946373642149
 20
37.710261421780388
 30
0.0
 11
371.36946373642149
 21
42.110261421780358
 31
0.0
  0
LINE
  5
59A7
  8
0
 10
364.20301303949458
 20
54.375557993816471
 30
0.0
 11
350.70301303949668
 21
54.375557993816642
 31
0.0
  0
ARC
  5
59A8
  8
0
 10
357.45301303949651
 20
42.110261421781722
 30
0.0
 40
10.84792606906978
 50
359.99999999999397
 51
180.0000000000266
  0
LINE
  5
59A9
  8
0
 10
365.453013039496
 20
240.8832614217805
 30
0.0
 11
349.453013039496
 21
240.8832614217807
 31
0.0
  0
LINE
  5
59AA
  8
0
 10
364.22601303949608
 20
242.11026142178051
 30
0.0
 11
350.68001303949632
 21
242.11026142178071
 31
0.0
  0
LINE
  5
59AD
  8
0
 10
341.45301303949492
 20
66.110261421780592
 30
0.0
 11
373.45301303949481
 21
66.110261421780592
 31
0.0
  0
LINE
  5
59AE
  8
0
 10
341.45301303949492
 20
73.110261421780592
 30
0.0
 11
373.45301303949481
 21
73.110261421780592
 31
0.0
  0
LINE
  5
59AF
  8
0
 10
346.45301303949481
 20
81.110261421780606
 30
0.0
 11
368.45301303949492
 21
81.110261421780606
 31
0.0
  0
LINE
  5
59B0
  8
0
 10
351.35826892782052
 20
221.11026142178059
 30
0.0
 11
363.54775715116898
 21
221.11026142178059
 31
0.0
  0
LINE
  5
59B1
  8
0
 10
365.45301303949492
 20
220.0102614217806
 30
0.0
 11
349.45301303949492
 21
220.0102614217806
 31
0.0
  0
LINE
  5
59B2
  8
0
 10
365.45301303949492
 20
83.110261421780592
 30
0.0
 11
349.45301303949492
 21
83.110261421780592
 31
0.0
  0
LINE
  5
59B3
  8
0
 10
362.95301303949481
 20
81.666885748806521
 30
0.0
 11
351.95301303949492
 21
81.666885748806521
 31
0.0
  0
LINE
  5
59B4
  8
0
 10
341.45301303949549
 20
146.71026142178101
 30
0.0
 11
349.45301303949492
 21
146.7102614217809
 31
0.0
  0
LINE
  5
59B5
  8
0
 10
365.4530130394956
 20
146.7102614217807
 30
0.0
 11
373.4530130394956
 21
146.71026142178059
 31
0.0
  0
LINE
  5
59B6
  8
0
 10
341.45301303949549
 20
150.1102614217811
 30
0.0
 11
349.45301303949492
 21
150.11026142178099
 31
0.0
  0
LINE
  5
59B7
  8
0
 10
365.4530130394956
 20
150.11026142178071
 30
0.0
 11
373.4530130394956
 21
150.11026142178059
 31
0.0
  0
POLYLINE
  5
59B8
  8
0
 66
     1
 10
0.0
 20
0.0
 30
0.0
 70
   128
  0
VERTEX
  5
5E5E
  8
0
 10
369.45301303949577
 20
166.74978951746141
 30
0.0
  0
VERTEX
  5
5E5F
  8
0
 10
366.3100911725341
 20
167.56453005540891
 30
0.0
  0
VERTEX
  5
5E60
  8
0
 10
365.45301303949492
 20
167.6743648429341
 30
0.0
  0
SEQEND
  5
5E61
  8
0
  0
LINE
  5
59B9
  8
0
 10
369.4530130394956
 20
150.11026142178071
 30
0.0
 11
369.45301303949577
 21
166.74978951746141
 31
0.0
  0
LINE
  5
59BA
  8
0
 10
345.95301303949577
 20
168.11026142178099
 30
0.0
 11
349.45301303949492
 21
168.11026142178099
 31
0.0
  0
LINE
  5
59BB
  8
0
 10
365.45301303949492
 20
168.11026142178071
 30
0.0
 11
368.95301303949577
 21
168.11026142178071
 31
0.0
  0
LINE
  5
59BC
  8
0
 10
369.453013039496
 20
167.81267950193609
 30
0.0
 11
369.45301303949577
 21
166.74978951746141
 31
0.0
  0
POLYLINE
  5
59BD
  8
0
 66
     1
 10
0.0
 20
0.0
 30
0.0
 70
   128
  0
VERTEX
  5
5E62
  8
0
 10
349.45301303949492
 20
167.6361195525626
 30
0.0
  0
VERTEX
  5
5E63
  8
0
 10
348.23525454313682
 20
167.49708213819389
 30
0.0
  0
VERTEX
  5
5E64
  8
0
 10
345.45301303949549
 20
166.74978951746169
 30
0.0
  0
SEQEND
  5
5E65
  8
0
  0
LINE
  5
59BE
  8
0
 10
345.45301303949549
 20
166.74978951746169
 30
0.0
 11
345.45301303949577
 21
167.81491120707039
 31
0.0
  0
LINE
  5
59BF
  8
0
 10
345.45301303949549
 20
150.11026142178099
 30
0.0
 11
345.45301303949549
 21
166.74978951746169
 31
0.0
  0
LINE
  5
59C0
  8
0
 10
341.45301303949549
 20
141.6102614217811
 30
0.0
 11
349.45301303949549
 21
141.61026142178099
 31
0.0
  0
LINE
  5
59C1
  8
0
 10
365.45301303949492
 20
141.61026142178071
 30
0.0
 11
373.4530130394956
 21
141.61026142178059
 31
0.0
  0
LINE
  5
59C2
  8
0
 10
373.4530130394956
 20
145.61026142178059
 30
0.0
 11
365.45301303949532
 21
145.61026142178071
 31
0.0
  0
LINE
  5
59C3
  8
0
 10
349.45301303949492
 20
145.61026142178099
 30
0.0
 11
341.45301303949549
 21
145.6102614217811
 31
0.0
  0
LINE
  5
59C4
  8
0
 10
341.9530130394956
 20
146.1102614217811
 30
0.0
 11
349.45301303949492
 21
146.11026142178099
 31
0.0
  0
LINE
  5
59C5
  8
0
 10
365.45301303949492
 20
146.11026142178071
 30
0.0
 11
372.9530130394956
 21
146.11026142178059
 31
0.0
  0
LINE
  5
5B5F
  8
3
 10
262.45301303949481
 20
116.11026142178061
 30
0.0
 11
262.45301303949492
 21
82.532911152590927
 31
0.0
  0
LINE
  5
5B60
  8
3
 10
248.45301303949481
 20
116.11026142178061
 30
0.0
 11
248.45301303949481
 21
82.532911152590927
 31
0.0
  0
LINE
  5
5B61
  8
3
 10
222.45301303949489
 20
116.11026142178061
 30
0.0
 11
222.45301303949489
 21
115.3782106142117
 31
0.0
  0
LINE
  5
5B62
  8
3
 10
208.45301303949489
 20
116.11026142178061
 30
0.0
 11
208.45301303949489
 21
115.3782106142117
 31
0.0
  0
LINE
  5
5B85
  8
2
 10
161.95301303949489
 20
141.11026142178059
 30
0.0
 11
161.95301303949489
 21
117.6597136701903
 31
0.0
  0
LINE
  5
5B86
  8
2
 10
270.45301303949492
 20
121.11026142178029
 30
0.0
 11
215.45301303949489
 21
121.11026142178029
 31
0.0
  0
ARC
  5
5B87
  8
2
 10
215.45301303949489
 20
331.11026142178122
 30
0.0
 40
8.5
 50
270.0
 51
90.0
  0
LINE
  5
5B88
  8
2
 10
201.8975713277689
 20
339.61026142178059
 30
0.0
 11
270.45301303949492
 21
339.6102614217836
 31
0.0
  0
LINE
  5
5B89
  8
2
 10
201.8975713277689
 20
322.61026142178002
 30
0.0
 11
270.45301303949492
 21
322.61026142177718
 31
0.0
  0
LINE
  5
5B8A
  8
2
 10
223.95301303949489
 20
121.11026142178029
 30
0.0
 11
223.95301303949489
 21
141.11026142178059
 31
0.0
  0
LINE
  5
5B93
  8
3
 10
364.45301303949492
 20
121.11026142178071
 30
0.0
 11
364.45301303949492
 21
82.532911152590984
 31
0.0
  0
LINE
  5
5B94
  8
3
 10
350.45301303949481
 20
121.1102614217809
 30
0.0
 11
350.45301303949492
 21
82.532911152590927
 31
0.0
  0
LINE
  5
5B95
  8
3
 10
364.45301303949492
 20
241.88326142178181
 30
0.0
 11
364.45301303949492
 21
141.1102614217811
 31
0.0
  0
LINE
  5
5B96
  8
3
 10
350.45301303949458
 20
241.8832614217792
 30
0.0
 11
350.45301303949481
 21
141.1102614217811
 31
0.0
  0
LINE
  5
5B9F
  8
1
 10
357.45301303949623
 20
247.11026142178059
 30
0.0
 11
357.45301303949799
 21
27.110261421780621
 31
0.0
  0
LINE
  5
5BA0
  8
1
 10
170.45301303949509
 20
319.61026142178059
 30
0.0
 11
170.45301303949509
 21
342.61026142178059
 31
0.0
  0
LINE
  5
5BA1
  8
1
 10
215.453013039495
 20
312.11026142178071
 30
0.0
 11
215.453013039495
 21
350.11026142178082
 31
0.0
  0
LINE
  5
5BA2
  8
1
 10
255.45301303949469
 20
320.11026142178002
 30
0.0
 11
255.45301303949469
 21
342.11026142178002
 31
0.0
  0
LINE
  5
5CDC
  8
0
 10
364.2030130394956
 20
81.110261421780606
 30
0.0
 11
364.20301303949572
 21
82.38857358529404
 31
0.0
  0
LINE
  5
5CDD
  8
0
 10
350.70301303949572
 20
82.388573585293102
 30
0.0
 11
350.70301303949572
 21
81.110261421780606
 31
0.0
  0
LINE
  5
5CE8
  8
3
 10
52.453013039495062
 20
116.11026142178029
 30
0.0
 11
52.453013039495168
 21
82.532911152590657
 31
0.0
  0
LINE
  5
5CE9
  8
3
 10
66.453013039495062
 20
116.11026142178029
 30
0.0
 11
66.453013039495175
 21
82.532911152590657
 31
0.0
  0
LINE
  5
5CEB
  8
0
 10
67.453013039495175
 20
83.110261421780308
 30
0.0
 11
66.203013039495161
 21
83.110261421780308
 31
0.0
  0
LINE
  5
5CEE
  8
0
 10
66.203013039495161
 20
82.388573585293216
 30
0.0
 11
67.453013039495175
 21
83.110261421780308
 31
0.0
  0
LINE
  5
5CEF
  8
0
 10
51.453013039495168
 20
83.110261421780308
 30
0.0
 11
52.703013039495161
 21
82.388573585293301
 31
0.0
  0
LINE
  5
5CF0
  8
0
 10
67.453013039495175
 20
83.110261421780308
 30
0.0
 11
67.453013039495175
 21
116.1102614217799
 31
0.0
  0
LINE
  5
5CF1
  8
0
 10
51.453013039495168
 20
116.1102614217799
 30
0.0
 11
51.453013039495168
 21
83.110261421780308
 31
0.0
  0
LINE
  5
5CF3
  8
0
 10
52.703013039495161
 20
83.110261421780308
 30
0.0
 11
51.453013039495168
 21
83.110261421780308
 31
0.0
  0
TEXT
  5
5DAD
  8
0
 62
     3
 10
0.0
 20
0.0
 30
0.0
 40
10.0
  1
BJ156-16125B3-T
  7
STANDARD1
  0
ENDSEC
  0
EOF
