  0
SECTION
  2
HEADER
  9
$ACADVER
  1
AC1009
  9
$INSBASE
 10
82.638099999999994
 20
103.82319099999999
 30
0.0
  9
$EXTMIN
 10
0.0
 20
-2.960436562073669
 30
0.0
  9
$EXTMAX
 10
376.45301303949509
 20
310.11026142178059
 30
0.0
  9
$LIMMIN
 10
0.0
 20
0.0
  9
$LIMMAX
 10
375.0
 20
270.0
  9
$ORTHOMODE
 70
     1
  9
$REGENMODE
 70
     1
  9
$FILLMODE
 70
     1
  9
$QTEXTMODE
 70
     0
  9
$MIRRTEXT
 70
     0
  9
$DRAGMODE
 70
     2
  9
$LTSCALE
 40
10.0
  9
$OSMODE
 70
  3071
  9
$ATTMODE
 70
     1
  9
$TEXTSIZE
 40
0.06
  9
$TRACEWID
 40
0.05
  9
$TEXTSTYLE
  7
STANDARD
  9
$CLAYER
  8
0
  9
$CELTYPE
  6
BYLAYER
  9
$CECOLOR
 62
   256
  9
$DIMSCALE
 40
1.0
  9
$DIMASZ
 40
3.0
  9
$DIMEXO
 40
2.0
  9
$DIMDLI
 40
10.0
  9
$DIMRND
 40
0.0
  9
$DIMDLE
 40
0.0
  9
$DIMEXE
 40
2.0
  9
$DIMTP
 40
0.0
  9
$DIMTM
 40
0.0
  9
$DIMTXT
 40
3.0
  9
$DIMCEN
 40
0.0
  9
$DIMTSZ
 40
0.0
  9
$DIMTOL
 70
     0
  9
$DIMLIM
 70
     0
  9
$DIMTIH
 70
     0
  9
$DIMTOH
 70
     0
  9
$DIMSE1
 70
     0
  9
$DIMSE2
 70
     0
  9
$DIMTAD
 70
     1
  9
$DIMZIN
 70
     0
  9
$DIMBLK
  1

  9
$DIMASO
 70
     0
  9
$DIMSHO
 70
     0
  9
$DIMPOST
  1

  9
$DIMAPOST
  1

  9
$DIMALT
 70
     0
  9
$DIMALTD
 70
     2
  9
$DIMALTF
 40
25.399999999999999
  9
$DIMLFAC
 40
1.0
  9
$DIMTOFL
 70
     1
  9
$DIMTVP
 40
1.6000000000000001
  9
$DIMTIX
 70
     1
  9
$DIMSOXD
 70
     0
  9
$DIMSAH
 70
     0
  9
$DIMBLK1
  1

  9
$DIMBLK2
  1

  9
$DIMSTYLE
  2
STANDARD
  9
$DIMCLRD
 70
     0
  9
$DIMCLRE
 70
     0
  9
$DIMCLRT
 70
     0
  9
$DIMTFAC
 40
1.0
  9
$DIMGAP
 40
0.09
  9
$LUNITS
 70
     2
  9
$LUPREC
 70
     4
  9
$SKETCHINC
 40
0.1
  9
$FILLETRAD
 40
0.0
  9
$AUNITS
 70
     0
  9
$AUPREC
 70
     4
  9
$MENU
  1
E:\r13\win\SUPPORT\ACAD
  9
$ELEVATION
 40
0.0
  9
$PELEVATION
 40
0.0
  9
$THICKNESS
 40
0.0
  9
$LIMCHECK
 70
     0
  9
$BLIPMODE
 70
     0
  9
$CHAMFERA
 40
0.0
  9
$CHAMFERB
 40
0.0
  9
$SKPOLY
 70
     0
  9
$TDCREATE
 40
2449840.348113426
  9
$TDUPDATE
 40
2456597.6490601511
  9
$TDINDWG
 40
0.5923286921000001
  9
$TDUSRTIMER
 40
0.5923286921000001
  9
$USRTIMER
 70
     1
  9
$ANGBASE
 50
0.0
  9
$ANGDIR
 70
     0
  9
$PDMODE
 70
     1
  9
$PDSIZE
 40
0.0
  9
$PLINEWID
 40
0.0
  9
$COORDS
 70
     1
  9
$SPLFRAME
 70
     0
  9
$SPLINETYPE
 70
     6
  9
$SPLINESEGS
 70
     8
  9
$ATTDIA
 70
     0
  9
$ATTREQ
 70
     1
  9
$HANDLING
 70
     1
  9
$HANDSEED
  5
5F75
  9
$SURFTAB1
 70
     6
  9
$SURFTAB2
 70
     6
  9
$SURFTYPE
 70
     6
  9
$SURFU
 70
     6
  9
$SURFV
 70
     6
  9
$UCSNAME
  2

  9
$UCSORG
 10
0.0
 20
0.0
 30
0.0
  9
$UCSXDIR
 10
1.0
 20
0.0
 30
0.0
  9
$UCSYDIR
 10
0.0
 20
1.0
 30
0.0
  9
$PUCSNAME
  2

  9
$PUCSORG
 10
0.0
 20
0.0
 30
0.0
  9
$PUCSXDIR
 10
1.0
 20
0.0
 30
0.0
  9
$PUCSYDIR
 10
0.0
 20
1.0
 30
0.0
  9
$USERI1
 70
     3
  9
$USERI2
 70
     1
  9
$USERI3
 70
     0
  9
$USERI4
 70
     0
  9
$USERI5
 70
     0
  9
$USERR1
 40
1.0
  9
$USERR2
 40
3.0
  9
$USERR3
 40
3.0
  9
$USERR4
 40
3.0
  9
$USERR5
 40
10.0
  9
$WORLDVIEW
 70
     1
  9
$SHADEDGE
 70
     3
  9
$SHADEDIF
 70
    70
  9
$TILEMODE
 70
     1
  9
$MAXACTVP
 70
    16
  9
$PLIMCHECK
 70
     0
  9
$PEXTMIN
 10
1.0000000000000000E+020
 20
1.0000000000000000E+020
 30
1.0000000000000000E+020
  9
$PEXTMAX
 10
-1.0000000000000000E+020
 20
-1.0000000000000000E+020
 30
-1.0000000000000000E+020
  9
$PLIMMIN
 10
0.0
 20
0.0
  9
$PLIMMAX
 10
12.0
 20
9.0
  9
$UNITMODE
 70
     0
  9
$VISRETAIN
 70
     0
  9
$PLINEGEN
 70
     0
  9
$PSLTSCALE
 70
     0
  0
ENDSEC
  0
SECTION
  2
TABLES
  0
TABLE
  2
VPORT
 70
     1
  0
VPORT
  2
*ACTIVE
 70
     0
 10
0.0
 20
0.0
 11
1.0
 21
1.0
 12
196.901799849018
 22
153.5764104733407
 13
0.0
 23
0.0
 14
5.0
 24
5.0
 15
10.0
 25
10.0
 16
0.0
 26
0.0
 36
1.0
 17
0.0
 27
0.0
 37
0.0
 40
315.89458281648359
 41
1.831871345029239
 42
50.0
 43
0.0
 44
0.0
 50
0.0
 51
0.0
 71
     0
 72
   100
 73
     1
 74
     0
 75
     0
 76
     0
 77
     0
 78
     0
  0
ENDTAB
  0
TABLE
  2
LTYPE
 70
     4
  0
LTYPE
  2
CONTINUOUS
 70
     0
  3
Solid Line
 72
    65
 73
     0
 40
0.0
  0
LTYPE
  2
CENTER
 70
     0
  3
____ _ ____ _ ____ _ ____ _ ____ _ ____ _ ____
 72
    65
 73
     4
 40
2.0
 49
1.25
 49
-0.25
 49
0.25
 49
-0.25
  0
LTYPE
  2
HIDDEN
 70
     0
  3
__ __ __ __ __ __ __ __ __ __ __ __ __ __ __ __
 72
    65
 73
     2
 40
0.375
 49
0.25
 49
-0.125
  0
LTYPE
  2
PHANTOM2
 70
     0
  3
___ _ _ ___ _ _ ___ _ _ ___ _ _
 72
    65
 73
     6
 40
1.25
 49
0.625
 49
-0.125
 49
0.125
 49
-0.125
 49
0.125
 49
-0.125
  0
ENDTAB
  0
TABLE
  2
LAYER
 70
     5
  0
LAYER
  2
0
 70
     0
 62
     7
  6
CONTINUOUS
  0
LAYER
  2
1
 70
     0
 62
     1
  6
CENTER
  0
LAYER
  2
2
 70
     0
 62
     2
  6
HIDDEN
  0
LAYER
  2
3
 70
     0
 62
     3
  6
CONTINUOUS
  0
LAYER
  2
DEFPOINTS
 70
     0
 62
     7
  6
CONTINUOUS
  0
ENDTAB
  0
TABLE
  2
STYLE
 70
     2
  0
STYLE
  2
STANDARD
 70
     0
 40
0.0
 41
1.0
 50
0.0
 71
     0
 42
0.06
  3
TXT
  4
BIGFONT
  0
STYLE
  2
STANDARD1
 70
     0
 40
0.0
 41
1.0
 50
0.0
 71
     0
 42
3.0
  3
txt
  4

  0
ENDTAB
  0
TABLE
  2
VIEW
 70
     0
  0
ENDTAB
  0
TABLE
  2
UCS
 70
     0
  0
ENDTAB
  0
TABLE
  2
APPID
 70
     3
  0
APPID
  2
ACAD
 70
     0
  0
APPID
  2
ACAD_MLEADERVER
 70
     0
  0
APPID
  2
ACAD_NAV_VCDISPLAY
 70
     0
  0
ENDTAB
  0
TABLE
  2
DIMSTYLE
 70
     1
  0
DIMSTYLE
  2
STANDARD
 70
     0
  3

  4

  5

  6

  7

 40
1.0
 41
0.18
 42
0.0625
 43
0.38
 44
0.18
 45
0.0
 46
0.0
 47
0.0
 48
0.0
140
0.18
141
0.09
142
0.0
143
25.399999999999999
144
1.0
145
0.0
146
1.0
147
0.09
 71
     0
 72
     0
 73
     1
 74
     1
 75
     0
 76
     0
 77
     0
 78
     0
170
     0
171
     2
172
     0
173
     0
174
     0
175
     0
176
     0
177
     0
178
     0
  0
ENDTAB
  0
ENDSEC
  0
SECTION
  2
BLOCKS
  0
BLOCK
  8
0
  2
$MODEL_SPACE
 70
     0
 10
0.0
 20
0.0
 30
0.0
  3
$MODEL_SPACE
  1

  0
ENDBLK
  5
223
  8
0
  0
BLOCK
 67
     1
  8
0
  2
$PAPER_SPACE
 70
     0
 10
0.0
 20
0.0
 30
0.0
  3
$PAPER_SPACE
  1

  0
ENDBLK
  5
221
 67
     1
  8
0
  0
ENDSEC
  0
SECTION
  2
ENTITIES
  0
ARC
  5
57AE
  8
0
 10
215.45301303949489
 20
42.110261421781722
 30
0.0
 40
13.99999999999843
 50
50.791603809977879
 51
61.17455083958874
  0
ARC
  5
57AF
  8
0
 10
215.45301303949489
 20
42.110261421781722
 30
0.0
 40
13.99999999999843
 50
118.8254491604112
 51
129.208396190022
  0
LINE
  5
57B3
  8
0
 10
223.45301303949481
 20
138.11026142178071
 30
0.0
 11
223.45301303949481
 21
200.8832614217805
 31
0.0
  0
LINE
  5
57B4
  8
0
 10
207.453013039495
 20
200.8832614217805
 30
0.0
 11
207.453013039495
 21
138.11026142178071
 31
0.0
  0
LINE
  5
57B6
  8
0
 10
223.45301303949481
 20
200.8832614217805
 30
0.0
 11
222.22601303949489
 21
202.11026142178039
 31
0.0
  0
LINE
  5
57B7
  8
0
 10
208.68001303949501
 20
202.11026142178039
 30
0.0
 11
207.453013039495
 21
200.8832614217805
 31
0.0
  0
LINE
  5
57B8
  8
0
 10
222.20301303949489
 20
54.375557993816592
 30
0.0
 11
222.20301303949489
 21
86.110261421780834
 31
0.0
  0
LINE
  5
57B9
  8
0
 10
208.70301303949489
 20
86.110261421780848
 30
0.0
 11
208.70301303949489
 21
54.375557993816592
 31
0.0
  0
LINE
  5
57BA
  8
0
 10
239.45301303949489
 20
73.110261421780592
 30
0.0
 11
239.45301303949489
 21
66.110261421780592
 31
0.0
  0
LINE
  5
57BB
  8
0
 10
271.45301303949481
 20
66.110261421780592
 30
0.0
 11
271.45301303949481
 21
73.110261421780592
 31
0.0
  0
LINE
  5
57BC
  8
0
 10
244.45301303949481
 20
81.110261421780606
 30
0.0
 11
244.45301303949481
 21
73.110261421780592
 31
0.0
  0
LINE
  5
57BD
  8
0
 10
266.45301303949492
 20
73.110261421780592
 30
0.0
 11
266.45301303949492
 21
81.110261421780606
 31
0.0
  0
LINE
  5
57BE
  8
0
 10
247.45301303949489
 20
170.01026142178051
 30
0.0
 11
247.45301303949489
 21
111.1102614217809
 31
0.0
  0
LINE
  5
57BF
  8
0
 10
247.45301303949489
 20
86.110261421780464
 30
0.0
 11
247.45301303949489
 21
83.110261421780592
 31
0.0
  0
LINE
  5
57C0
  8
0
 10
263.45301303949492
 20
83.110261421780592
 30
0.0
 11
263.45301303949492
 21
86.110261421780464
 31
0.0
  0
LINE
  5
57C1
  8
0
 10
263.45301303949492
 20
111.1102614217809
 30
0.0
 11
263.45301303949492
 21
170.01026142178051
 31
0.0
  0
LINE
  5
57C2
  8
0
 10
263.45301303949492
 20
170.01026142178051
 30
0.0
 11
261.54775715116909
 21
171.11026142178059
 31
0.0
  0
LINE
  5
57C3
  8
0
 10
249.3582689278206
 20
171.11026142178059
 30
0.0
 11
247.45301303949489
 21
170.01026142178051
 31
0.0
  0
LINE
  5
57C4
  8
0
 10
247.45301303949489
 20
83.110261421780592
 30
0.0
 11
249.953013039495
 21
81.666885748806521
 31
0.0
  0
LINE
  5
57C5
  8
0
 10
260.95301303949498
 20
81.666885748806521
 30
0.0
 11
263.45301303949492
 21
83.110261421780592
 31
0.0
  0
LINE
  5
57C6
  8
0
 10
260.95301303949498
 20
81.110261421780606
 30
0.0
 11
260.95301303949498
 21
81.666885748806521
 31
0.0
  0
LINE
  5
57C7
  8
0
 10
249.953013039495
 20
81.666885748806521
 30
0.0
 11
249.953013039495
 21
81.110261421780606
 31
0.0
  0
POLYLINE
  5
57C8
  8
0
 66
     1
 10
0.0
 20
0.0
 30
0.0
 70
   128
  0
VERTEX
  5
5DD7
  8
0
 10
199.453013039495
 20
116.7102614217805
 30
0.0
  0
VERTEX
  5
5DD8
  8
0
 10
200.2536294434189
 20
116.31159790535889
 30
0.0
  0
VERTEX
  5
5DD9
  8
0
 10
200.67852549505039
 20
116.11026142178061
 30
0.0
  0
SEQEND
  5
5DDA
  8
0
  0
POLYLINE
  5
57C9
  8
0
 66
     1
 10
0.0
 20
0.0
 30
0.0
 70
   128
  0
VERTEX
  5
5DDB
  8
0
 10
230.2275005839393
 20
116.11026142178061
 30
0.0
  0
VERTEX
  5
5DDC
  8
0
 10
230.65239663557091
 20
116.31159790535889
 30
0.0
  0
VERTEX
  5
5DDD
  8
0
 10
231.45301303949489
 20
116.7102614217805
 30
0.0
  0
SEQEND
  5
5DDE
  8
0
  0
LINE
  5
57CA
  8
0
 10
199.453013039495
 20
120.11026142178061
 30
0.0
 11
199.453013039495
 21
116.7102614217805
 31
0.0
  0
LINE
  5
57CB
  8
0
 10
231.45301303949489
 20
116.7102614217805
 30
0.0
 11
231.45301303949489
 21
120.11026142178061
 31
0.0
  0
LINE
  5
57CC
  8
0
 10
229.30941950004589
 20
136.74978951746129
 30
0.0
 11
226.95301303949489
 21
138.11026142178059
 31
0.0
  0
LINE
  5
57CD
  8
0
 10
203.95301303949489
 20
138.11026142178059
 30
0.0
 11
201.59660657894381
 21
136.74978951746129
 31
0.0
  0
LINE
  5
57CE
  8
0
 10
199.453013039495
 20
111.61026142178061
 30
0.0
 11
199.95301303949481
 21
111.11026142178061
 31
0.0
  0
LINE
  5
57CF
  8
0
 10
230.95301303949489
 20
111.11026142178061
 30
0.0
 11
231.45301303949489
 21
111.61026142178061
 31
0.0
  0
LINE
  5
57D0
  8
0
 10
231.45301303949489
 20
111.61026142178061
 30
0.0
 11
231.45301303949489
 21
115.61026142178061
 31
0.0
  0
LINE
  5
57D1
  8
0
 10
199.453013039495
 20
115.61026142178061
 30
0.0
 11
199.453013039495
 21
111.61026142178061
 31
0.0
  0
LINE
  5
57D2
  8
0
 10
231.45301303949489
 20
115.61026142178061
 30
0.0
 11
230.95301303949489
 21
116.11026142178061
 31
0.0
  0
LINE
  5
57D3
  8
0
 10
199.95301303949481
 20
116.11026142178061
 30
0.0
 11
199.453013039495
 21
115.61026142178061
 31
0.0
  0
LINE
  5
57D4
  8
0
 10
158.05301303949491
 20
88.088285568686842
 30
0.0
 11
176.05301303949469
 21
86.110261421780876
 31
0.0
  0
ARC
  5
57D5
  8
0
 10
151.45301303949481
 20
98.11026142178082
 30
0.0
 40
11.99999999999998
 50
240.0000000000002
 51
303.36701296923258
  0
LINE
  5
57D6
  8
0
 10
145.45301303949481
 20
111.1102614217809
 30
0.0
 11
145.45301303949481
 21
87.717956576367612
 31
0.0
  0
LINE
  5
57D7
  8
0
 10
145.45301303949481
 20
111.1102614217809
 30
0.0
 11
270.45301303949492
 21
111.1102614217809
 31
0.0
  0
LINE
  5
57D8
  8
0
 10
270.45301303949492
 20
111.1102614217809
 30
0.0
 11
270.45301303949492
 21
86.110261421780805
 31
0.0
  0
LINE
  5
57D9
  8
0
 10
270.45301303949492
 20
86.110261421780805
 30
0.0
 11
176.05301303949469
 21
86.110261421780876
 31
0.0
  0
LINE
  5
57DA
  8
0
 10
229.45301303949509
 20
32.110261421781018
 30
0.0
 11
201.453013039495
 21
32.110261421780592
 31
0.0
  0
LINE
  5
57DC
  8
0
 10
201.536562342568
 20
37.710261421780793
 30
0.0
 11
201.45301303949509
 21
37.710261421780793
 31
0.0
  0
POLYLINE
  5
57DD
  8
0
 66
     1
 10
0.0
 20
0.0
 30
0.0
 70
   128
  0
VERTEX
  5
5DDF
  8
0
 10
201.536562342568
 20
37.710261421780793
 30
0.0
  0
VERTEX
  5
5DE0
  8
0
 10
201.65327925580769
 20
36.754810622896287
 30
0.0
  0
VERTEX
  5
5DE1
  8
0
 10
202.17293378172479
 20
35.526454381467211
 30
0.0
  0
VERTEX
  5
5DE2
  8
0
 10
203.10072315922059
 20
34.418357187580227
 30
0.0
  0
VERTEX
  5
5DE3
  8
0
 10
203.99003477557079
 20
33.744867782576989
 30
0.0
  0
VERTEX
  5
5DE4
  8
0
 10
205.00349879992689
 20
33.207736563507872
 30
0.0
  0
VERTEX
  5
5DE5
  8
0
 10
206.71660797277161
 20
32.63288998314323
 30
0.0
  0
VERTEX
  5
5DE6
  8
0
 10
208.54013171911251
 20
32.30765279714285
 30
0.0
  0
VERTEX
  5
5DE7
  8
0
 10
210.99553104401321
 20
32.137581708508208
 30
0.0
  0
VERTEX
  5
5DE8
  8
0
 10
213.46817047646451
 20
32.110261421780763
 30
0.0
  0
SEQEND
  5
5DE9
  8
0
  0
POLYLINE
  5
57DF
  8
0
 66
     1
 10
0.0
 20
0.0
 30
0.0
 70
   128
  0
VERTEX
  5
5DEA
  8
0
 10
217.43785560252559
 20
32.110261421780763
 30
0.0
  0
VERTEX
  5
5DEB
  8
0
 10
220.16920449771709
 20
32.146155830852713
 30
0.0
  0
VERTEX
  5
5DEC
  8
0
 10
222.90055339290859
 20
32.380196460094403
 30
0.0
  0
VERTEX
  5
5DED
  8
0
 10
224.72350143280829
 20
32.777561938753031
 30
0.0
  0
VERTEX
  5
5DEE
  8
0
 10
226.4973142750259
 20
33.499574015521937
 30
0.0
  0
VERTEX
  5
5DEF
  8
0
 10
227.97788760057969
 20
34.582178887686332
 30
0.0
  0
VERTEX
  5
5DF0
  8
0
 10
228.5686743311127
 20
35.277268711779193
 30
0.0
  0
VERTEX
  5
5DF1
  8
0
 10
229.03226221114869
 20
36.100834089025739
 30
0.0
  0
VERTEX
  5
5DF2
  8
0
 10
229.3593323456694
 20
37.427541808698841
 30
0.0
  0
VERTEX
  5
5DF3
  8
0
 10
229.36946373642189
 20
37.710261421780793
 30
0.0
  0
SEQEND
  5
5DF4
  8
0
  0
LINE
  5
57E0
  8
0
 10
229.45301303949509
 20
37.710261421780793
 30
0.0
 11
229.36946373642189
 21
37.710261421780793
 31
0.0
  0
LINE
  5
57E3
  8
0
 10
201.536562342568
 20
42.110261421780763
 30
0.0
 11
201.536562342568
 21
37.710261421780793
 31
0.0
  0
LINE
  5
57E4
  8
0
 10
229.4530130394952
 20
42.110261421780791
 30
0.0
 11
201.4530130394952
 21
42.110261421780791
 31
0.0
  0
LINE
  5
57E6
  8
0
 10
229.36946373642189
 20
37.710261421780793
 30
0.0
 11
229.36946373642189
 21
42.110261421780763
 31
0.0
  0
LINE
  5
57E8
  8
0
 10
201.453013039495
 20
32.110261421780592
 30
0.0
 11
201.45301303949509
 21
42.110261421780763
 31
0.0
  0
LINE
  5
57E9
  8
0
 10
222.2030130394939
 20
54.375557993816592
 30
0.0
 11
208.70301303949489
 21
54.375557993816592
 31
0.0
  0
LINE
  5
57EA
  8
0
 10
206.6030130394951
 20
42.110261421780763
 30
0.0
 11
206.6030130394949
 21
52.958187490848623
 31
0.0
  0
LINE
  5
57EB
  8
0
 10
224.30301303949491
 20
52.958187490848623
 30
0.0
 11
224.3030130394973
 21
42.110261421780763
 31
0.0
  0
LINE
  5
57ED
  8
0
 10
229.45301303949509
 20
42.110261421780763
 30
0.0
 11
229.45301303949509
 21
32.110261421780557
 31
0.0
  0
LINE
  5
57F0
  8
0
 10
223.45301303949481
 20
200.8832614217805
 30
0.0
 11
207.453013039495
 21
200.8832614217805
 31
0.0
  0
LINE
  5
57F1
  8
0
 10
222.22601303949489
 20
202.11026142178039
 30
0.0
 11
208.68001303949501
 21
202.11026142178039
 31
0.0
  0
LINE
  5
57F3
  8
0
 10
239.45301303949489
 20
66.110261421780592
 30
0.0
 11
271.45301303949481
 21
66.110261421780592
 31
0.0
  0
LINE
  5
57F5
  8
0
 10
239.45301303949489
 20
73.110261421780592
 30
0.0
 11
271.45301303949481
 21
73.110261421780621
 31
0.0
  0
LINE
  5
57F7
  8
0
 10
244.45301303949481
 20
81.110261421780606
 30
0.0
 11
266.45301303949492
 21
81.110261421780621
 31
0.0
  0
LINE
  5
57F8
  8
0
 10
263.45301303949492
 20
83.110261421780592
 30
0.0
 11
247.45301303949489
 21
83.110261421780592
 31
0.0
  0
LINE
  5
57F9
  8
0
 10
263.45301303949492
 20
170.01026142178051
 30
0.0
 11
247.45301303949489
 21
170.01026142178051
 31
0.0
  0
LINE
  5
57FA
  8
0
 10
249.3582689278206
 20
171.11026142178059
 30
0.0
 11
261.54775715116909
 21
171.11026142178059
 31
0.0
  0
LINE
  5
57FB
  8
0
 10
260.95301303949498
 20
81.666885748806521
 30
0.0
 11
249.953013039495
 21
81.666885748806521
 31
0.0
  0
LINE
  5
57FD
  8
0
 10
199.453013039495
 20
116.7102614217805
 30
0.0
 11
231.45301303949489
 21
116.710261421781
 31
0.0
  0
LINE
  5
57FF
  8
0
 10
199.453013039495
 20
120.11026142178061
 30
0.0
 11
231.45301303949489
 21
120.110261421781
 31
0.0
  0
LINE
  5
5800
  8
0
 10
201.59660657894381
 20
120.11026142178061
 30
0.0
 11
201.59660657894381
 21
136.74978951746129
 31
0.0
  0
ARC
  5
5801
  8
0
 10
205.06070819408171
 20
131.51628710559879
 30
0.0
 40
6.2761092641039866
 50
56.499071751164841
 51
123.5009282488373
  0
LINE
  5
5802
  8
0
 10
208.52480980921939
 20
120.11026142178071
 30
0.0
 11
208.52480980921939
 21
136.74978951746141
 31
0.0
  0
ARC
  5
5803
  8
0
 10
215.45301303949481
 20
114.3847747834768
 30
0.0
 40
23.413540613314971
 50
72.788136995660423
 51
107.2118630043379
  0
LINE
  5
5804
  8
0
 10
222.38121626977039
 20
120.11026142178071
 30
0.0
 11
222.38121626977039
 21
136.74978951746141
 31
0.0
  0
ARC
  5
5805
  8
0
 10
225.84531788490801
 20
131.51628710559899
 30
0.0
 40
6.2761092641037806
 50
56.499071751160997
 51
123.50092824883529
  0
LINE
  5
5806
  8
0
 10
229.30941950004589
 20
120.11026142178061
 30
0.0
 11
229.30941950004589
 21
136.74978951746129
 31
0.0
  0
LINE
  5
5808
  8
0
 10
203.95301303949489
 20
138.11026142178059
 30
0.0
 11
226.95301303949449
 21
138.1102614217809
 31
0.0
  0
LINE
  5
5809
  8
0
 10
199.453013039495
 20
111.61026142178061
 30
0.0
 11
231.45301303949489
 21
111.61026142178061
 31
0.0
  0
LINE
  5
580A
  8
0
 10
231.45301303949429
 20
115.6102614217811
 30
0.0
 11
199.453013039495
 21
115.61026142178061
 31
0.0
  0
LINE
  5
580D
  8
0
 10
199.95301303949481
 20
116.11026142178061
 30
0.0
 11
230.95301303949441
 21
116.110261421781
 31
0.0
  0
LINE
  5
580F
  8
1
 10
170.45301303949509
 20
114.1102614217809
 30
0.0
 11
170.453013039495
 21
83.707587275038833
 31
0.0
  0
LINE
  5
5827
  8
3
 10
222.45301303949489
 20
201.88326142178039
 30
0.0
 11
222.45301303949489
 21
138.11026142178059
 31
0.0
  0
LINE
  5
5828
  8
3
 10
208.45301303949489
 20
201.88326142178039
 30
0.0
 11
208.45301303949481
 21
138.11026142178059
 31
0.0
  0
LINE
  5
5829
  8
3
 10
262.45301303949492
 20
170.58761169097019
 30
0.0
 11
262.45301303949481
 21
111.11026142178081
 31
0.0
  0
LINE
  5
582A
  8
3
 10
248.45301303949481
 20
170.58761169097019
 30
0.0
 11
248.45301303949481
 21
111.11026142178081
 31
0.0
  0
LINE
  5
582E
  8
1
 10
215.453013039495
 20
207.11026142178039
 30
0.0
 11
215.45301303949489
 21
27.110261421780759
 31
0.0
  0
LINE
  5
582F
  8
1
 10
255.45301303949489
 20
61.110261421780557
 30
0.0
 11
255.45301303949469
 21
176.11026142178059
 31
0.0
  0
LINE
  5
5890
  8
0
 10
145.45301303949481
 20
310.11026142178048
 30
0.0
 11
270.45301303949492
 21
310.11026142178048
 31
0.0
  0
LINE
  5
5891
  8
0
 10
270.45301303949492
 20
272.11026142178042
 30
0.0
 11
270.45301303949492
 21
310.11026142178048
 31
0.0
  0
LINE
  5
5892
  8
0
 10
145.45301303949481
 20
272.11026142178048
 30
0.0
 11
270.45301303949492
 21
272.11026142178042
 31
0.0
  0
LINE
  5
5893
  8
0
 10
145.45301303949481
 20
272.11026142178048
 30
0.0
 11
145.45301303949481
 21
310.11026142178048
 31
0.0
  0
LINE
  5
5894
  8
0
 10
170.45301303949481
 20
299.61026142178048
 30
0.0
 11
201.8975713277689
 21
299.61026142178048
 31
0.0
  0
ARC
  5
5895
  8
0
 10
170.45301303949481
 20
291.11026142178048
 30
0.0
 40
8.5
 50
90.0
 51
270.0
  0
LINE
  5
5896
  8
0
 10
201.89757132776899
 20
282.61026142178048
 30
0.0
 11
170.45301303949481
 21
282.61026142178048
 31
0.0
  0
CIRCLE
  5
5897
  8
0
 10
215.45301303949489
 20
291.11026142178099
 30
0.0
 40
7.9999999999998863
  0
LINE
  5
5899
  8
0
 10
201.453013039495
 20
282.61026142178048
 30
0.0
 11
201.453013039495
 21
283.3642947293655
 31
0.0
  0
LINE
  5
589A
  8
0
 10
201.45301303949489
 20
298.85622811419518
 30
0.0
 11
201.45301303949489
 21
299.61026142178048
 31
0.0
  0
LINE
  5
589B
  8
0
 10
257.76241411625341
 20
295.11026142177991
 30
0.0
 11
253.1436119627364
 21
295.11026142177991
 31
0.0
  0
LINE
  5
589C
  8
0
 10
253.1436119627364
 20
295.11026142177991
 30
0.0
 11
250.83421088597791
 21
291.11026142177991
 31
0.0
  0
LINE
  5
589D
  8
0
 10
250.83421088597791
 20
291.11026142177991
 30
0.0
 11
253.1436119627364
 21
287.11026142177991
 31
0.0
  0
LINE
  5
589E
  8
0
 10
253.1436119627364
 20
287.11026142177991
 30
0.0
 11
257.76241411625341
 21
287.11026142177991
 31
0.0
  0
LINE
  5
589F
  8
0
 10
257.76241411625341
 20
287.11026142177991
 30
0.0
 11
260.07181519301201
 21
291.11026142177991
 31
0.0
  0
LINE
  5
58A0
  8
0
 10
260.07181519301201
 20
291.11026142177991
 30
0.0
 11
257.76241411625341
 21
295.11026142177991
 31
0.0
  0
CIRCLE
  5
58A2
  8
0
 10
255.45301303949489
 20
291.11026142177991
 30
0.0
 40
8.0
  0
ARC
  5
58A3
  8
0
 10
255.45301303949489
 20
291.11026142178019
 30
0.0
 40
16.0
 50
339.63586519368278
 51
20.3641348063178
  0
CIRCLE
  5
58A4
  8
0
 10
215.45301303949489
 20
291.11026142178082
 30
0.0
 40
11.50000000000005
  0
LINE
  5
58A5
  8
0
 10
201.59660657894381
 20
291.11026142178082
 30
0.0
 11
208.52480980921931
 21
303.11026142178082
 31
0.0
  0
LINE
  5
58A6
  8
0
 10
208.52480980921931
 20
303.11026142178082
 30
0.0
 11
222.38121626977031
 21
303.11026142178082
 31
0.0
  0
LINE
  5
58A7
  8
0
 10
222.38121626977031
 20
303.11026142178082
 30
0.0
 11
229.30941950004589
 21
291.11026142178082
 31
0.0
  0
LINE
  5
58A8
  8
0
 10
229.30941950004589
 20
291.11026142178082
 30
0.0
 11
222.38121626977039
 21
279.11026142178071
 31
0.0
  0
LINE
  5
58A9
  8
0
 10
222.38121626977039
 20
279.11026142178071
 30
0.0
 11
208.52480980921939
 21
279.11026142178071
 31
0.0
  0
LINE
  5
58AA
  8
0
 10
208.52480980921939
 20
279.11026142178071
 30
0.0
 11
201.59660657894381
 21
291.11026142178082
 31
0.0
  0
CIRCLE
  5
58AC
  8
0
 10
215.45301303949489
 20
291.11026142178059
 30
0.0
 40
16.00000000000006
  0
CIRCLE
  5
58B5
  8
3
 10
215.45301303949489
 20
291.11026142178099
 30
0.0
 40
7.0
  0
CIRCLE
  5
58B6
  8
3
 10
255.45301303949489
 20
291.11026142177991
 30
0.0
 40
7.0
  0
LINE
  5
58B7
  8
1
 10
140.45301303949469
 20
291.11026142178008
 30
0.0
 11
276.45301303949492
 21
291.11026142178019
 31
0.0
  0
LINE
  5
58B8
  8
0
 10
40.45301303949509
 20
86.11026142178028
 30
0.0
 11
78.45301303949509
 21
86.110261421780848
 31
0.0
  0
ARC
  5
58B9
  8
0
 10
59.453013039493392
 20
42.110261421781701
 30
0.0
 40
13.999999999997931
 50
118.82544916040909
 51
180.00000000000631
  0
ARC
  5
58BA
  8
0
 10
59.453013039493392
 20
42.110261421781701
 30
0.0
 40
14.0
 50
359.99999999999687
 51
61.174550839585208
  0
LINE
  5
58BD
  8
0
 10
67.45301303949384
 20
200.8832614217805
 30
0.0
 11
66.226013039493751
 21
202.11026142178051
 31
0.0
  0
LINE
  5
58BE
  8
0
 10
52.680013039493822
 20
202.11026142178031
 30
0.0
 11
51.45301303949384
 21
200.8832614217803
 31
0.0
  0
LINE
  5
58C0
  8
0
 10
67.453013039494181
 20
138.11026142178071
 30
0.0
 11
67.45301303949384
 21
200.8832614217805
 31
0.0
  0
LINE
  5
58C1
  8
0
 10
51.45301303949384
 20
200.8832614217803
 30
0.0
 11
51.453013039494181
 21
138.11026142178051
 31
0.0
  0
LINE
  5
58C3
  8
0
 10
66.203013039495303
 20
54.375557993816606
 30
0.0
 11
66.203013039494891
 21
86.110261421780649
 31
0.0
  0
LINE
  5
58C4
  8
0
 10
52.703013039494891
 20
86.110261421780464
 30
0.0
 11
52.703013039495318
 21
54.37555799381645
 31
0.0
  0
LINE
  5
58C5
  8
0
 10
43.453013039494863
 20
73.110261421780564
 30
0.0
 11
43.453013039494863
 21
66.110261421780564
 31
0.0
  0
LINE
  5
58C6
  8
0
 10
75.453013039494863
 20
66.110261421780564
 30
0.0
 11
75.453013039494863
 21
73.110261421780564
 31
0.0
  0
LINE
  5
58C7
  8
0
 10
48.453013039494863
 20
81.110261421780564
 30
0.0
 11
48.453013039494863
 21
73.110261421780564
 31
0.0
  0
LINE
  5
58C8
  8
0
 10
70.453013039494863
 20
73.110261421780564
 30
0.0
 11
70.453013039494863
 21
81.110261421780564
 31
0.0
  0
POLYLINE
  5
58C9
  8
0
 66
     1
 10
0.0
 20
0.0
 30
0.0
 70
   128
  0
VERTEX
  5
5DF5
  8
0
 10
74.227500583938991
 20
116.11026142178081
 30
0.0
  0
VERTEX
  5
5DF6
  8
0
 10
74.65239663557054
 20
116.31159790535921
 30
0.0
  0
VERTEX
  5
5DF7
  8
0
 10
75.453013039494522
 20
116.7102614217807
 30
0.0
  0
SEQEND
  5
5DF8
  8
0
  0
POLYLINE
  5
58CA
  8
0
 66
     1
 10
0.0
 20
0.0
 30
0.0
 70
   128
  0
VERTEX
  5
5DF9
  8
0
 10
43.453013039494522
 20
116.7102614217804
 30
0.0
  0
VERTEX
  5
5DFA
  8
0
 10
44.25362944341839
 20
116.31159790535879
 30
0.0
  0
VERTEX
  5
5DFB
  8
0
 10
44.678525495049939
 20
116.11026142178029
 30
0.0
  0
SEQEND
  5
5DFC
  8
0
  0
LINE
  5
58CB
  8
0
 10
43.453013039494401
 20
120.11026142178029
 30
0.0
 11
43.453013039494522
 21
116.7102614217804
 31
0.0
  0
LINE
  5
58CC
  8
0
 10
75.453013039494522
 20
116.7102614217807
 30
0.0
 11
75.453013039494394
 21
120.11026142178081
 31
0.0
  0
LINE
  5
58CD
  8
0
 10
71.453013039494181
 20
137.82158628718591
 30
0.0
 11
70.953013039494181
 21
138.11026142178071
 31
0.0
  0
LINE
  5
58CE
  8
0
 10
47.953013039494166
 20
138.11026142178051
 30
0.0
 11
47.453013039494181
 21
137.8215862871856
 31
0.0
  0
LINE
  5
58CF
  8
0
 10
75.453013039494522
 20
115.61026142178081
 30
0.0
 11
74.953013039494522
 21
116.11026142178081
 31
0.0
  0
LINE
  5
58D0
  8
0
 10
43.953013039494522
 20
116.11026142178029
 30
0.0
 11
43.453013039494522
 21
115.61026142178029
 31
0.0
  0
LINE
  5
58D1
  8
0
 10
43.453013039494522
 20
111.61026142178029
 30
0.0
 11
43.953013039494522
 21
111.11026142178029
 31
0.0
  0
LINE
  5
58D2
  8
0
 10
74.953013039494522
 20
111.11026142178081
 30
0.0
 11
75.453013039494522
 21
111.61026142178081
 31
0.0
  0
LINE
  5
58D3
  8
0
 10
75.453013039494522
 20
111.61026142178081
 30
0.0
 11
75.453013039494522
 21
115.61026142178081
 31
0.0
  0
LINE
  5
58D4
  8
0
 10
43.453013039494522
 20
115.61026142178029
 30
0.0
 11
43.453013039494522
 21
111.61026142178029
 31
0.0
  0
LINE
  5
58D5
  8
0
 10
78.453013039494749
 20
111.11026142178081
 30
0.0
 11
40.453013039494742
 21
111.11026142178029
 31
0.0
  0
LINE
  5
58D6
  8
0
 10
78.453013039494749
 20
111.11026142178081
 30
0.0
 11
78.453013039495204
 21
86.110261421780848
 31
0.0
  0
LINE
  5
58D7
  8
0
 10
78.45301303949509
 20
87.717956576367584
 30
0.0
 11
40.45301303949509
 21
87.717956576367058
 31
0.0
  0
LINE
  5
58D8
  8
0
 10
40.453013039494742
 20
111.11026142178029
 30
0.0
 11
40.453013039495197
 21
86.11026142178028
 31
0.0
  0
LINE
  5
58DD
  8
0
 10
45.536562342568793
 20
37.710261421780359
 30
0.0
 11
45.453013039495772
 21
37.710261421780359
 31
0.0
  0
POLYLINE
  5
58DE
  8
0
 66
     1
 10
0.0
 20
0.0
 30
0.0
 70
   128
  0
VERTEX
  5
5DFD
  8
0
 10
45.536562342568793
 20
37.710261421780359
 30
0.0
  0
VERTEX
  5
5DFE
  8
0
 10
45.653279255808449
 20
36.75481062289581
 30
0.0
  0
VERTEX
  5
5DFF
  8
0
 10
46.172933781725419
 20
35.526454381466777
 30
0.0
  0
VERTEX
  5
5E00
  8
0
 10
47.100723159221388
 20
34.418357187579801
 30
0.0
  0
VERTEX
  5
5E01
  8
0
 10
47.99003477557175
 20
33.74486778257657
 30
0.0
  0
VERTEX
  5
5E02
  8
0
 10
49.003498799927797
 20
33.207736563507439
 30
0.0
  0
VERTEX
  5
5E03
  8
0
 10
50.716607972772522
 20
32.63288998314286
 30
0.0
  0
VERTEX
  5
5E04
  8
0
 10
52.540131719113447
 20
32.307652797142538
 30
0.0
  0
VERTEX
  5
5E05
  8
0
 10
54.995531044014001
 20
32.137581708507952
 30
0.0
  0
VERTEX
  5
5E06
  8
0
 10
57.468170476465268
 20
32.110261421780557
 30
0.0
  0
SEQEND
  5
5E07
  8
0
  0
LINE
  5
58E0
  8
0
 10
45.453013039495659
 20
32.110261421780393
 30
0.0
 11
45.453013039495772
 21
42.110261421781978
 31
0.0
  0
LINE
  5
58E1
  8
0
 10
73.453013039495659
 20
32.110261421780741
 30
0.0
 11
45.453013039495659
 21
32.110261421780507
 31
0.0
  0
POLYLINE
  5
58E2
  8
0
 66
     1
 10
0.0
 20
0.0
 30
0.0
 70
   128
  0
VERTEX
  5
5E08
  8
0
 10
61.437855602526383
 20
32.110261421780621
 30
0.0
  0
VERTEX
  5
5E09
  8
0
 10
64.169204497717942
 20
32.146155830852571
 30
0.0
  0
VERTEX
  5
5E0A
  8
0
 10
66.900553392909387
 20
32.380196460094247
 30
0.0
  0
VERTEX
  5
5E0B
  8
0
 10
68.723501432809243
 20
32.777561938752939
 30
0.0
  0
VERTEX
  5
5E0C
  8
0
 10
70.497314275026838
 20
33.499574015521858
 30
0.0
  0
VERTEX
  5
5E0D
  8
0
 10
71.977887600580516
 20
34.582178887686297
 30
0.0
  0
VERTEX
  5
5E0E
  8
0
 10
72.568674331113471
 20
35.277268711779101
 30
0.0
  0
VERTEX
  5
5E0F
  8
0
 10
73.032262211149487
 20
36.10083408902571
 30
0.0
  0
VERTEX
  5
5E10
  8
0
 10
73.359332345670168
 20
37.427541808698798
 30
0.0
  0
VERTEX
  5
5E11
  8
0
 10
73.369463736422745
 20
37.710261421780757
 30
0.0
  0
SEQEND
  5
5E12
  8
0
  0
LINE
  5
58E3
  8
0
 10
73.453013039495772
 20
37.710261421780757
 30
0.0
 11
73.369463736422745
 21
37.710261421780757
 31
0.0
  0
LINE
  5
58E4
  8
0
 10
73.453013039495659
 20
42.110261421781409
 30
0.0
 11
73.453013039495659
 21
32.110261421780741
 31
0.0
  0
LINE
  5
58E6
  8
0
 10
45.536562342568793
 20
42.110261421780343
 30
0.0
 11
45.536562342568793
 21
37.710261421780359
 31
0.0
  0
LINE
  5
58E7
  8
0
 10
73.453013039493385
 20
42.110261421780727
 30
0.0
 11
45.453013039495431
 21
42.110261421780343
 31
0.0
  0
LINE
  5
58E8
  8
0
 10
73.369463736422745
 20
37.710261421780757
 30
0.0
 11
73.369463736422745
 21
42.110261421780727
 31
0.0
  0
LINE
  5
58ED
  8
0
 10
66.203013039495303
 20
54.37555799381667
 30
0.0
 11
52.703013039495318
 21
54.37555799381645
 31
0.0
  0
ARC
  5
58EF
  8
0
 10
59.453013039493612
 20
42.110261421781701
 30
0.0
 40
10.847926069067251
 50
359.9999999999954
 51
180.00000000000909
  0
LINE
  5
58F4
  8
0
 10
67.453013039493612
 20
200.8832614217805
 30
0.0
 11
51.45301303949384
 21
200.8832614217803
 31
0.0
  0
LINE
  5
58F6
  8
0
 10
66.226013039493751
 20
202.11026142178059
 30
0.0
 11
52.680013039493822
 21
202.11026142178031
 31
0.0
  0
LINE
  5
58F8
  8
0
 10
43.453013039494863
 20
66.110261421780564
 30
0.0
 11
52.703013039495197
 21
66.110261421780564
 31
0.0
  0
LINE
  5
58F9
  8
0
 10
66.203013039495204
 20
66.110261421780564
 30
0.0
 11
75.453013039494863
 21
66.110261421780564
 31
0.0
  0
LINE
  5
58FA
  8
0
 10
43.453013039494863
 20
73.110261421780564
 30
0.0
 11
52.70301303949509
 21
73.110261421780564
 31
0.0
  0
LINE
  5
58FB
  8
0
 10
66.20301303949509
 20
73.110261421780564
 30
0.0
 11
75.453013039494863
 21
73.110261421780564
 31
0.0
  0
LINE
  5
58FC
  8
0
 10
48.453013039494863
 20
81.110261421780564
 30
0.0
 11
52.703013039494962
 21
81.110261421780564
 31
0.0
  0
LINE
  5
58FD
  8
0
 10
66.203013039494948
 20
81.110261421780564
 30
0.0
 11
70.453013039494863
 21
81.110261421780564
 31
0.0
  0
LINE
  5
58FE
  8
0
 10
43.453013039494522
 20
116.7102614217804
 30
0.0
 11
75.453013039494522
 21
116.7102614217807
 31
0.0
  0
LINE
  5
58FF
  8
0
 10
43.453013039494401
 20
120.11026142178029
 30
0.0
 11
75.453013039494394
 21
120.11026142178081
 31
0.0
  0
LINE
  5
5900
  8
0
 10
47.453013039494522
 20
120.11026142178029
 30
0.0
 11
47.453013039494181
 21
136.74978951746101
 31
0.0
  0
ARC
  5
5901
  8
0
 10
53.453013039494522
 20
120.1732850382882
 30
0.0
 40
17.628967659736642
 50
70.101866777413761
 51
109.898133222588
  0
LINE
  5
5902
  8
0
 10
59.453013039494522
 20
120.11026142178061
 30
0.0
 11
59.453013039494287
 21
136.74978951746129
 31
0.0
  0
LINE
  5
5903
  8
0
 10
47.953013039494166
 20
138.11026142178051
 30
0.0
 11
70.953013039494181
 21
138.11026142178071
 31
0.0
  0
LINE
  5
5904
  8
0
 10
47.453013039494181
 20
136.74978951746101
 30
0.0
 11
47.453013039494181
 21
137.8202628296394
 31
0.0
  0
LINE
  5
5905
  8
0
 10
71.453013039494294
 20
136.74978951746141
 30
0.0
 11
71.453013039494181
 21
137.82084075143479
 31
0.0
  0
ARC
  5
5906
  8
0
 10
65.453013039494522
 20
120.1732850382883
 30
0.0
 40
17.628967659736741
 50
70.101866777413761
 51
109.8981332225879
  0
LINE
  5
5907
  8
0
 10
71.453013039494522
 20
120.11026142178071
 30
0.0
 11
71.453013039494294
 21
136.74978951746141
 31
0.0
  0
LINE
  5
5908
  8
0
 10
75.453013039494522
 20
115.61026142178081
 30
0.0
 11
43.453013039494522
 21
115.61026142178029
 31
0.0
  0
LINE
  5
5909
  8
0
 10
43.953013039494522
 20
116.11026142178029
 30
0.0
 11
74.953013039494522
 21
116.11026142178081
 31
0.0
  0
LINE
  5
590A
  8
0
 10
43.453013039494522
 20
111.61026142178029
 30
0.0
 11
75.453013039494522
 21
111.61026142178081
 31
0.0
  0
LINE
  5
590C
  8
3
 10
66.453013039493726
 20
201.88326142178059
 30
0.0
 11
66.453013039494294
 21
138.11026142178071
 31
0.0
  0
LINE
  5
590D
  8
3
 10
52.45301303949384
 20
201.8832614217803
 30
0.0
 11
52.453013039494181
 21
138.11026142178051
 31
0.0
  0
LINE
  5
5910
  8
1
 10
59.45301303949384
 20
207.11026142178051
 30
0.0
 11
59.453013039495659
 21
27.110261421780621
 31
0.0
  0
LINE
  5
5965
  8
0
 10
348.95301303949492
 20
86.110261421780706
 30
0.0
 11
349.45301303949492
 21
86.110261421780706
 31
0.0
  0
LINE
  5
5966
  8
0
 10
365.45301303949492
 20
86.110261421780464
 30
0.0
 11
365.95301303949492
 21
86.110261421780464
 31
0.0
  0
ARC
  5
5967
  8
0
 10
357.45301303949651
 20
42.110261421781722
 30
0.0
 40
13.99999999999989
 50
118.82544916041471
 51
180.00000000000469
  0
ARC
  5
5968
  8
0
 10
357.45301303949651
 20
42.110261421781722
 30
0.0
 40
13.99999999999806
 50
359.99999999999528
 51
61.1745508395908
  0
LINE
  5
5969
  8
0
 10
365.453013039496
 20
200.8832614217803
 30
0.0
 11
364.22601303949608
 21
202.11026142178039
 31
0.0
  0
LINE
  5
596A
  8
0
 10
350.68001303949632
 20
202.11026142178051
 30
0.0
 11
349.453013039496
 21
200.8832614217805
 31
0.0
  0
LINE
  5
596E
  8
0
 10
365.453013039496
 20
170.01026142178051
 30
0.0
 11
365.453013039496
 21
200.8832614217803
 31
0.0
  0
LINE
  5
596F
  8
0
 10
349.453013039496
 20
200.8832614217805
 30
0.0
 11
349.453013039496
 21
170.01026142178051
 31
0.0
  0
LINE
  5
5971
  8
0
 10
364.20301303949458
 20
54.375557993816471
 30
0.0
 11
364.20301303949458
 21
66.110261421780592
 31
0.0
  0
LINE
  5
5972
  8
0
 10
350.70301303949458
 20
82.38857358529367
 30
0.0
 11
350.70301303949469
 21
81.110261421780606
 31
0.0
  0
LINE
  5
5973
  8
0
 10
341.45301303949492
 20
73.110261421780592
 30
0.0
 11
341.45301303949492
 21
66.110261421780592
 31
0.0
  0
LINE
  5
5974
  8
0
 10
373.45301303949481
 20
66.110261421780592
 30
0.0
 11
373.45301303949481
 21
73.110261421780592
 31
0.0
  0
LINE
  5
5975
  8
0
 10
346.45301303949481
 20
81.110261421780606
 30
0.0
 11
346.45301303949481
 21
73.110261421780592
 31
0.0
  0
LINE
  5
5976
  8
0
 10
368.45301303949492
 20
73.110261421780592
 30
0.0
 11
368.45301303949492
 21
81.110261421780606
 31
0.0
  0
LINE
  5
5977
  8
0
 10
365.45301303949492
 20
170.01026142178051
 30
0.0
 11
363.54775715116898
 21
171.11026142178059
 31
0.0
  0
LINE
  5
5978
  8
0
 10
351.35826892782052
 20
171.11026142178059
 30
0.0
 11
349.45301303949509
 21
170.01026142178051
 31
0.0
  0
LINE
  5
5979
  8
0
 10
349.45301303949492
 20
170.01026142178051
 30
0.0
 11
349.45301303949492
 21
111.11026142178071
 31
0.0
  0
LINE
  5
597A
  8
0
 10
349.45301303949492
 20
91.110261421780706
 30
0.0
 11
349.45301303949492
 21
83.110261421780592
 31
0.0
  0
LINE
  5
597B
  8
0
 10
365.45301303949492
 20
83.110261421780592
 30
0.0
 11
365.45301303949492
 21
91.110261421780464
 31
0.0
  0
LINE
  5
597C
  8
0
 10
365.45301303949492
 20
111.11026142178051
 30
0.0
 11
365.45301303949492
 21
170.01026142178051
 31
0.0
  0
LINE
  5
597D
  8
0
 10
349.45301303949492
 20
83.110261421780592
 30
0.0
 11
351.95301303949492
 21
81.666885748806521
 31
0.0
  0
LINE
  5
597E
  8
0
 10
362.95301303949481
 20
81.666885748806521
 30
0.0
 11
365.45301303949492
 21
83.110261421780592
 31
0.0
  0
LINE
  5
597F
  8
0
 10
362.95301303949481
 20
81.110261421780606
 30
0.0
 11
362.95301303949481
 21
81.666885748806521
 31
0.0
  0
LINE
  5
5980
  8
0
 10
351.95301303949492
 20
81.666885748806521
 30
0.0
 11
351.95301303949492
 21
81.110261421780606
 31
0.0
  0
POLYLINE
  5
5981
  8
0
 66
     1
 10
0.0
 20
0.0
 30
0.0
 70
   128
  0
VERTEX
  5
5E13
  8
0
 10
372.2275005839399
 20
116.11026142178029
 30
0.0
  0
VERTEX
  5
5E14
  8
0
 10
372.65239663557168
 20
116.31159790535879
 30
0.0
  0
VERTEX
  5
5E15
  8
0
 10
373.4530130394956
 20
116.7102614217803
 30
0.0
  0
SEQEND
  5
5E16
  8
0
  0
POLYLINE
  5
5982
  8
0
 66
     1
 10
0.0
 20
0.0
 30
0.0
 70
   128
  0
VERTEX
  5
5E17
  8
0
 10
341.45301303949549
 20
116.7102614217808
 30
0.0
  0
VERTEX
  5
5E18
  8
0
 10
342.25362944341941
 20
116.31159790535921
 30
0.0
  0
VERTEX
  5
5E19
  8
0
 10
342.67852549505102
 20
116.11026142178081
 30
0.0
  0
SEQEND
  5
5E1A
  8
0
  0
LINE
  5
5983
  8
0
 10
341.45301303949549
 20
120.11026142178081
 30
0.0
 11
341.45301303949549
 21
116.7102614217808
 31
0.0
  0
LINE
  5
5984
  8
0
 10
373.4530130394956
 20
116.7102614217803
 30
0.0
 11
373.4530130394956
 21
120.11026142178029
 31
0.0
  0
LINE
  5
5985
  8
0
 10
369.453013039496
 20
137.8215862871856
 30
0.0
 11
368.95301303949577
 21
138.11026142178039
 31
0.0
  0
LINE
  5
5986
  8
0
 10
345.95301303949577
 20
138.11026142178071
 30
0.0
 11
345.45301303949577
 21
137.82158628718591
 31
0.0
  0
LINE
  5
5987
  8
0
 10
341.45301303949549
 20
111.61026142178081
 30
0.0
 11
341.9530130394956
 21
111.11026142178081
 31
0.0
  0
LINE
  5
5988
  8
0
 10
372.9530130394956
 20
111.11026142178029
 30
0.0
 11
373.4530130394956
 21
111.61026142178029
 31
0.0
  0
LINE
  5
5989
  8
0
 10
373.4530130394956
 20
115.61026142178029
 30
0.0
 11
372.9530130394956
 21
116.11026142178029
 31
0.0
  0
LINE
  5
598A
  8
0
 10
341.9530130394956
 20
116.11026142178081
 30
0.0
 11
341.45301303949549
 21
115.61026142178081
 31
0.0
  0
LINE
  5
598B
  8
0
 10
373.4530130394956
 20
111.61026142178029
 30
0.0
 11
373.4530130394956
 21
115.61026142178029
 31
0.0
  0
LINE
  5
598C
  8
0
 10
341.45301303949549
 20
115.61026142178081
 30
0.0
 11
341.45301303949549
 21
111.61026142178081
 31
0.0
  0
LINE
  5
598D
  8
0
 10
338.45301303949509
 20
111.1102614217809
 30
0.0
 11
338.45301303949492
 21
86.110261421780805
 31
0.0
  0
LINE
  5
598E
  8
0
 10
365.95301303949492
 20
86.110261421780464
 30
0.0
 11
365.95301303949509
 21
91.110261421780464
 31
0.0
  0
LINE
  5
598F
  8
0
 10
348.95301303949509
 20
91.110261421780706
 30
0.0
 11
365.95301303949509
 21
91.110261421780464
 31
0.0
  0
LINE
  5
5990
  8
0
 10
348.95301303949492
 20
86.110261421780706
 30
0.0
 11
348.95301303949509
 21
91.110261421780706
 31
0.0
  0
LINE
  5
5991
  8
0
 10
338.45301303949492
 20
86.110261421780805
 30
0.0
 11
348.95301303949492
 21
86.110261421780706
 31
0.0
  0
LINE
  5
5992
  8
0
 10
376.45301303949509
 20
111.11026142178029
 30
0.0
 11
376.45301303949492
 21
86.110261421780308
 31
0.0
  0
LINE
  5
5993
  8
0
 10
365.95301303949492
 20
86.110261421780464
 30
0.0
 11
376.45301303949492
 21
86.110261421780308
 31
0.0
  0
LINE
  5
5994
  8
0
 10
338.45301303949509
 20
111.1102614217809
 30
0.0
 11
376.45301303949509
 21
111.11026142178029
 31
0.0
  0
POLYLINE
  5
5995
  8
0
 10
349.45301303949503
 20
87.041282368269876
 30
0.0
 66
     1
 70
     8
  0
VERTEX
  8
0
  5
5E71
 10
349.453
 20
87.0413
 30
0.000000
  70
    32
  0
VERTEX
  8
0
  5
5E72
 10
349.445
 20
87.0389
 30
0.000000
  70
    32
  0
VERTEX
  8
0
  5
5E73
 10
349.438
 20
87.0365
 30
0.000000
  70
    32
  0
VERTEX
  8
0
  5
5E74
 10
349.430
 20
87.0342
 30
0.000000
  70
    32
  0
VERTEX
  8
0
  5
5E75
 10
349.423
 20
87.0318
 30
0.000000
  70
    32
  0
VERTEX
  8
0
  5
5E76
 10
349.415
 20
87.0294
 30
0.000000
  70
    32
  0
VERTEX
  8
0
  5
5E77
 10
349.408
 20
87.0270
 30
0.000000
  70
    32
  0
VERTEX
  8
0
  5
5E78
 10
349.400
 20
87.0247
 30
0.000000
  70
    32
  0
VERTEX
  8
0
  5
5E79
 10
349.393
 20
87.0223
 30
0.000000
  70
    32
  0
VERTEX
  8
0
  5
5E7A
 10
349.386
 20
87.0199
 30
0.000000
  70
    32
  0
VERTEX
  8
0
  5
5E7B
 10
349.379
 20
87.0175
 30
0.000000
  70
    32
  0
VERTEX
  8
0
  5
5E7C
 10
349.371
 20
87.0151
 30
0.000000
  70
    32
  0
VERTEX
  8
0
  5
5E7D
 10
349.364
 20
87.0127
 30
0.000000
  70
    32
  0
VERTEX
  8
0
  5
5E7E
 10
349.357
 20
87.0103
 30
0.000000
  70
    32
  0
VERTEX
  8
0
  5
5E7F
 10
349.350
 20
87.0079
 30
0.000000
  70
    32
  0
VERTEX
  8
0
  5
5E80
 10
349.344
 20
87.0055
 30
0.000000
  70
    32
  0
VERTEX
  8
0
  5
5E81
 10
349.337
 20
87.0031
 30
0.000000
  70
    32
  0
VERTEX
  8
0
  5
5E82
 10
349.330
 20
87.0007
 30
0.000000
  70
    32
  0
VERTEX
  8
0
  5
5E83
 10
349.323
 20
86.9983
 30
0.000000
  70
    32
  0
VERTEX
  8
0
  5
5E84
 10
349.317
 20
86.9959
 30
0.000000
  70
    32
  0
VERTEX
  8
0
  5
5E85
 10
349.310
 20
86.9935
 30
0.000000
  70
    32
  0
VERTEX
  8
0
  5
5E86
 10
349.303
 20
86.9911
 30
0.000000
  70
    32
  0
VERTEX
  8
0
  5
5E87
 10
349.297
 20
86.9887
 30
0.000000
  70
    32
  0
VERTEX
  8
0
  5
5E88
 10
349.291
 20
86.9863
 30
0.000000
  70
    32
  0
VERTEX
  8
0
  5
5E89
 10
349.284
 20
86.9838
 30
0.000000
  70
    32
  0
VERTEX
  8
0
  5
5E8A
 10
349.278
 20
86.9814
 30
0.000000
  70
    32
  0
VERTEX
  8
0
  5
5E8B
 10
349.272
 20
86.9790
 30
0.000000
  70
    32
  0
VERTEX
  8
0
  5
5E8C
 10
349.265
 20
86.9766
 30
0.000000
  70
    32
  0
VERTEX
  8
0
  5
5E8D
 10
349.259
 20
86.9742
 30
0.000000
  70
    32
  0
VERTEX
  8
0
  5
5E8E
 10
349.253
 20
86.9717
 30
0.000000
  70
    32
  0
VERTEX
  8
0
  5
5E8F
 10
349.247
 20
86.9693
 30
0.000000
  70
    32
  0
VERTEX
  8
0
  5
5E90
 10
349.241
 20
86.9669
 30
0.000000
  70
    32
  0
VERTEX
  8
0
  5
5E91
 10
349.235
 20
86.9644
 30
0.000000
  70
    32
  0
VERTEX
  8
0
  5
5E92
 10
349.230
 20
86.9620
 30
0.000000
  70
    32
  0
VERTEX
  8
0
  5
5E93
 10
349.224
 20
86.9596
 30
0.000000
  70
    32
  0
VERTEX
  8
0
  5
5E94
 10
349.218
 20
86.9571
 30
0.000000
  70
    32
  0
VERTEX
  8
0
  5
5E95
 10
349.213
 20
86.9547
 30
0.000000
  70
    32
  0
VERTEX
  8
0
  5
5E96
 10
349.207
 20
86.9523
 30
0.000000
  70
    32
  0
VERTEX
  8
0
  5
5E97
 10
349.201
 20
86.9498
 30
0.000000
  70
    32
  0
VERTEX
  8
0
  5
5E98
 10
349.196
 20
86.9474
 30
0.000000
  70
    32
  0
VERTEX
  8
0
  5
5E99
 10
349.191
 20
86.9449
 30
0.000000
  70
    32
  0
VERTEX
  8
0
  5
5E9A
 10
349.185
 20
86.9425
 30
0.000000
  70
    32
  0
VERTEX
  8
0
  5
5E9B
 10
349.180
 20
86.9400
 30
0.000000
  70
    32
  0
VERTEX
  8
0
  5
5E9C
 10
349.175
 20
86.9376
 30
0.000000
  70
    32
  0
VERTEX
  8
0
  5
5E9D
 10
349.170
 20
86.9351
 30
0.000000
  70
    32
  0
VERTEX
  8
0
  5
5E9E
 10
349.164
 20
86.9327
 30
0.000000
  70
    32
  0
VERTEX
  8
0
  5
5E9F
 10
349.159
 20
86.9302
 30
0.000000
  70
    32
  0
VERTEX
  8
0
  5
5EA0
 10
349.154
 20
86.9278
 30
0.000000
  70
    32
  0
VERTEX
  8
0
  5
5EA1
 10
349.150
 20
86.9253
 30
0.000000
  70
    32
  0
VERTEX
  8
0
  5
5EA2
 10
349.145
 20
86.9229
 30
0.000000
  70
    32
  0
VERTEX
  8
0
  5
5EA3
 10
349.140
 20
86.9204
 30
0.000000
  70
    32
  0
VERTEX
  8
0
  5
5EA4
 10
349.135
 20
86.9179
 30
0.000000
  70
    32
  0
VERTEX
  8
0
  5
5EA5
 10
349.130
 20
86.9155
 30
0.000000
  70
    32
  0
VERTEX
  8
0
  5
5EA6
 10
349.126
 20
86.9130
 30
0.000000
  70
    32
  0
VERTEX
  8
0
  5
5EA7
 10
349.121
 20
86.9106
 30
0.000000
  70
    32
  0
VERTEX
  8
0
  5
5EA8
 10
349.117
 20
86.9081
 30
0.000000
  70
    32
  0
VERTEX
  8
0
  5
5EA9
 10
349.112
 20
86.9056
 30
0.000000
  70
    32
  0
VERTEX
  8
0
  5
5EAA
 10
349.108
 20
86.9032
 30
0.000000
  70
    32
  0
VERTEX
  8
0
  5
5EAB
 10
349.104
 20
86.9007
 30
0.000000
  70
    32
  0
VERTEX
  8
0
  5
5EAC
 10
349.099
 20
86.8982
 30
0.000000
  70
    32
  0
VERTEX
  8
0
  5
5EAD
 10
349.095
 20
86.8957
 30
0.000000
  70
    32
  0
VERTEX
  8
0
  5
5EAE
 10
349.091
 20
86.8933
 30
0.000000
  70
    32
  0
VERTEX
  8
0
  5
5EAF
 10
349.087
 20
86.8908
 30
0.000000
  70
    32
  0
VERTEX
  8
0
  5
5EB0
 10
349.083
 20
86.8883
 30
0.000000
  70
    32
  0
VERTEX
  8
0
  5
5EB1
 10
349.079
 20
86.8858
 30
0.000000
  70
    32
  0
VERTEX
  8
0
  5
5EB2
 10
349.075
 20
86.8834
 30
0.000000
  70
    32
  0
VERTEX
  8
0
  5
5EB3
 10
349.071
 20
86.8809
 30
0.000000
  70
    32
  0
VERTEX
  8
0
  5
5EB4
 10
349.067
 20
86.8784
 30
0.000000
  70
    32
  0
VERTEX
  8
0
  5
5EB5
 10
349.064
 20
86.8759
 30
0.000000
  70
    32
  0
VERTEX
  8
0
  5
5EB6
 10
349.060
 20
86.8734
 30
0.000000
  70
    32
  0
VERTEX
  8
0
  5
5EB7
 10
349.056
 20
86.8709
 30
0.000000
  70
    32
  0
VERTEX
  8
0
  5
5EB8
 10
349.053
 20
86.8685
 30
0.000000
  70
    32
  0
VERTEX
  8
0
  5
5EB9
 10
349.049
 20
86.8660
 30
0.000000
  70
    32
  0
VERTEX
  8
0
  5
5EBA
 10
349.046
 20
86.8635
 30
0.000000
  70
    32
  0
VERTEX
  8
0
  5
5EBB
 10
349.043
 20
86.8610
 30
0.000000
  70
    32
  0
VERTEX
  8
0
  5
5EBC
 10
349.039
 20
86.8585
 30
0.000000
  70
    32
  0
VERTEX
  8
0
  5
5EBD
 10
349.036
 20
86.8560
 30
0.000000
  70
    32
  0
VERTEX
  8
0
  5
5EBE
 10
349.033
 20
86.8535
 30
0.000000
  70
    32
  0
VERTEX
  8
0
  5
5EBF
 10
349.030
 20
86.8510
 30
0.000000
  70
    32
  0
VERTEX
  8
0
  5
5EC0
 10
349.027
 20
86.8485
 30
0.000000
  70
    32
  0
VERTEX
  8
0
  5
5EC1
 10
349.024
 20
86.8461
 30
0.000000
  70
    32
  0
VERTEX
  8
0
  5
5EC2
 10
349.021
 20
86.8436
 30
0.000000
  70
    32
  0
VERTEX
  8
0
  5
5EC3
 10
349.018
 20
86.8411
 30
0.000000
  70
    32
  0
VERTEX
  8
0
  5
5EC4
 10
349.015
 20
86.8386
 30
0.000000
  70
    32
  0
VERTEX
  8
0
  5
5EC5
 10
349.013
 20
86.8361
 30
0.000000
  70
    32
  0
VERTEX
  8
0
  5
5EC6
 10
349.010
 20
86.8336
 30
0.000000
  70
    32
  0
VERTEX
  8
0
  5
5EC7
 10
349.007
 20
86.8311
 30
0.000000
  70
    32
  0
VERTEX
  8
0
  5
5EC8
 10
349.005
 20
86.8286
 30
0.000000
  70
    32
  0
VERTEX
  8
0
  5
5EC9
 10
349.002
 20
86.8261
 30
0.000000
  70
    32
  0
VERTEX
  8
0
  5
5ECA
 10
349.000
 20
86.8236
 30
0.000000
  70
    32
  0
VERTEX
  8
0
  5
5ECB
 10
348.997
 20
86.8211
 30
0.000000
  70
    32
  0
VERTEX
  8
0
  5
5ECC
 10
348.995
 20
86.8186
 30
0.000000
  70
    32
  0
VERTEX
  8
0
  5
5ECD
 10
348.993
 20
86.8161
 30
0.000000
  70
    32
  0
VERTEX
  8
0
  5
5ECE
 10
348.991
 20
86.8136
 30
0.000000
  70
    32
  0
VERTEX
  8
0
  5
5ECF
 10
348.989
 20
86.8111
 30
0.000000
  70
    32
  0
VERTEX
  8
0
  5
5ED0
 10
348.987
 20
86.8085
 30
0.000000
  70
    32
  0
VERTEX
  8
0
  5
5ED1
 10
348.985
 20
86.8060
 30
0.000000
  70
    32
  0
VERTEX
  8
0
  5
5ED2
 10
348.983
 20
86.8035
 30
0.000000
  70
    32
  0
VERTEX
  8
0
  5
5ED3
 10
348.981
 20
86.8010
 30
0.000000
  70
    32
  0
VERTEX
  8
0
  5
5ED4
 10
348.979
 20
86.7985
 30
0.000000
  70
    32
  0
VERTEX
  8
0
  5
5ED5
 10
348.977
 20
86.7960
 30
0.000000
  70
    32
  0
VERTEX
  8
0
  5
5ED6
 10
348.975
 20
86.7935
 30
0.000000
  70
    32
  0
VERTEX
  8
0
  5
5ED7
 10
348.974
 20
86.7910
 30
0.000000
  70
    32
  0
VERTEX
  8
0
  5
5ED8
 10
348.972
 20
86.7885
 30
0.000000
  70
    32
  0
VERTEX
  8
0
  5
5ED9
 10
348.971
 20
86.7860
 30
0.000000
  70
    32
  0
VERTEX
  8
0
  5
5EDA
 10
348.969
 20
86.7835
 30
0.000000
  70
    32
  0
VERTEX
  8
0
  5
5EDB
 10
348.968
 20
86.7810
 30
0.000000
  70
    32
  0
VERTEX
  8
0
  5
5EDC
 10
348.967
 20
86.7784
 30
0.000000
  70
    32
  0
VERTEX
  8
0
  5
5EDD
 10
348.965
 20
86.7759
 30
0.000000
  70
    32
  0
VERTEX
  8
0
  5
5EDE
 10
348.964
 20
86.7734
 30
0.000000
  70
    32
  0
VERTEX
  8
0
  5
5EDF
 10
348.963
 20
86.7709
 30
0.000000
  70
    32
  0
VERTEX
  8
0
  5
5EE0
 10
348.962
 20
86.7684
 30
0.000000
  70
    32
  0
VERTEX
  8
0
  5
5EE1
 10
348.961
 20
86.7659
 30
0.000000
  70
    32
  0
VERTEX
  8
0
  5
5EE2
 10
348.960
 20
86.7634
 30
0.000000
  70
    32
  0
VERTEX
  8
0
  5
5EE3
 10
348.959
 20
86.7609
 30
0.000000
  70
    32
  0
VERTEX
  8
0
  5
5EE4
 10
348.958
 20
86.7583
 30
0.000000
  70
    32
  0
VERTEX
  8
0
  5
5EE5
 10
348.957
 20
86.7558
 30
0.000000
  70
    32
  0
VERTEX
  8
0
  5
5EE6
 10
348.957
 20
86.7533
 30
0.000000
  70
    32
  0
VERTEX
  8
0
  5
5EE7
 10
348.956
 20
86.7508
 30
0.000000
  70
    32
  0
VERTEX
  8
0
  5
5EE8
 10
348.956
 20
86.7483
 30
0.000000
  70
    32
  0
VERTEX
  8
0
  5
5EE9
 10
348.955
 20
86.7458
 30
0.000000
  70
    32
  0
VERTEX
  8
0
  5
5EEA
 10
348.955
 20
86.7433
 30
0.000000
  70
    32
  0
VERTEX
  8
0
  5
5EEB
 10
348.954
 20
86.7407
 30
0.000000
  70
    32
  0
VERTEX
  8
0
  5
5EEC
 10
348.954
 20
86.7382
 30
0.000000
  70
    32
  0
VERTEX
  8
0
  5
5EED
 10
348.954
 20
86.7357
 30
0.000000
  70
    32
  0
VERTEX
  8
0
  5
5EEE
 10
348.953
 20
86.7332
 30
0.000000
  70
    32
  0
VERTEX
  8
0
  5
5EEF
 10
348.953
 20
86.7307
 30
0.000000
  70
    32
  0
VERTEX
  8
0
  5
5EF0
 10
348.953
 20
86.7282
 30
0.000000
  70
    32
  0
VERTEX
  8
0
  5
5EF1
 10
348.953
 20
86.7256
 30
0.000000
  70
    32
  0
SEQEND
  8
0
  5
5EF2
  0
POLYLINE
  5
5996
  8
0
 10
365.9530130394952
 20
86.725646711929031
 30
0.0
 66
     1
 70
     8
  0
VERTEX
  8
0
  5
5EF3
 10
365.953
 20
86.7256
 30
0.000000
  70
    32
  0
VERTEX
  8
0
  5
5EF4
 10
365.953
 20
86.7282
 30
0.000000
  70
    32
  0
VERTEX
  8
0
  5
5EF5
 10
365.953
 20
86.7307
 30
0.000000
  70
    32
  0
VERTEX
  8
0
  5
5EF6
 10
365.953
 20
86.7332
 30
0.000000
  70
    32
  0
VERTEX
  8
0
  5
5EF7
 10
365.953
 20
86.7357
 30
0.000000
  70
    32
  0
VERTEX
  8
0
  5
5EF8
 10
365.952
 20
86.7382
 30
0.000000
  70
    32
  0
VERTEX
  8
0
  5
5EF9
 10
365.952
 20
86.7407
 30
0.000000
  70
    32
  0
VERTEX
  8
0
  5
5EFA
 10
365.952
 20
86.7433
 30
0.000000
  70
    32
  0
VERTEX
  8
0
  5
5EFB
 10
365.951
 20
86.7458
 30
0.000000
  70
    32
  0
VERTEX
  8
0
  5
5EFC
 10
365.951
 20
86.7483
 30
0.000000
  70
    32
  0
VERTEX
  8
0
  5
5EFD
 10
365.950
 20
86.7508
 30
0.000000
  70
    32
  0
VERTEX
  8
0
  5
5EFE
 10
365.949
 20
86.7533
 30
0.000000
  70
    32
  0
VERTEX
  8
0
  5
5EFF
 10
365.949
 20
86.7558
 30
0.000000
  70
    32
  0
VERTEX
  8
0
  5
5F00
 10
365.948
 20
86.7583
 30
0.000000
  70
    32
  0
VERTEX
  8
0
  5
5F01
 10
365.947
 20
86.7609
 30
0.000000
  70
    32
  0
VERTEX
  8
0
  5
5F02
 10
365.946
 20
86.7634
 30
0.000000
  70
    32
  0
VERTEX
  8
0
  5
5F03
 10
365.945
 20
86.7659
 30
0.000000
  70
    32
  0
VERTEX
  8
0
  5
5F04
 10
365.944
 20
86.7684
 30
0.000000
  70
    32
  0
VERTEX
  8
0
  5
5F05
 10
365.943
 20
86.7709
 30
0.000000
  70
    32
  0
VERTEX
  8
0
  5
5F06
 10
365.942
 20
86.7734
 30
0.000000
  70
    32
  0
VERTEX
  8
0
  5
5F07
 10
365.941
 20
86.7759
 30
0.000000
  70
    32
  0
VERTEX
  8
0
  5
5F08
 10
365.939
 20
86.7784
 30
0.000000
  70
    32
  0
VERTEX
  8
0
  5
5F09
 10
365.938
 20
86.7810
 30
0.000000
  70
    32
  0
VERTEX
  8
0
  5
5F0A
 10
365.937
 20
86.7835
 30
0.000000
  70
    32
  0
VERTEX
  8
0
  5
5F0B
 10
365.935
 20
86.7860
 30
0.000000
  70
    32
  0
VERTEX
  8
0
  5
5F0C
 10
365.934
 20
86.7885
 30
0.000000
  70
    32
  0
VERTEX
  8
0
  5
5F0D
 10
365.932
 20
86.7910
 30
0.000000
  70
    32
  0
VERTEX
  8
0
  5
5F0E
 10
365.931
 20
86.7935
 30
0.000000
  70
    32
  0
VERTEX
  8
0
  5
5F0F
 10
365.929
 20
86.7960
 30
0.000000
  70
    32
  0
VERTEX
  8
0
  5
5F10
 10
365.927
 20
86.7985
 30
0.000000
  70
    32
  0
VERTEX
  8
0
  5
5F11
 10
365.925
 20
86.8010
 30
0.000000
  70
    32
  0
VERTEX
  8
0
  5
5F12
 10
365.923
 20
86.8035
 30
0.000000
  70
    32
  0
VERTEX
  8
0
  5
5F13
 10
365.921
 20
86.8060
 30
0.000000
  70
    32
  0
VERTEX
  8
0
  5
5F14
 10
365.919
 20
86.8085
 30
0.000000
  70
    32
  0
VERTEX
  8
0
  5
5F15
 10
365.917
 20
86.8111
 30
0.000000
  70
    32
  0
VERTEX
  8
0
  5
5F16
 10
365.915
 20
86.8136
 30
0.000000
  70
    32
  0
VERTEX
  8
0
  5
5F17
 10
365.913
 20
86.8161
 30
0.000000
  70
    32
  0
VERTEX
  8
0
  5
5F18
 10
365.911
 20
86.8186
 30
0.000000
  70
    32
  0
VERTEX
  8
0
  5
5F19
 10
365.909
 20
86.8211
 30
0.000000
  70
    32
  0
VERTEX
  8
0
  5
5F1A
 10
365.906
 20
86.8236
 30
0.000000
  70
    32
  0
VERTEX
  8
0
  5
5F1B
 10
365.904
 20
86.8261
 30
0.000000
  70
    32
  0
VERTEX
  8
0
  5
5F1C
 10
365.901
 20
86.8286
 30
0.000000
  70
    32
  0
VERTEX
  8
0
  5
5F1D
 10
365.899
 20
86.8311
 30
0.000000
  70
    32
  0
VERTEX
  8
0
  5
5F1E
 10
365.896
 20
86.8336
 30
0.000000
  70
    32
  0
VERTEX
  8
0
  5
5F1F
 10
365.893
 20
86.8361
 30
0.000000
  70
    32
  0
VERTEX
  8
0
  5
5F20
 10
365.891
 20
86.8386
 30
0.000000
  70
    32
  0
VERTEX
  8
0
  5
5F21
 10
365.888
 20
86.8411
 30
0.000000
  70
    32
  0
VERTEX
  8
0
  5
5F22
 10
365.885
 20
86.8436
 30
0.000000
  70
    32
  0
VERTEX
  8
0
  5
5F23
 10
365.882
 20
86.8461
 30
0.000000
  70
    32
  0
VERTEX
  8
0
  5
5F24
 10
365.879
 20
86.8485
 30
0.000000
  70
    32
  0
VERTEX
  8
0
  5
5F25
 10
365.876
 20
86.8510
 30
0.000000
  70
    32
  0
VERTEX
  8
0
  5
5F26
 10
365.873
 20
86.8535
 30
0.000000
  70
    32
  0
VERTEX
  8
0
  5
5F27
 10
365.870
 20
86.8560
 30
0.000000
  70
    32
  0
VERTEX
  8
0
  5
5F28
 10
365.867
 20
86.8585
 30
0.000000
  70
    32
  0
VERTEX
  8
0
  5
5F29
 10
365.863
 20
86.8610
 30
0.000000
  70
    32
  0
VERTEX
  8
0
  5
5F2A
 10
365.860
 20
86.8635
 30
0.000000
  70
    32
  0
VERTEX
  8
0
  5
5F2B
 10
365.857
 20
86.8660
 30
0.000000
  70
    32
  0
VERTEX
  8
0
  5
5F2C
 10
365.853
 20
86.8685
 30
0.000000
  70
    32
  0
VERTEX
  8
0
  5
5F2D
 10
365.850
 20
86.8709
 30
0.000000
  70
    32
  0
VERTEX
  8
0
  5
5F2E
 10
365.846
 20
86.8734
 30
0.000000
  70
    32
  0
VERTEX
  8
0
  5
5F2F
 10
365.842
 20
86.8759
 30
0.000000
  70
    32
  0
VERTEX
  8
0
  5
5F30
 10
365.839
 20
86.8784
 30
0.000000
  70
    32
  0
VERTEX
  8
0
  5
5F31
 10
365.835
 20
86.8809
 30
0.000000
  70
    32
  0
VERTEX
  8
0
  5
5F32
 10
365.831
 20
86.8834
 30
0.000000
  70
    32
  0
VERTEX
  8
0
  5
5F33
 10
365.827
 20
86.8858
 30
0.000000
  70
    32
  0
VERTEX
  8
0
  5
5F34
 10
365.823
 20
86.8883
 30
0.000000
  70
    32
  0
VERTEX
  8
0
  5
5F35
 10
365.819
 20
86.8908
 30
0.000000
  70
    32
  0
VERTEX
  8
0
  5
5F36
 10
365.815
 20
86.8933
 30
0.000000
  70
    32
  0
VERTEX
  8
0
  5
5F37
 10
365.811
 20
86.8957
 30
0.000000
  70
    32
  0
VERTEX
  8
0
  5
5F38
 10
365.807
 20
86.8982
 30
0.000000
  70
    32
  0
VERTEX
  8
0
  5
5F39
 10
365.802
 20
86.9007
 30
0.000000
  70
    32
  0
VERTEX
  8
0
  5
5F3A
 10
365.798
 20
86.9032
 30
0.000000
  70
    32
  0
VERTEX
  8
0
  5
5F3B
 10
365.794
 20
86.9056
 30
0.000000
  70
    32
  0
VERTEX
  8
0
  5
5F3C
 10
365.789
 20
86.9081
 30
0.000000
  70
    32
  0
VERTEX
  8
0
  5
5F3D
 10
365.785
 20
86.9106
 30
0.000000
  70
    32
  0
VERTEX
  8
0
  5
5F3E
 10
365.780
 20
86.9130
 30
0.000000
  70
    32
  0
VERTEX
  8
0
  5
5F3F
 10
365.776
 20
86.9155
 30
0.000000
  70
    32
  0
VERTEX
  8
0
  5
5F40
 10
365.771
 20
86.9179
 30
0.000000
  70
    32
  0
VERTEX
  8
0
  5
5F41
 10
365.766
 20
86.9204
 30
0.000000
  70
    32
  0
VERTEX
  8
0
  5
5F42
 10
365.761
 20
86.9229
 30
0.000000
  70
    32
  0
VERTEX
  8
0
  5
5F43
 10
365.757
 20
86.9253
 30
0.000000
  70
    32
  0
VERTEX
  8
0
  5
5F44
 10
365.752
 20
86.9278
 30
0.000000
  70
    32
  0
VERTEX
  8
0
  5
5F45
 10
365.747
 20
86.9302
 30
0.000000
  70
    32
  0
VERTEX
  8
0
  5
5F46
 10
365.742
 20
86.9327
 30
0.000000
  70
    32
  0
VERTEX
  8
0
  5
5F47
 10
365.736
 20
86.9351
 30
0.000000
  70
    32
  0
VERTEX
  8
0
  5
5F48
 10
365.731
 20
86.9376
 30
0.000000
  70
    32
  0
VERTEX
  8
0
  5
5F49
 10
365.726
 20
86.9400
 30
0.000000
  70
    32
  0
VERTEX
  8
0
  5
5F4A
 10
365.721
 20
86.9425
 30
0.000000
  70
    32
  0
VERTEX
  8
0
  5
5F4B
 10
365.715
 20
86.9449
 30
0.000000
  70
    32
  0
VERTEX
  8
0
  5
5F4C
 10
365.710
 20
86.9474
 30
0.000000
  70
    32
  0
VERTEX
  8
0
  5
5F4D
 10
365.705
 20
86.9498
 30
0.000000
  70
    32
  0
VERTEX
  8
0
  5
5F4E
 10
365.699
 20
86.9523
 30
0.000000
  70
    32
  0
VERTEX
  8
0
  5
5F4F
 10
365.693
 20
86.9547
 30
0.000000
  70
    32
  0
VERTEX
  8
0
  5
5F50
 10
365.688
 20
86.9571
 30
0.000000
  70
    32
  0
VERTEX
  8
0
  5
5F51
 10
365.682
 20
86.9596
 30
0.000000
  70
    32
  0
VERTEX
  8
0
  5
5F52
 10
365.676
 20
86.9620
 30
0.000000
  70
    32
  0
VERTEX
  8
0
  5
5F53
 10
365.671
 20
86.9644
 30
0.000000
  70
    32
  0
VERTEX
  8
0
  5
5F54
 10
365.665
 20
86.9669
 30
0.000000
  70
    32
  0
VERTEX
  8
0
  5
5F55
 10
365.659
 20
86.9693
 30
0.000000
  70
    32
  0
VERTEX
  8
0
  5
5F56
 10
365.653
 20
86.9717
 30
0.000000
  70
    32
  0
VERTEX
  8
0
  5
5F57
 10
365.647
 20
86.9742
 30
0.000000
  70
    32
  0
VERTEX
  8
0
  5
5F58
 10
365.641
 20
86.9766
 30
0.000000
  70
    32
  0
VERTEX
  8
0
  5
5F59
 10
365.634
 20
86.9790
 30
0.000000
  70
    32
  0
VERTEX
  8
0
  5
5F5A
 10
365.628
 20
86.9814
 30
0.000000
  70
    32
  0
VERTEX
  8
0
  5
5F5B
 10
365.622
 20
86.9838
 30
0.000000
  70
    32
  0
VERTEX
  8
0
  5
5F5C
 10
365.615
 20
86.9863
 30
0.000000
  70
    32
  0
VERTEX
  8
0
  5
5F5D
 10
365.609
 20
86.9887
 30
0.000000
  70
    32
  0
VERTEX
  8
0
  5
5F5E
 10
365.603
 20
86.9911
 30
0.000000
  70
    32
  0
VERTEX
  8
0
  5
5F5F
 10
365.596
 20
86.9935
 30
0.000000
  70
    32
  0
VERTEX
  8
0
  5
5F60
 10
365.589
 20
86.9959
 30
0.000000
  70
    32
  0
VERTEX
  8
0
  5
5F61
 10
365.583
 20
86.9983
 30
0.000000
  70
    32
  0
VERTEX
  8
0
  5
5F62
 10
365.576
 20
87.0007
 30
0.000000
  70
    32
  0
VERTEX
  8
0
  5
5F63
 10
365.569
 20
87.0031
 30
0.000000
  70
    32
  0
VERTEX
  8
0
  5
5F64
 10
365.562
 20
87.0055
 30
0.000000
  70
    32
  0
VERTEX
  8
0
  5
5F65
 10
365.556
 20
87.0079
 30
0.000000
  70
    32
  0
VERTEX
  8
0
  5
5F66
 10
365.549
 20
87.0103
 30
0.000000
  70
    32
  0
VERTEX
  8
0
  5
5F67
 10
365.542
 20
87.0127
 30
0.000000
  70
    32
  0
VERTEX
  8
0
  5
5F68
 10
365.535
 20
87.0151
 30
0.000000
  70
    32
  0
VERTEX
  8
0
  5
5F69
 10
365.527
 20
87.0175
 30
0.000000
  70
    32
  0
VERTEX
  8
0
  5
5F6A
 10
365.520
 20
87.0199
 30
0.000000
  70
    32
  0
VERTEX
  8
0
  5
5F6B
 10
365.513
 20
87.0223
 30
0.000000
  70
    32
  0
VERTEX
  8
0
  5
5F6C
 10
365.506
 20
87.0247
 30
0.000000
  70
    32
  0
VERTEX
  8
0
  5
5F6D
 10
365.498
 20
87.0270
 30
0.000000
  70
    32
  0
VERTEX
  8
0
  5
5F6E
 10
365.491
 20
87.0294
 30
0.000000
  70
    32
  0
VERTEX
  8
0
  5
5F6F
 10
365.483
 20
87.0318
 30
0.000000
  70
    32
  0
VERTEX
  8
0
  5
5F70
 10
365.476
 20
87.0342
 30
0.000000
  70
    32
  0
VERTEX
  8
0
  5
5F71
 10
365.468
 20
87.0365
 30
0.000000
  70
    32
  0
VERTEX
  8
0
  5
5F72
 10
365.461
 20
87.0389
 30
0.000000
  70
    32
  0
VERTEX
  8
0
  5
5F73
 10
365.453
 20
87.0413
 30
0.000000
  70
    32
  0
SEQEND
  8
0
  5
5F74
  0
LINE
  5
5998
  8
0
 10
343.45301303949441
 20
32.110261421780763
 30
0.0
 11
343.45301303949492
 21
42.11026142178229
 31
0.0
  0
LINE
  5
5999
  8
0
 10
343.53656234256732
 20
37.710261421780793
 30
0.0
 11
343.45301303949458
 21
37.710261421780793
 31
0.0
  0
POLYLINE
  5
599A
  8
0
 66
     1
 10
0.0
 20
0.0
 30
0.0
 70
   128
  0
VERTEX
  5
5E1B
  8
0
 10
343.53656234256732
 20
37.710261421780793
 30
0.0
  0
VERTEX
  5
5E1C
  8
0
 10
343.65327925580709
 20
36.75481062289623
 30
0.0
  0
VERTEX
  5
5E1D
  8
0
 10
344.17293378172423
 20
35.526454381467211
 30
0.0
  0
VERTEX
  5
5E1E
  8
0
 10
345.10072315922002
 20
34.41835718758017
 30
0.0
  0
VERTEX
  5
5E1F
  8
0
 10
345.99003477557022
 20
33.744867782576883
 30
0.0
  0
VERTEX
  5
5E20
  8
0
 10
347.00349879992632
 20
33.207736563507751
 30
0.0
  0
VERTEX
  5
5E21
  8
0
 10
348.71660797277099
 20
32.63288998314318
 30
0.0
  0
VERTEX
  5
5E22
  8
0
 10
350.54013171911203
 20
32.307652797142737
 30
0.0
  0
VERTEX
  5
5E23
  8
0
 10
352.99553104401281
 20
32.137581708508087
 30
0.0
  0
VERTEX
  5
5E24
  8
0
 10
355.46817047646391
 20
32.110261421780592
 30
0.0
  0
SEQEND
  5
5E25
  8
0
  0
LINE
  5
599B
  8
0
 10
371.45301303949418
 20
32.110261421780422
 30
0.0
 11
343.45301303949458
 21
32.110261421780713
 31
0.0
  0
POLYLINE
  5
599C
  8
0
 66
     1
 10
0.0
 20
0.0
 30
0.0
 70
   128
  0
VERTEX
  5
5E26
  8
0
 10
359.43785560252491
 20
32.110261421780542
 30
0.0
  0
VERTEX
  5
5E27
  8
0
 10
362.16920449771652
 20
32.146155830852479
 30
0.0
  0
VERTEX
  5
5E28
  8
0
 10
364.90055339290802
 20
32.380196460094112
 30
0.0
  0
VERTEX
  5
5E29
  8
0
 10
366.72350143280778
 20
32.77756193875274
 30
0.0
  0
VERTEX
  5
5E2A
  8
0
 10
368.49731427502547
 20
33.499574015521553
 30
0.0
  0
VERTEX
  5
5E2B
  8
0
 10
369.97788760057921
 20
34.582178887685991
 30
0.0
  0
VERTEX
  5
5E2C
  8
0
 10
370.56867433111211
 20
35.277268711778788
 30
0.0
  0
VERTEX
  5
5E2D
  8
0
 10
371.03226221114801
 20
36.100834089025398
 30
0.0
  0
VERTEX
  5
5E2E
  8
0
 10
371.35933234566892
 20
37.427541808698443
 30
0.0
  0
VERTEX
  5
5E2F
  8
0
 10
371.36946373642149
 20
37.710261421780388
 30
0.0
  0
SEQEND
  5
5E30
  8
0
  0
LINE
  5
599D
  8
0
 10
371.45301303949458
 20
37.710261421780388
 30
0.0
 11
371.36946373642149
 21
37.710261421780388
 31
0.0
  0
LINE
  5
599E
  8
0
 10
371.45301303949509
 20
42.110261421780592
 30
0.0
 11
371.45301303949418
 21
32.110261421780422
 31
0.0
  0
LINE
  5
59A0
  8
0
 10
343.53656234256749
 20
42.110261421780763
 30
0.0
 11
343.53656234256732
 21
37.710261421780793
 31
0.0
  0
LINE
  5
59A1
  8
0
 10
371.45301303949441
 20
42.110261421780393
 30
0.0
 11
343.45301303949668
 21
42.110261421780763
 31
0.0
  0
LINE
  5
59A2
  8
0
 10
371.36946373642149
 20
37.710261421780388
 30
0.0
 11
371.36946373642149
 21
42.110261421780358
 31
0.0
  0
LINE
  5
59A7
  8
0
 10
364.20301303949458
 20
54.375557993816471
 30
0.0
 11
350.70301303949668
 21
54.375557993816642
 31
0.0
  0
ARC
  5
59A8
  8
0
 10
357.45301303949651
 20
42.110261421781722
 30
0.0
 40
10.84792606906978
 50
359.99999999999397
 51
180.0000000000266
  0
LINE
  5
59A9
  8
0
 10
365.453013039496
 20
200.8832614217803
 30
0.0
 11
349.453013039496
 21
200.8832614217805
 31
0.0
  0
LINE
  5
59AA
  8
0
 10
364.22601303949608
 20
202.11026142178039
 30
0.0
 11
350.68001303949632
 21
202.11026142178051
 31
0.0
  0
LINE
  5
59AD
  8
0
 10
341.45301303949492
 20
66.110261421780592
 30
0.0
 11
373.45301303949481
 21
66.110261421780592
 31
0.0
  0
LINE
  5
59AE
  8
0
 10
341.45301303949492
 20
73.110261421780592
 30
0.0
 11
373.45301303949481
 21
73.110261421780592
 31
0.0
  0
LINE
  5
59AF
  8
0
 10
346.45301303949481
 20
81.110261421780606
 30
0.0
 11
368.45301303949492
 21
81.110261421780606
 31
0.0
  0
LINE
  5
59B0
  8
0
 10
351.35826892782052
 20
171.11026142178059
 30
0.0
 11
363.54775715116898
 21
171.11026142178059
 31
0.0
  0
LINE
  5
59B1
  8
0
 10
365.45301303949492
 20
170.01026142178051
 30
0.0
 11
349.45301303949492
 21
170.01026142178051
 31
0.0
  0
LINE
  5
59B2
  8
0
 10
365.45301303949492
 20
83.110261421780592
 30
0.0
 11
349.45301303949492
 21
83.110261421780592
 31
0.0
  0
LINE
  5
59B3
  8
0
 10
362.95301303949481
 20
81.666885748806521
 30
0.0
 11
351.95301303949492
 21
81.666885748806521
 31
0.0
  0
LINE
  5
59B4
  8
0
 10
341.45301303949549
 20
116.7102614217808
 30
0.0
 11
349.45301303949492
 21
116.7102614217806
 31
0.0
  0
LINE
  5
59B5
  8
0
 10
365.4530130394956
 20
116.7102614217804
 30
0.0
 11
373.4530130394956
 21
116.7102614217803
 31
0.0
  0
LINE
  5
59B6
  8
0
 10
341.45301303949549
 20
120.11026142178081
 30
0.0
 11
349.45301303949492
 21
120.11026142178071
 31
0.0
  0
LINE
  5
59B7
  8
0
 10
365.4530130394956
 20
120.11026142178039
 30
0.0
 11
373.4530130394956
 21
120.11026142178029
 31
0.0
  0
POLYLINE
  5
59B8
  8
0
 66
     1
 10
0.0
 20
0.0
 30
0.0
 70
   128
  0
VERTEX
  5
5E31
  8
0
 10
369.45301303949577
 20
136.7497895174611
 30
0.0
  0
VERTEX
  5
5E32
  8
0
 10
366.3100911725341
 20
137.5645300554086
 30
0.0
  0
VERTEX
  5
5E33
  8
0
 10
365.45301303949492
 20
137.67436484293381
 30
0.0
  0
SEQEND
  5
5E34
  8
0
  0
LINE
  5
59B9
  8
0
 10
369.4530130394956
 20
120.11026142178039
 30
0.0
 11
369.45301303949577
 21
136.7497895174611
 31
0.0
  0
LINE
  5
59BA
  8
0
 10
345.95301303949577
 20
138.11026142178071
 30
0.0
 11
349.45301303949492
 21
138.11026142178071
 31
0.0
  0
LINE
  5
59BB
  8
0
 10
365.45301303949492
 20
138.11026142178051
 30
0.0
 11
368.95301303949577
 21
138.11026142178039
 31
0.0
  0
LINE
  5
59BC
  8
0
 10
369.453013039496
 20
137.8126795019358
 30
0.0
 11
369.45301303949577
 21
136.7497895174611
 31
0.0
  0
POLYLINE
  5
59BD
  8
0
 66
     1
 10
0.0
 20
0.0
 30
0.0
 70
   128
  0
VERTEX
  5
5E35
  8
0
 10
349.45301303949492
 20
137.63611955256241
 30
0.0
  0
VERTEX
  5
5E36
  8
0
 10
348.23525454313682
 20
137.4970821381936
 30
0.0
  0
VERTEX
  5
5E37
  8
0
 10
345.45301303949549
 20
136.74978951746141
 30
0.0
  0
SEQEND
  5
5E38
  8
0
  0
LINE
  5
59BE
  8
0
 10
345.45301303949549
 20
136.74978951746141
 30
0.0
 11
345.45301303949577
 21
137.81491120707011
 31
0.0
  0
LINE
  5
59BF
  8
0
 10
345.45301303949549
 20
120.11026142178071
 30
0.0
 11
345.45301303949549
 21
136.74978951746141
 31
0.0
  0
LINE
  5
59C0
  8
0
 10
341.45301303949549
 20
111.61026142178081
 30
0.0
 11
349.45301303949549
 21
111.61026142178071
 31
0.0
  0
LINE
  5
59C1
  8
0
 10
365.45301303949492
 20
111.61026142178039
 30
0.0
 11
373.4530130394956
 21
111.61026142178029
 31
0.0
  0
LINE
  5
59C2
  8
0
 10
373.4530130394956
 20
115.61026142178029
 30
0.0
 11
365.45301303949532
 21
115.61026142178051
 31
0.0
  0
LINE
  5
59C3
  8
0
 10
349.45301303949492
 20
115.61026142178071
 30
0.0
 11
341.45301303949549
 21
115.61026142178081
 31
0.0
  0
LINE
  5
59C4
  8
0
 10
341.9530130394956
 20
116.11026142178081
 30
0.0
 11
349.45301303949492
 21
116.11026142178071
 31
0.0
  0
LINE
  5
59C5
  8
0
 10
365.45301303949492
 20
116.11026142178051
 30
0.0
 11
372.9530130394956
 21
116.11026142178029
 31
0.0
  0
LINE
  5
5B5F
  8
3
 10
262.45301303949481
 20
86.110261421780805
 30
0.0
 11
262.45301303949492
 21
82.532911152590927
 31
0.0
  0
LINE
  5
5B60
  8
3
 10
248.45301303949481
 20
86.110261421780805
 30
0.0
 11
248.45301303949481
 21
82.532911152590927
 31
0.0
  0
LINE
  5
5B85
  8
2
 10
161.95301303949489
 20
111.1102614217809
 30
0.0
 11
161.95301303949489
 21
87.659713670190527
 31
0.0
  0
LINE
  5
5B86
  8
2
 10
270.45301303949492
 20
91.110261421780606
 30
0.0
 11
215.45301303949489
 21
91.110261421780606
 31
0.0
  0
ARC
  5
5B87
  8
2
 10
215.45301303949489
 20
291.11026142178099
 30
0.0
 40
8.5
 50
270.0
 51
90.0
  0
LINE
  5
5B88
  8
2
 10
201.8975713277689
 20
299.61026142178048
 30
0.0
 11
270.45301303949492
 21
299.61026142178338
 31
0.0
  0
LINE
  5
5B89
  8
2
 10
201.8975713277689
 20
282.61026142177991
 30
0.0
 11
270.45301303949492
 21
282.61026142177701
 31
0.0
  0
LINE
  5
5B8A
  8
2
 10
223.95301303949489
 20
91.110261421780606
 30
0.0
 11
223.95301303949489
 21
111.1102614217809
 31
0.0
  0
LINE
  5
5B93
  8
3
 10
364.45301303949492
 20
91.110261421780464
 30
0.0
 11
364.45301303949492
 21
82.532911152590955
 31
0.0
  0
LINE
  5
5B94
  8
3
 10
350.45301303949481
 20
91.110261421780649
 30
0.0
 11
350.45301303949481
 21
82.532911152590927
 31
0.0
  0
LINE
  5
5B95
  8
3
 10
364.45301303949492
 20
201.88326142178161
 30
0.0
 11
364.45301303949492
 21
111.11026142178081
 31
0.0
  0
LINE
  5
5B96
  8
3
 10
350.45301303949458
 20
201.883261421779
 30
0.0
 11
350.45301303949481
 21
111.11026142178081
 31
0.0
  0
LINE
  5
5B9F
  8
1
 10
357.45301303949623
 20
207.11026142178051
 30
0.0
 11
357.45301303949799
 21
27.110261421780621
 31
0.0
  0
LINE
  5
5BA0
  8
1
 10
170.45301303949509
 20
279.61026142178048
 30
0.0
 11
170.45301303949509
 21
302.61026142178048
 31
0.0
  0
LINE
  5
5BA1
  8
1
 10
215.453013039495
 20
272.11026142178048
 30
0.0
 11
215.453013039495
 21
310.11026142178059
 31
0.0
  0
LINE
  5
5BA2
  8
1
 10
255.45301303949469
 20
280.11026142177991
 30
0.0
 11
255.45301303949469
 21
302.11026142177991
 31
0.0
  0
LINE
  5
5CD0
  8
0
 10
364.20301303949458
 20
81.110261421780606
 30
0.0
 11
364.20301303949458
 21
82.388573585293415
 31
0.0
  0
LINE
  5
5CD1
  8
0
 10
350.70301303949469
 20
66.110261421780606
 30
0.0
 11
350.70301303949458
 21
54.375557993816642
 31
0.0
  0
LINE
  5
5CD2
  8
3
 10
52.453013039495033
 20
86.110261421780535
 30
0.0
 11
52.45301303949514
 21
82.532911152590671
 31
0.0
  0
LINE
  5
5CD3
  8
3
 10
66.453013039495033
 20
86.110261421780535
 30
0.0
 11
66.453013039495147
 21
82.532911152590671
 31
0.0
  0
LINE
  5
5CD4
  8
0
 10
67.453013039495147
 20
83.110261421780322
 30
0.0
 11
66.20301303949492
 21
83.110261421780322
 31
0.0
  0
LINE
  5
5CD5
  8
0
 10
67.453013039495147
 20
83.110261421780322
 30
0.0
 11
67.453013039495147
 21
86.110261421780208
 31
0.0
  0
LINE
  5
5CD6
  8
0
 10
51.453013039495147
 20
86.110261421780208
 30
0.0
 11
51.453013039495147
 21
83.110261421780322
 31
0.0
  0
LINE
  5
5CD7
  8
0
 10
66.203013039494948
 20
82.388573585293145
 30
0.0
 11
67.453013039495147
 21
83.110261421780322
 31
0.0
  0
LINE
  5
5CD8
  8
0
 10
51.453013039495147
 20
83.110261421780322
 30
0.0
 11
52.703013039494927
 21
82.388573585293415
 31
0.0
  0
LINE
  5
5CD9
  8
0
 10
52.703013039494927
 20
83.110261421780322
 30
0.0
 11
51.453013039495147
 21
83.110261421780322
 31
0.0
  0
TEXT
  5
5D80
  8
0
 62
     3
 10
0.0
 20
0.0
 30
0.0
 40
10.0
  1
BJ156-16125B2-T
  7
STANDARD1
  0
ENDSEC
  0
EOF
