  0
SECTION
  2
HEADER
  9
$ACADVER
  1
AC1009
  9
$INSBASE
 10
82.638099999999994
 20
103.82319099999999
 30
0.0
  9
$EXTMIN
 10
0.0
 20
-2.960436562073669
 30
0.0
  9
$EXTMAX
 10
291.7065302324736
 20
319.85693656387741
 30
0.0
  9
$LIMMIN
 10
0.0
 20
0.0
  9
$LIMMAX
 10
375.0
 20
270.0
  9
$ORTHOMODE
 70
     1
  9
$REGENMODE
 70
     1
  9
$FILLMODE
 70
     1
  9
$QTEXTMODE
 70
     0
  9
$MIRRTEXT
 70
     0
  9
$DRAGMODE
 70
     2
  9
$LTSCALE
 40
10.0
  9
$OSMODE
 70
  3071
  9
$ATTMODE
 70
     1
  9
$TEXTSIZE
 40
0.06
  9
$TRACEWID
 40
0.05
  9
$TEXTSTYLE
  7
STANDARD
  9
$CLAYER
  8
0
  9
$CELTYPE
  6
BYLAYER
  9
$CECOLOR
 62
   256
  9
$DIMSCALE
 40
1.0
  9
$DIMASZ
 40
3.0
  9
$DIMEXO
 40
2.0
  9
$DIMDLI
 40
10.0
  9
$DIMRND
 40
0.0
  9
$DIMDLE
 40
0.0
  9
$DIMEXE
 40
2.0
  9
$DIMTP
 40
0.0
  9
$DIMTM
 40
0.0
  9
$DIMTXT
 40
3.0
  9
$DIMCEN
 40
0.0
  9
$DIMTSZ
 40
0.0
  9
$DIMTOL
 70
     0
  9
$DIMLIM
 70
     0
  9
$DIMTIH
 70
     0
  9
$DIMTOH
 70
     0
  9
$DIMSE1
 70
     0
  9
$DIMSE2
 70
     0
  9
$DIMTAD
 70
     1
  9
$DIMZIN
 70
     0
  9
$DIMBLK
  1

  9
$DIMASO
 70
     0
  9
$DIMSHO
 70
     0
  9
$DIMPOST
  1

  9
$DIMAPOST
  1

  9
$DIMALT
 70
     0
  9
$DIMALTD
 70
     2
  9
$DIMALTF
 40
25.399999999999999
  9
$DIMLFAC
 40
1.0
  9
$DIMTOFL
 70
     1
  9
$DIMTVP
 40
1.6000000000000001
  9
$DIMTIX
 70
     1
  9
$DIMSOXD
 70
     0
  9
$DIMSAH
 70
     0
  9
$DIMBLK1
  1

  9
$DIMBLK2
  1

  9
$DIMSTYLE
  2
STANDARD
  9
$DIMCLRD
 70
     0
  9
$DIMCLRE
 70
     0
  9
$DIMCLRT
 70
     0
  9
$DIMTFAC
 40
1.0
  9
$DIMGAP
 40
0.09
  9
$LUNITS
 70
     2
  9
$LUPREC
 70
     4
  9
$SKETCHINC
 40
0.1
  9
$FILLETRAD
 40
0.0
  9
$AUNITS
 70
     0
  9
$AUPREC
 70
     4
  9
$MENU
  1
E:\r13\win\SUPPORT\ACAD
  9
$ELEVATION
 40
0.0
  9
$PELEVATION
 40
0.0
  9
$THICKNESS
 40
0.0
  9
$LIMCHECK
 70
     0
  9
$BLIPMODE
 70
     0
  9
$CHAMFERA
 40
0.0
  9
$CHAMFERB
 40
0.0
  9
$SKPOLY
 70
     0
  9
$TDCREATE
 40
2449840.348113426
  9
$TDUPDATE
 40
2456597.6485898839
  9
$TDINDWG
 40
0.2388536111
  9
$TDUSRTIMER
 40
0.2388536111
  9
$USRTIMER
 70
     1
  9
$ANGBASE
 50
0.0
  9
$ANGDIR
 70
     0
  9
$PDMODE
 70
     1
  9
$PDSIZE
 40
0.0
  9
$PLINEWID
 40
0.0
  9
$COORDS
 70
     1
  9
$SPLFRAME
 70
     0
  9
$SPLINETYPE
 70
     6
  9
$SPLINESEGS
 70
     8
  9
$ATTDIA
 70
     0
  9
$ATTREQ
 70
     1
  9
$HANDLING
 70
     1
  9
$HANDSEED
  5
4B85
  9
$SURFTAB1
 70
     6
  9
$SURFTAB2
 70
     6
  9
$SURFTYPE
 70
     6
  9
$SURFU
 70
     6
  9
$SURFV
 70
     6
  9
$UCSNAME
  2

  9
$UCSORG
 10
0.0
 20
0.0
 30
0.0
  9
$UCSXDIR
 10
1.0
 20
0.0
 30
0.0
  9
$UCSYDIR
 10
0.0
 20
1.0
 30
0.0
  9
$PUCSNAME
  2

  9
$PUCSORG
 10
0.0
 20
0.0
 30
0.0
  9
$PUCSXDIR
 10
1.0
 20
0.0
 30
0.0
  9
$PUCSYDIR
 10
0.0
 20
1.0
 30
0.0
  9
$USERI1
 70
     3
  9
$USERI2
 70
     1
  9
$USERI3
 70
     0
  9
$USERI4
 70
     0
  9
$USERI5
 70
     0
  9
$USERR1
 40
1.0
  9
$USERR2
 40
3.0
  9
$USERR3
 40
3.0
  9
$USERR4
 40
3.0
  9
$USERR5
 40
10.0
  9
$WORLDVIEW
 70
     1
  9
$SHADEDGE
 70
     3
  9
$SHADEDIF
 70
    70
  9
$TILEMODE
 70
     1
  9
$MAXACTVP
 70
    16
  9
$PLIMCHECK
 70
     0
  9
$PEXTMIN
 10
1.0000000000000000E+020
 20
1.0000000000000000E+020
 30
1.0000000000000000E+020
  9
$PEXTMAX
 10
-1.0000000000000000E+020
 20
-1.0000000000000000E+020
 30
-1.0000000000000000E+020
  9
$PLIMMIN
 10
0.0
 20
0.0
  9
$PLIMMAX
 10
12.0
 20
9.0
  9
$UNITMODE
 70
     0
  9
$VISRETAIN
 70
     0
  9
$PLINEGEN
 70
     0
  9
$PSLTSCALE
 70
     0
  0
ENDSEC
  0
SECTION
  2
TABLES
  0
TABLE
  2
VPORT
 70
     1
  0
VPORT
  2
*ACTIVE
 70
     0
 10
0.0
 20
0.0
 11
1.0
 21
1.0
 12
196.4395280175267
 22
158.45207859357009
 13
0.0
 23
0.0
 14
5.0
 24
5.0
 15
10.0
 25
10.0
 16
0.0
 26
0.0
 36
1.0
 17
0.0
 27
0.0
 37
0.0
 40
325.72456945444969
 41
1.8318713450292401
 42
50.0
 43
0.0
 44
0.0
 50
0.0
 51
0.0
 71
     0
 72
   100
 73
     1
 74
     0
 75
     0
 76
     0
 77
     0
 78
     0
  0
ENDTAB
  0
TABLE
  2
LTYPE
 70
     4
  0
LTYPE
  2
CONTINUOUS
 70
     0
  3
Solid Line
 72
    65
 73
     0
 40
0.0
  0
LTYPE
  2
CENTER
 70
     0
  3
____ _ ____ _ ____ _ ____ _ ____ _ ____ _ ____
 72
    65
 73
     4
 40
2.0
 49
1.25
 49
-0.25
 49
0.25
 49
-0.25
  0
LTYPE
  2
HIDDEN
 70
     0
  3
__ __ __ __ __ __ __ __ __ __ __ __ __ __ __ __
 72
    65
 73
     2
 40
0.375
 49
0.25
 49
-0.125
  0
LTYPE
  2
PHANTOM2
 70
     0
  3
___ _ _ ___ _ _ ___ _ _ ___ _ _
 72
    65
 73
     6
 40
1.25
 49
0.625
 49
-0.125
 49
0.125
 49
-0.125
 49
0.125
 49
-0.125
  0
ENDTAB
  0
TABLE
  2
LAYER
 70
     5
  0
LAYER
  2
0
 70
     0
 62
     7
  6
CONTINUOUS
  0
LAYER
  2
1
 70
     0
 62
     1
  6
CENTER
  0
LAYER
  2
2
 70
     0
 62
     2
  6
HIDDEN
  0
LAYER
  2
3
 70
     0
 62
     3
  6
CONTINUOUS
  0
LAYER
  2
DEFPOINTS
 70
     0
 62
     7
  6
CONTINUOUS
  0
ENDTAB
  0
TABLE
  2
STYLE
 70
     2
  0
STYLE
  2
STANDARD
 70
     0
 40
0.0
 41
1.0
 50
0.0
 71
     0
 42
0.06
  3
TXT
  4
BIGFONT
  0
STYLE
  2
STANDARD1
 70
     0
 40
0.0
 41
1.0
 50
0.0
 71
     0
 42
3.0
  3
txt
  4

  0
ENDTAB
  0
TABLE
  2
VIEW
 70
     0
  0
ENDTAB
  0
TABLE
  2
UCS
 70
     0
  0
ENDTAB
  0
TABLE
  2
APPID
 70
     3
  0
APPID
  2
ACAD
 70
     0
  0
APPID
  2
ACAD_MLEADERVER
 70
     0
  0
APPID
  2
ACAD_NAV_VCDISPLAY
 70
     0
  0
ENDTAB
  0
TABLE
  2
DIMSTYLE
 70
     1
  0
DIMSTYLE
  2
STANDARD
 70
     0
  3

  4

  5

  6

  7

 40
1.0
 41
0.18
 42
0.0625
 43
0.38
 44
0.18
 45
0.0
 46
0.0
 47
0.0
 48
0.0
140
0.18
141
0.09
142
0.0
143
25.399999999999999
144
1.0
145
0.0
146
1.0
147
0.09
 71
     0
 72
     0
 73
     1
 74
     1
 75
     0
 76
     0
 77
     0
 78
     0
170
     0
171
     2
172
     0
173
     0
174
     0
175
     0
176
     0
177
     0
178
     0
  0
ENDTAB
  0
ENDSEC
  0
SECTION
  2
BLOCKS
  0
BLOCK
  8
0
  2
$MODEL_SPACE
 70
     0
 10
0.0
 20
0.0
 30
0.0
  3
$MODEL_SPACE
  1

  0
ENDBLK
  5
223
  8
0
  0
BLOCK
 67
     1
  8
0
  2
$PAPER_SPACE
 70
     0
 10
0.0
 20
0.0
 30
0.0
  3
$PAPER_SPACE
  1

  0
ENDBLK
  5
221
 67
     1
  8
0
  0
ENDSEC
  0
SECTION
  2
ENTITIES
  0
ARC
  5
40C7
  8
0
 10
158.7065302324736
 20
31.856936563878548
 30
0.0
 40
13.9999999999984
 50
50.791603809979293
 51
61.174550839588868
  0
ARC
  5
40C8
  8
0
 10
158.7065302324736
 20
31.856936563878548
 30
0.0
 40
13.99999999999851
 50
118.8254491604113
 51
129.20839619002081
  0
LINE
  5
40C9
  8
0
 10
151.07911675634759
 20
106.2115977743122
 30
0.0
 11
151.9565302324736
 21
104.6918730544164
 31
0.0
  0
LINE
  5
40CA
  8
0
 10
165.4565302324736
 20
104.6918730544164
 30
0.0
 11
166.12917996328389
 21
105.8569365638774
 31
0.0
  0
LINE
  5
40CC
  8
0
 10
166.7065302324736
 20
151.85693656387741
 30
0.0
 11
166.7065302324736
 21
230.62993656387749
 31
0.0
  0
LINE
  5
40CD
  8
0
 10
150.7065302324736
 20
230.62993656387749
 30
0.0
 11
150.7065302324736
 21
151.85693656387741
 31
0.0
  0
LINE
  5
40CF
  8
0
 10
166.7065302324736
 20
230.62993656387749
 30
0.0
 11
165.47953023247351
 21
231.8569365638775
 31
0.0
  0
LINE
  5
40D0
  8
0
 10
151.9335302324734
 20
231.8569365638775
 30
0.0
 11
150.7065302324736
 21
230.62993656387749
 31
0.0
  0
LINE
  5
40D1
  8
0
 10
165.4565302324736
 20
44.122233135913433
 30
0.0
 11
165.4565302324736
 21
104.6918730544164
 31
0.0
  0
LINE
  5
40D2
  8
0
 10
151.9565302324736
 20
104.6918730544164
 30
0.0
 11
151.9565302324736
 21
44.122233135913433
 31
0.0
  0
LINE
  5
40D3
  8
0
 10
172.7065302324736
 20
62.856936563877412
 30
0.0
 11
172.7065302324736
 21
55.856936563877412
 31
0.0
  0
LINE
  5
40D4
  8
0
 10
204.7065302324736
 20
55.856936563877412
 30
0.0
 11
204.7065302324736
 21
62.856936563877412
 31
0.0
  0
LINE
  5
40D5
  8
0
 10
177.7065302324736
 20
70.85693656387744
 30
0.0
 11
177.7065302324736
 21
62.856936563877412
 31
0.0
  0
LINE
  5
40D6
  8
0
 10
199.7065302324736
 20
62.856936563877412
 30
0.0
 11
199.7065302324736
 21
70.85693656387744
 31
0.0
  0
LINE
  5
40D7
  8
0
 10
180.7065302324736
 20
72.85693656387744
 30
0.0
 11
183.2065302324736
 21
71.413560890903355
 31
0.0
  0
LINE
  5
40D8
  8
0
 10
194.2065302324736
 20
71.413560890903355
 30
0.0
 11
196.7065302324736
 21
72.85693656387744
 31
0.0
  0
LINE
  5
40D9
  8
0
 10
196.7065302324732
 20
209.75693656387739
 30
0.0
 11
194.8012743441474
 21
210.85693656387741
 31
0.0
  0
LINE
  5
40DA
  8
0
 10
182.61178612079891
 20
210.85693656387741
 30
0.0
 11
180.7065302324732
 21
209.75693656387739
 31
0.0
  0
LINE
  5
40DB
  8
0
 10
180.7065302324732
 20
209.75693656387739
 30
0.0
 11
180.7065302324734
 21
124.8569365638774
 31
0.0
  0
LINE
  5
40DC
  8
0
 10
180.7065302324736
 20
105.8569365638774
 30
0.0
 11
180.7065302324736
 21
72.85693656387744
 31
0.0
  0
LINE
  5
40DD
  8
0
 10
196.7065302324736
 20
72.85693656387744
 30
0.0
 11
196.70653023247351
 21
105.8569365638774
 31
0.0
  0
LINE
  5
40DE
  8
0
 10
196.7065302324734
 20
124.8569365638774
 30
0.0
 11
196.7065302324732
 21
209.75693656387739
 31
0.0
  0
LINE
  5
40DF
  8
0
 10
194.2065302324736
 20
70.85693656387744
 30
0.0
 11
194.2065302324736
 21
71.413560890903355
 31
0.0
  0
LINE
  5
40E0
  8
0
 10
183.2065302324736
 20
71.413560890903355
 30
0.0
 11
183.2065302324736
 21
70.85693656387744
 31
0.0
  0
LINE
  5
40E1
  8
0
 10
142.7065302324736
 20
133.85693656387741
 30
0.0
 11
142.7065302324736
 21
130.45693656387741
 31
0.0
  0
LINE
  5
40E2
  8
0
 10
174.7065302324736
 20
130.45693656387741
 30
0.0
 11
174.7065302324736
 21
133.85693656387741
 31
0.0
  0
POLYLINE
  5
40E3
  8
0
 66
     1
 10
0.0
 20
0.0
 30
0.0
 70
   128
  0
VERTEX
  5
49E7
  8
0
 10
142.7065302324736
 20
130.45693656387741
 30
0.0
  0
VERTEX
  5
49E8
  8
0
 10
143.50714663639741
 20
130.0582730474558
 30
0.0
  0
VERTEX
  5
49E9
  8
0
 10
143.93204268802899
 20
129.85693656387741
 30
0.0
  0
SEQEND
  5
49EA
  8
0
  0
POLYLINE
  5
40E4
  8
0
 66
     1
 10
0.0
 20
0.0
 30
0.0
 70
   128
  0
VERTEX
  5
49EB
  8
0
 10
173.48101777691789
 20
129.85693656387741
 30
0.0
  0
VERTEX
  5
49EC
  8
0
 10
173.9059138285495
 20
130.0582730474558
 30
0.0
  0
VERTEX
  5
49ED
  8
0
 10
174.7065302324736
 20
130.45693656387741
 30
0.0
  0
SEQEND
  5
49EE
  8
0
  0
LINE
  5
40E5
  8
0
 10
172.56293669302451
 20
150.49646465955809
 30
0.0
 11
170.2065302324736
 21
151.85693656387741
 31
0.0
  0
LINE
  5
40E6
  8
0
 10
147.2065302324736
 20
151.85693656387741
 30
0.0
 11
144.8501237719224
 21
150.49646465955809
 31
0.0
  0
LINE
  5
40E7
  8
0
 10
174.7065302324736
 20
125.3569365638774
 30
0.0
 11
174.7065302324736
 21
129.35693656387741
 31
0.0
  0
LINE
  5
40E8
  8
0
 10
142.7065302324736
 20
129.35693656387741
 30
0.0
 11
142.7065302324736
 21
125.3569365638774
 31
0.0
  0
LINE
  5
40E9
  8
0
 10
174.7065302324736
 20
129.35693656387741
 30
0.0
 11
174.2065302324736
 21
129.85693656387741
 31
0.0
  0
LINE
  5
40EA
  8
0
 10
143.2065302324736
 20
129.85693656387741
 30
0.0
 11
142.7065302324736
 21
129.35693656387741
 31
0.0
  0
LINE
  5
40EB
  8
0
 10
142.7065302324736
 20
125.3569365638774
 30
0.0
 11
143.2065302324736
 21
124.8569365638774
 31
0.0
  0
LINE
  5
40EC
  8
0
 10
174.2065302324736
 20
124.8569365638774
 30
0.0
 11
174.7065302324736
 21
125.3569365638774
 31
0.0
  0
LINE
  5
40EE
  8
0
 10
144.7065302324736
 20
21.856936563877468
 30
0.0
 11
144.70653023247351
 21
31.856936563877639
 31
0.0
  0
LINE
  5
40EF
  8
0
 10
144.79007953554671
 20
27.45693656387763
 30
0.0
 11
144.7065302324736
 21
27.45693656387763
 31
0.0
  0
POLYLINE
  5
40F0
  8
0
 66
     1
 10
0.0
 20
0.0
 30
0.0
 70
   128
  0
VERTEX
  5
49EF
  8
0
 10
144.79007953554671
 20
27.45693656387763
 30
0.0
  0
VERTEX
  5
49F0
  8
0
 10
144.90679644878631
 20
26.501485764993109
 30
0.0
  0
VERTEX
  5
49F1
  8
0
 10
145.4264509747031
 20
25.273129523564052
 30
0.0
  0
VERTEX
  5
49F2
  8
0
 10
146.35424035219921
 20
24.165032329677079
 30
0.0
  0
VERTEX
  5
49F3
  8
0
 10
147.24355196854961
 20
23.491542924673809
 30
0.0
  0
VERTEX
  5
49F4
  8
0
 10
148.25701599290551
 20
22.954411705604691
 30
0.0
  0
VERTEX
  5
49F5
  8
0
 10
149.9701251657502
 20
22.379565125240081
 30
0.0
  0
VERTEX
  5
49F6
  8
0
 10
151.7936489120911
 20
22.054327939239698
 30
0.0
  0
VERTEX
  5
49F7
  8
0
 10
154.24904823699171
 20
21.884256850605059
 30
0.0
  0
VERTEX
  5
49F8
  8
0
 10
156.7216876694431
 20
21.856936563877639
 30
0.0
  0
SEQEND
  5
49F9
  8
0
  0
LINE
  5
40F1
  8
0
 10
172.7065302324736
 20
21.856936563877468
 30
0.0
 11
144.7065302324736
 21
21.856936563877468
 31
0.0
  0
POLYLINE
  5
40F2
  8
0
 66
     1
 10
0.0
 20
0.0
 30
0.0
 70
   128
  0
VERTEX
  5
49FA
  8
0
 10
160.69137279550429
 20
21.856936563877639
 30
0.0
  0
VERTEX
  5
49FB
  8
0
 10
163.4227216906956
 20
21.89283097294955
 30
0.0
  0
VERTEX
  5
49FC
  8
0
 10
166.15407058588721
 20
22.126871602191269
 30
0.0
  0
VERTEX
  5
49FD
  8
0
 10
167.977018625787
 20
22.5242370808499
 30
0.0
  0
VERTEX
  5
49FE
  8
0
 10
169.75083146800441
 20
23.246249157618792
 30
0.0
  0
VERTEX
  5
49FF
  8
0
 10
171.23140479355831
 20
24.328854029783201
 30
0.0
  0
VERTEX
  5
4A00
  8
0
 10
171.82219152409129
 20
25.02394385387603
 30
0.0
  0
VERTEX
  5
4A01
  8
0
 10
172.2857794041274
 20
25.847509231122618
 30
0.0
  0
VERTEX
  5
4A02
  8
0
 10
172.61284953864791
 20
27.17421695079571
 30
0.0
  0
VERTEX
  5
4A03
  8
0
 10
172.6229809294004
 20
27.45693656387763
 30
0.0
  0
SEQEND
  5
4A04
  8
0
  0
LINE
  5
40F3
  8
0
 10
172.7065302324736
 20
27.45693656387763
 30
0.0
 11
172.6229809294004
 21
27.45693656387763
 31
0.0
  0
LINE
  5
40F4
  8
0
 10
172.7065302324736
 20
31.856936563877611
 30
0.0
 11
172.7065302324736
 21
21.856936563877468
 31
0.0
  0
LINE
  5
40F6
  8
0
 10
144.79007953554671
 20
31.856936563877611
 30
0.0
 11
144.79007953554671
 21
27.45693656387763
 31
0.0
  0
LINE
  5
40F7
  8
0
 10
158.7065302324736
 20
31.856936563877611
 30
0.0
 11
144.70653023247371
 21
31.856936563877611
 31
0.0
  0
LINE
  5
40F8
  8
0
 10
172.7065302324736
 20
31.856936563877611
 30
0.0
 11
158.7065302324736
 21
31.856936563877611
 31
0.0
  0
LINE
  5
40F9
  8
0
 10
172.6229809294004
 20
27.45693656387763
 30
0.0
 11
172.6229809294004
 21
31.856936563877611
 31
0.0
  0
LINE
  5
40FC
  8
0
 10
165.4565302324736
 20
44.122233135913433
 30
0.0
 11
151.9565302324736
 21
44.122233135913433
 31
0.0
  0
LINE
  5
40FD
  8
0
 10
149.85653023247369
 20
31.856936563877579
 30
0.0
 11
149.85653023247369
 21
42.704862632945492
 31
0.0
  0
LINE
  5
40FE
  8
0
 10
167.55653023247351
 20
42.704862632945492
 30
0.0
 11
167.55653023247581
 21
31.856936563877579
 31
0.0
  0
LINE
  5
4101
  8
0
 10
165.4565302324736
 20
104.6918730544164
 30
0.0
 11
151.9565302324736
 21
104.6918730544164
 31
0.0
  0
LINE
  5
4103
  8
0
 10
166.7065302324736
 20
230.62993656387749
 30
0.0
 11
150.7065302324736
 21
230.62993656387749
 31
0.0
  0
LINE
  5
4104
  8
0
 10
165.47953023247351
 20
231.8569365638775
 30
0.0
 11
151.9335302324734
 21
231.8569365638775
 31
0.0
  0
LINE
  5
4106
  8
0
 10
172.7065302324736
 20
55.856936563877412
 30
0.0
 11
204.7065302324736
 21
55.856936563877412
 31
0.0
  0
LINE
  5
4108
  8
0
 10
172.7065302324736
 20
62.856936563877412
 30
0.0
 11
204.70653023247351
 21
62.856936563877412
 31
0.0
  0
LINE
  5
410A
  8
0
 10
177.7065302324736
 20
70.85693656387744
 30
0.0
 11
199.7065302324736
 21
70.85693656387744
 31
0.0
  0
LINE
  5
410B
  8
0
 10
196.7065302324736
 20
72.85693656387744
 30
0.0
 11
180.7065302324736
 21
72.85693656387744
 31
0.0
  0
LINE
  5
410C
  8
0
 10
194.2065302324736
 20
71.413560890903355
 30
0.0
 11
183.2065302324736
 21
71.413560890903355
 31
0.0
  0
LINE
  5
410D
  8
0
 10
182.61178612079891
 20
210.85693656387741
 30
0.0
 11
194.8012743441474
 21
210.85693656387741
 31
0.0
  0
LINE
  5
410E
  8
0
 10
196.7065302324732
 20
209.75693656387739
 30
0.0
 11
180.7065302324732
 21
209.75693656387739
 31
0.0
  0
LINE
  5
4110
  8
0
 10
142.7065302324736
 20
133.85693656387741
 30
0.0
 11
174.7065302324736
 21
133.85693656387741
 31
0.0
  0
LINE
  5
4112
  8
0
 10
142.7065302324736
 20
130.45693656387741
 30
0.0
 11
174.7065302324736
 21
130.45693656387741
 31
0.0
  0
LINE
  5
4114
  8
0
 10
147.2065302324736
 20
151.85693656387741
 30
0.0
 11
170.2065302324736
 21
151.85693656387741
 31
0.0
  0
ARC
  5
4115
  8
0
 10
169.0988350778866
 20
145.26296224769541
 30
0.0
 40
6.2761092641040497
 50
56.499071751164571
 51
123.50092824883509
  0
ARC
  5
4116
  8
0
 10
158.7065302324736
 20
127.8230635467518
 30
0.0
 40
23.708292178522861
 50
73.008669265251584
 51
106.9913307347484
  0
ARC
  5
4117
  8
0
 10
148.3142253870603
 20
145.26296224769561
 30
0.0
 40
6.2761092641039697
 50
56.499071751164571
 51
123.5009282488386
  0
LINE
  5
4118
  8
0
 10
151.77832700219801
 20
133.85693656387741
 30
0.0
 11
151.77832700219801
 21
150.49646465955809
 31
0.0
  0
LINE
  5
4119
  8
0
 10
165.6347334627489
 20
133.85693656387741
 30
0.0
 11
165.6347334627489
 21
150.49646465955809
 31
0.0
  0
LINE
  5
411A
  8
0
 10
144.8501237719224
 20
133.85693656387741
 30
0.0
 11
144.8501237719224
 21
150.49646465955809
 31
0.0
  0
LINE
  5
411B
  8
0
 10
172.56293669302451
 20
133.85693656387741
 30
0.0
 11
172.56293669302451
 21
150.49646465955809
 31
0.0
  0
LINE
  5
411C
  8
0
 10
174.70653023247371
 20
129.35693656387741
 30
0.0
 11
142.7065302324736
 21
129.35693656387741
 31
0.0
  0
LINE
  5
411E
  8
0
 10
142.7065302324736
 20
125.3569365638774
 30
0.0
 11
174.7065302324736
 21
125.3569365638774
 31
0.0
  0
LINE
  5
4120
  8
0
 10
143.2065302324736
 20
129.85693656387741
 30
0.0
 11
174.20653023247371
 21
129.85693656387741
 31
0.0
  0
LINE
  5
4121
  8
0
 10
123.7065302324736
 20
124.8569365638774
 30
0.0
 11
123.7065302324736
 21
107.4646317184641
 31
0.0
  0
LINE
  5
4122
  8
0
 10
203.7065302324736
 20
124.8569365638774
 30
0.0
 11
203.7065302324736
 21
105.8569365638774
 31
0.0
  0
LINE
  5
4123
  8
0
 10
136.30653023247351
 20
107.83496071078341
 30
0.0
 11
154.30653023247351
 21
105.8569365638774
 31
0.0
  0
ARC
  5
4124
  8
0
 10
129.7065302324736
 20
117.8569365638774
 30
0.0
 40
12.0
 50
240.0000000000002
 51
303.36701296923252
  0
LINE
  5
4125
  8
0
 10
203.7065302324736
 20
105.8569365638774
 30
0.0
 11
154.30653023247351
 21
105.8569365638774
 31
0.0
  0
LINE
  5
4126
  8
0
 10
123.7065302324736
 20
124.8569365638774
 30
0.0
 11
203.7065302324736
 21
124.8569365638774
 31
0.0
  0
LINE
  5
413F
  8
3
 10
165.7065302324736
 20
231.62993656387749
 30
0.0
 11
165.70653023247351
 21
151.85693656387741
 31
0.0
  0
LINE
  5
4140
  8
3
 10
151.7065302324736
 20
231.62993656387749
 30
0.0
 11
151.7065302324736
 21
151.85693656387741
 31
0.0
  0
LINE
  5
4141
  8
3
 10
195.7065302324732
 20
210.33428683306701
 30
0.0
 11
195.7065302324734
 21
124.8569365638774
 31
0.0
  0
LINE
  5
4142
  8
3
 10
181.7065302324732
 20
210.33428683306701
 30
0.0
 11
181.7065302324734
 21
124.8569365638774
 31
0.0
  0
LINE
  5
4144
  8
1
 10
158.7065302324736
 20
236.8569365638773
 30
0.0
 11
158.7065302324736
 21
16.856936563877412
 31
0.0
  0
LINE
  5
4148
  8
1
 10
188.7065302324736
 20
50.856936563877383
 30
0.0
 11
188.7065302324732
 21
215.85693656387741
 31
0.0
  0
CIRCLE
  5
41A3
  8
0
 10
158.7065302324736
 20
300.85693656387849
 30
0.0
 40
8.0
  0
LINE
  5
41A5
  8
0
 10
144.7065302324736
 20
292.35693656387741
 30
0.0
 11
144.7065302324736
 21
293.11096987146249
 31
0.0
  0
LINE
  5
41A6
  8
0
 10
144.70653023247331
 20
308.60290325629211
 30
0.0
 11
144.70653023247331
 21
309.35693656387741
 31
0.0
  0
CIRCLE
  5
41A8
  8
0
 10
188.7065302324736
 20
300.85693656387741
 30
0.0
 40
8.0000000000000568
  0
LINE
  5
41A9
  8
0
 10
191.015931309232
 20
304.85693656387741
 30
0.0
 11
186.39712915571499
 21
304.85693656387741
 31
0.0
  0
LINE
  5
41AA
  8
0
 10
186.39712915571499
 20
304.85693656387741
 30
0.0
 11
184.08772807895639
 21
300.85693656387741
 31
0.0
  0
LINE
  5
41AB
  8
0
 10
184.08772807895639
 20
300.85693656387741
 30
0.0
 11
186.39712915571499
 21
296.85693656387741
 31
0.0
  0
LINE
  5
41AC
  8
0
 10
186.39712915571499
 20
296.85693656387741
 30
0.0
 11
191.015931309232
 21
296.85693656387741
 31
0.0
  0
LINE
  5
41AD
  8
0
 10
191.015931309232
 20
296.85693656387741
 30
0.0
 11
193.32533238599061
 21
300.85693656387741
 31
0.0
  0
LINE
  5
41AE
  8
0
 10
193.32533238599061
 20
300.85693656387741
 30
0.0
 11
191.015931309232
 21
304.85693656387741
 31
0.0
  0
ARC
  5
41AF
  8
0
 10
188.7065302324736
 20
300.8569365638777
 30
0.0
 40
16.000000000000039
 50
339.63586519368351
 51
20.364134806317178
  0
CIRCLE
  5
41B0
  8
0
 10
158.7065302324736
 20
300.8569365638773
 30
0.0
 40
11.5
  0
LINE
  5
41B1
  8
0
 10
144.8501237719224
 20
300.8569365638773
 30
0.0
 11
151.7783270021977
 21
312.85693656387741
 31
0.0
  0
LINE
  5
41B2
  8
0
 10
151.7783270021977
 20
312.85693656387741
 30
0.0
 11
165.6347334627489
 21
312.8569365638773
 31
0.0
  0
LINE
  5
41B3
  8
0
 10
165.6347334627489
 20
312.8569365638773
 30
0.0
 11
172.56293669302451
 21
300.8569365638773
 31
0.0
  0
LINE
  5
41B4
  8
0
 10
172.56293669302451
 20
300.8569365638773
 30
0.0
 11
165.6347334627489
 21
288.8569365638773
 31
0.0
  0
LINE
  5
41B5
  8
0
 10
165.6347334627489
 20
288.8569365638773
 30
0.0
 11
151.77832700219801
 21
288.8569365638773
 31
0.0
  0
LINE
  5
41B6
  8
0
 10
151.77832700219801
 20
288.8569365638773
 30
0.0
 11
144.8501237719224
 21
300.8569365638773
 31
0.0
  0
CIRCLE
  5
41B8
  8
0
 10
158.7065302324736
 20
300.85693656387741
 30
0.0
 40
16.0
  0
LINE
  5
41B9
  8
0
 10
123.7065302324736
 20
319.85693656387741
 30
0.0
 11
203.7065302324736
 21
319.85693656387741
 31
0.0
  0
LINE
  5
41BA
  8
0
 10
203.7065302324736
 20
281.85693656387741
 30
0.0
 11
203.7065302324736
 21
319.85693656387741
 31
0.0
  0
LINE
  5
41BB
  8
0
 10
123.7065302324736
 20
281.85693656387741
 30
0.0
 11
203.7065302324736
 21
281.85693656387741
 31
0.0
  0
LINE
  5
41BC
  8
0
 10
123.7065302324736
 20
281.85693656387741
 30
0.0
 11
123.7065302324736
 21
319.85693656387741
 31
0.0
  0
LINE
  5
41BD
  8
0
 10
141.70653023247331
 20
309.35693656387741
 30
0.0
 11
145.15108852074761
 21
309.35693656387741
 31
0.0
  0
ARC
  5
41BE
  8
0
 10
141.70653023247331
 20
300.85693656387741
 30
0.0
 40
8.5000000000000568
 50
90.0
 51
270.0
  0
LINE
  5
41BF
  8
0
 10
145.15108852074761
 20
292.35693656387741
 30
0.0
 11
141.70653023247331
 21
292.35693656387741
 31
0.0
  0
CIRCLE
  5
41C8
  8
3
 10
158.7065302324736
 20
300.85693656387849
 30
0.0
 40
7.0
  0
CIRCLE
  5
41C9
  8
3
 10
188.7065302324736
 20
300.85693656387741
 30
0.0
 40
7.0
  0
LINE
  5
41CA
  8
1
 10
118.7065302324736
 20
300.85693656387741
 30
0.0
 11
209.7065302324736
 21
300.85693656387741
 31
0.0
  0
ARC
  5
41CB
  8
0
 10
54.706530232471657
 20
31.85693656387841
 30
0.0
 40
13.99999999999795
 50
118.8254491604077
 51
180.00000000000631
  0
ARC
  5
41CC
  8
0
 10
54.706530232471657
 20
31.85693656387841
 30
0.0
 40
14.0
 50
359.99999999999682
 51
61.174550839585251
  0
LINE
  5
41CD
  8
0
 10
62.706530232471991
 20
230.62993656387741
 30
0.0
 11
61.479530232471909
 21
231.85693656387741
 31
0.0
  0
LINE
  5
41CE
  8
0
 10
47.933530232471973
 20
231.85693656387721
 30
0.0
 11
46.706530232471998
 21
230.62993656387721
 31
0.0
  0
LINE
  5
41CF
  8
0
 10
47.283880501662722
 20
105.8569365638773
 30
0.0
 11
47.956530232473142
 21
104.69187305441621
 31
0.0
  0
LINE
  5
41D0
  8
0
 10
61.456530232473142
 20
104.6918730544164
 30
0.0
 11
62.129179963283427
 21
105.8569365638773
 31
0.0
  0
LINE
  5
41D2
  8
0
 10
62.706530232472339
 20
151.8569365638773
 30
0.0
 11
62.706530232471991
 21
230.62993656387741
 31
0.0
  0
LINE
  5
41D3
  8
0
 10
46.706530232471998
 20
230.62993656387721
 30
0.0
 11
46.706530232472339
 21
151.8569365638773
 31
0.0
  0
LINE
  5
41D5
  8
0
 10
61.456530232473483
 20
44.122233135913348
 30
0.0
 11
61.456530232472659
 21
104.69187305441631
 31
0.0
  0
LINE
  5
41D6
  8
0
 10
47.956530232472659
 20
104.69187305441621
 30
0.0
 11
47.956530232473483
 21
44.122233135913142
 31
0.0
  0
LINE
  5
41D7
  8
0
 10
38.706530232473028
 20
62.856936563877269
 30
0.0
 11
38.706530232473028
 21
55.856936563877241
 31
0.0
  0
LINE
  5
41D8
  8
0
 10
70.706530232473014
 20
55.856936563877241
 30
0.0
 11
70.706530232473014
 21
62.856936563877269
 31
0.0
  0
LINE
  5
41D9
  8
0
 10
43.706530232473021
 20
70.856936563877269
 30
0.0
 11
43.706530232473021
 21
62.856936563877269
 31
0.0
  0
LINE
  5
41DA
  8
0
 10
65.706530232473014
 20
62.856936563877269
 30
0.0
 11
65.706530232473014
 21
70.856936563877269
 31
0.0
  0
POLYLINE
  5
41DB
  8
0
 66
     1
 10
0.0
 20
0.0
 30
0.0
 70
   128
  0
VERTEX
  5
4A05
  8
0
 10
69.481017776917838
 20
129.85693656387721
 30
0.0
  0
VERTEX
  5
4A06
  8
0
 10
69.905913828549387
 20
130.0582730474556
 30
0.0
  0
VERTEX
  5
4A07
  8
0
 10
70.706530232473256
 20
130.45693656387721
 30
0.0
  0
SEQEND
  5
4A08
  8
0
  0
POLYLINE
  5
41DC
  8
0
 66
     1
 10
0.0
 20
0.0
 30
0.0
 70
   128
  0
VERTEX
  5
4A09
  8
0
 10
38.706530232473369
 20
130.45693656387721
 30
0.0
  0
VERTEX
  5
4A0A
  8
0
 10
39.507146636397351
 20
130.0582730474556
 30
0.0
  0
VERTEX
  5
4A0B
  8
0
 10
39.932042688028901
 20
129.85693656387721
 30
0.0
  0
SEQEND
  5
4A0C
  8
0
  0
LINE
  5
41DD
  8
0
 10
38.706530232473369
 20
133.85693656387721
 30
0.0
 11
38.706530232473369
 21
130.45693656387721
 31
0.0
  0
LINE
  5
41DE
  8
0
 10
70.706530232473256
 20
130.45693656387721
 30
0.0
 11
70.706530232473256
 21
133.85693656387721
 31
0.0
  0
LINE
  5
41DF
  8
0
 10
66.706530232473256
 20
151.56826142928239
 30
0.0
 11
66.206530232473256
 21
151.8569365638773
 31
0.0
  0
LINE
  5
41E0
  8
0
 10
43.206530232473369
 20
151.8569365638773
 30
0.0
 11
42.706530232473362
 21
151.5682614292825
 31
0.0
  0
LINE
  5
41E1
  8
0
 10
70.706530232473256
 20
125.3569365638772
 30
0.0
 11
70.706530232473256
 21
129.35693656387721
 31
0.0
  0
LINE
  5
41E2
  8
0
 10
38.706530232473369
 20
129.35693656387721
 30
0.0
 11
38.706530232473369
 21
125.3569365638772
 31
0.0
  0
LINE
  5
41E3
  8
0
 10
38.706530232473369
 20
125.3569365638772
 30
0.0
 11
39.206530232473369
 21
124.8569365638772
 31
0.0
  0
LINE
  5
41E4
  8
0
 10
70.206530232473256
 20
124.8569365638772
 30
0.0
 11
70.706530232473256
 21
125.3569365638772
 31
0.0
  0
LINE
  5
41E5
  8
0
 10
70.706530232473256
 20
129.35693656387721
 30
0.0
 11
70.206530232473256
 21
129.85693656387721
 31
0.0
  0
LINE
  5
41E6
  8
0
 10
39.206530232473369
 20
129.85693656387721
 30
0.0
 11
38.706530232473369
 21
129.35693656387721
 31
0.0
  0
LINE
  5
41E7
  8
0
 10
35.70653023247349
 20
105.8569365638773
 30
0.0
 11
73.706530232473483
 21
105.8569365638773
 31
0.0
  0
LINE
  5
41E8
  8
0
 10
40.790079535546958
 20
27.456936563877068
 30
0.0
 11
40.706530232473938
 21
27.456936563877068
 31
0.0
  0
POLYLINE
  5
41E9
  8
0
 66
     1
 10
0.0
 20
0.0
 30
0.0
 70
   128
  0
VERTEX
  5
4A0D
  8
0
 10
40.790079535546958
 20
27.456936563877068
 30
0.0
  0
VERTEX
  5
4A0E
  8
0
 10
40.906796448786622
 20
26.501485764992541
 30
0.0
  0
VERTEX
  5
4A0F
  8
0
 10
41.426450974703698
 20
25.273129523563512
 30
0.0
  0
VERTEX
  5
4A10
  8
0
 10
42.354240352199547
 20
24.16503232967651
 30
0.0
  0
VERTEX
  5
4A11
  8
0
 10
43.243551968549923
 20
23.491542924673269
 30
0.0
  0
VERTEX
  5
4A12
  8
0
 10
44.257015992905963
 20
22.954411705604169
 30
0.0
  0
VERTEX
  5
4A13
  8
0
 10
45.970125165750687
 20
22.379565125239591
 30
0.0
  0
VERTEX
  5
4A14
  8
0
 10
47.793648912091612
 20
22.054327939239268
 30
0.0
  0
VERTEX
  5
4A15
  8
0
 10
50.24904823699228
 20
21.884256850604629
 30
0.0
  0
VERTEX
  5
4A16
  8
0
 10
52.72168766944344
 20
21.856936563877241
 30
0.0
  0
SEQEND
  5
4A17
  8
0
  0
LINE
  5
41EB
  8
0
 10
40.706530232473817
 20
21.856936563877071
 30
0.0
 11
40.706530232473938
 21
31.856936563878691
 31
0.0
  0
LINE
  5
41EC
  8
0
 10
68.706530232473938
 20
21.856936563877468
 30
0.0
 11
40.706530232473817
 21
21.856936563877071
 31
0.0
  0
POLYLINE
  5
41ED
  8
0
 66
     1
 10
0.0
 20
0.0
 30
0.0
 70
   128
  0
VERTEX
  5
4A18
  8
0
 10
56.691372795504662
 20
21.856936563877301
 30
0.0
  0
VERTEX
  5
4A19
  8
0
 10
59.4227216906961
 20
21.89283097294927
 30
0.0
  0
VERTEX
  5
4A1A
  8
0
 10
62.154070585887553
 20
22.126871602190992
 30
0.0
  0
VERTEX
  5
4A1B
  8
0
 10
63.977018625787309
 20
22.524237080849669
 30
0.0
  0
VERTEX
  5
4A1C
  8
0
 10
65.750831468005003
 20
23.246249157618571
 30
0.0
  0
VERTEX
  5
4A1D
  8
0
 10
67.231404793558681
 20
24.328854029782999
 30
0.0
  0
VERTEX
  5
4A1E
  8
0
 10
67.822191524091636
 20
25.023943853875839
 30
0.0
  0
VERTEX
  5
4A1F
  8
0
 10
68.285779404127538
 20
25.847509231122441
 30
0.0
  0
VERTEX
  5
4A20
  8
0
 10
68.612849538648447
 20
27.17421695079554
 30
0.0
  0
VERTEX
  5
4A21
  8
0
 10
68.622980929401024
 20
27.456936563877459
 30
0.0
  0
SEQEND
  5
4A22
  8
0
  0
LINE
  5
41EE
  8
0
 10
68.706530232473938
 20
27.456936563877459
 30
0.0
 11
68.622980929401024
 21
27.456936563877459
 31
0.0
  0
LINE
  5
41EF
  8
0
 10
68.706530232473938
 20
31.85693656387841
 30
0.0
 11
68.706530232473938
 21
21.856936563877468
 31
0.0
  0
LINE
  5
41F1
  8
0
 10
40.790079535546852
 20
31.856936563877071
 30
0.0
 11
40.790079535546958
 21
27.456936563877068
 31
0.0
  0
LINE
  5
41F2
  8
0
 10
68.706530232471664
 20
31.856936563877412
 30
0.0
 11
40.70653023247371
 21
31.856936563877071
 31
0.0
  0
LINE
  5
41F3
  8
0
 10
68.622980929401024
 20
27.456936563877459
 30
0.0
 11
68.622980929400796
 21
31.85693656387744
 31
0.0
  0
LINE
  5
41F8
  8
0
 10
61.456530232473483
 20
44.122233135913369
 30
0.0
 11
47.956530232473483
 21
44.122233135913142
 31
0.0
  0
ARC
  5
41FA
  8
0
 10
54.706530232471657
 20
31.85693656387841
 30
0.0
 40
10.847926069067251
 50
359.99999999999528
 51
180.00000000000909
  0
LINE
  5
41FB
  8
0
 10
62.706530232471991
 20
230.62993656387741
 30
0.0
 11
46.706530232471998
 21
230.62993656387721
 31
0.0
  0
LINE
  5
41FD
  8
0
 10
61.479530232471909
 20
231.85693656387741
 30
0.0
 11
47.933530232471973
 21
231.85693656387721
 31
0.0
  0
LINE
  5
41FF
  8
0
 10
61.456530232473028
 20
104.69187305441631
 30
0.0
 11
47.956530232473142
 21
104.69187305441621
 31
0.0
  0
LINE
  5
4203
  8
0
 10
38.706530232473028
 20
55.856936563877241
 30
0.0
 11
47.956530232473369
 21
55.856936563877241
 31
0.0
  0
LINE
  5
4204
  8
0
 10
61.456530232473369
 20
55.856936563877241
 30
0.0
 11
70.706530232473014
 21
55.856936563877241
 31
0.0
  0
LINE
  5
4205
  8
0
 10
38.706530232473028
 20
62.856936563877269
 30
0.0
 11
47.956530232473249
 21
62.856936563877269
 31
0.0
  0
LINE
  5
4206
  8
0
 10
61.456530232473263
 20
62.856936563877269
 30
0.0
 11
70.706530232473014
 21
62.856936563877269
 31
0.0
  0
LINE
  5
4207
  8
0
 10
43.706530232473021
 20
70.856936563877269
 30
0.0
 11
47.956530232473121
 21
70.856936563877269
 31
0.0
  0
LINE
  5
4208
  8
0
 10
61.456530232473114
 20
70.856936563877269
 30
0.0
 11
65.706530232473014
 21
70.856936563877269
 31
0.0
  0
LINE
  5
4209
  8
0
 10
38.706530232473369
 20
130.45693656387721
 30
0.0
 11
70.706530232473256
 21
130.45693656387721
 31
0.0
  0
LINE
  5
420A
  8
0
 10
38.706530232473369
 20
133.85693656387721
 30
0.0
 11
70.706530232473256
 21
133.85693656387721
 31
0.0
  0
LINE
  5
420B
  8
0
 10
43.206530232473369
 20
151.8569365638773
 30
0.0
 11
66.206530232473256
 21
151.8569365638773
 31
0.0
  0
ARC
  5
420C
  8
0
 10
48.706530232473369
 20
133.91996018038461
 30
0.0
 40
17.628967659737
 50
70.10186677741369
 51
109.8981332225863
  0
ARC
  5
420F
  8
0
 10
60.706530232473369
 20
133.91996018038529
 30
0.0
 40
17.62896765973635
 50
70.101866777413605
 51
109.8981332225864
  0
LINE
  5
4210
  8
0
 10
42.706530232473362
 20
133.85693656387721
 30
0.0
 11
42.706530232473362
 21
151.5682614292825
 31
0.0
  0
LINE
  5
4211
  8
0
 10
54.706530232473362
 20
133.85693656387721
 30
0.0
 11
54.706530232473362
 21
150.49646465955789
 31
0.0
  0
LINE
  5
4212
  8
0
 10
66.706530232473256
 20
133.85693656387721
 30
0.0
 11
66.706530232473256
 21
151.56826142928239
 31
0.0
  0
LINE
  5
4213
  8
0
 10
70.706530232473256
 20
129.35693656387721
 30
0.0
 11
38.706530232473369
 21
129.35693656387721
 31
0.0
  0
LINE
  5
4214
  8
0
 10
38.706530232473369
 20
125.3569365638772
 30
0.0
 11
70.706530232473256
 21
125.3569365638772
 31
0.0
  0
LINE
  5
4215
  8
0
 10
39.206530232473369
 20
129.85693656387721
 30
0.0
 11
70.206530232473256
 21
129.85693656387721
 31
0.0
  0
LINE
  5
4216
  8
0
 10
35.70653023247349
 20
124.8569365638773
 30
0.0
 11
35.70653023247349
 21
105.8569365638772
 31
0.0
  0
LINE
  5
4217
  8
0
 10
73.706530232473483
 20
124.8569365638773
 30
0.0
 11
73.706530232473369
 21
105.8569365638772
 31
0.0
  0
LINE
  5
4218
  8
0
 10
73.706530232473483
 20
107.46463171846401
 30
0.0
 11
35.70653023247349
 21
107.46463171846401
 31
0.0
  0
LINE
  5
4219
  8
0
 10
73.706530232473483
 20
124.8569365638773
 30
0.0
 11
35.70653023247349
 21
124.8569365638773
 31
0.0
  0
LINE
  5
421F
  8
3
 10
61.706530232471998
 20
231.62993656387741
 30
0.0
 11
61.706530232472339
 21
151.85693656387721
 31
0.0
  0
LINE
  5
4220
  8
3
 10
47.706530232471991
 20
231.62993656387721
 30
0.0
 11
47.706530232472247
 21
151.8569365638773
 31
0.0
  0
LINE
  5
4223
  8
1
 10
54.706530232471877
 20
236.8569365638773
 30
0.0
 11
54.706530232473831
 21
16.856936563877412
 31
0.0
  0
ARC
  5
4270
  8
0
 10
272.70653023247542
 20
31.856936563878548
 30
0.0
 40
14.0
 50
118.82544916041481
 51
180.0000000000046
  0
ARC
  5
4271
  8
0
 10
272.70653023247542
 20
31.856936563878548
 30
0.0
 40
13.999999999997859
 50
359.99999999999551
 51
61.17455083959242
  0
LINE
  5
4275
  8
0
 10
280.70653023247462
 20
209.75693656387679
 30
0.0
 11
280.70653023247502
 21
230.62993656387741
 31
0.0
  0
LINE
  5
4276
  8
0
 10
264.70653023247502
 20
230.62993656387761
 30
0.0
 11
264.70653023247462
 21
209.75693656387801
 31
0.0
  0
LINE
  5
4278
  8
0
 10
280.70653023247502
 20
230.62993656387741
 30
0.0
 11
279.4795302324751
 21
231.85693656387741
 31
0.0
  0
LINE
  5
4279
  8
0
 10
265.93353023247511
 20
231.85693656387761
 30
0.0
 11
264.70653023247502
 21
230.62993656387761
 31
0.0
  0
LINE
  5
427A
  8
0
 10
279.45653023247343
 20
44.122233135913319
 30
0.0
 11
279.4565302324736
 21
55.85693656387744
 31
0.0
  0
LINE
  5
427B
  8
0
 10
265.9565302324736
 20
55.85693656387744
 30
0.0
 11
265.9565302324736
 21
44.122233135913518
 31
0.0
  0
LINE
  5
427C
  8
0
 10
256.7065302324736
 20
62.856936563877412
 30
0.0
 11
256.7065302324736
 21
55.856936563877412
 31
0.0
  0
LINE
  5
427D
  8
0
 10
288.7065302324736
 20
55.856936563877412
 30
0.0
 11
288.7065302324736
 21
62.856936563877412
 31
0.0
  0
LINE
  5
427E
  8
0
 10
261.7065302324736
 20
70.85693656387744
 30
0.0
 11
261.7065302324736
 21
62.856936563877412
 31
0.0
  0
LINE
  5
427F
  8
0
 10
283.7065302324736
 20
62.856936563877412
 30
0.0
 11
283.7065302324736
 21
70.85693656387744
 31
0.0
  0
LINE
  5
4280
  8
0
 10
264.7065302324736
 20
72.85693656387744
 30
0.0
 11
267.20653023247382
 21
71.413560890903355
 31
0.0
  0
LINE
  5
4281
  8
0
 10
278.20653023247382
 20
71.413560890903355
 30
0.0
 11
280.7065302324736
 21
72.85693656387744
 31
0.0
  0
LINE
  5
4282
  8
0
 10
280.7065302324732
 20
209.75693656387739
 30
0.0
 11
278.8012743441476
 21
210.85693656387741
 31
0.0
  0
LINE
  5
4283
  8
0
 10
266.61178612079908
 20
210.85693656387741
 30
0.0
 11
264.70653023247331
 21
209.75693656387739
 31
0.0
  0
LINE
  5
4284
  8
0
 10
264.70653023247331
 20
209.75693656387739
 30
0.0
 11
264.70653023247348
 21
124.8569365638774
 31
0.0
  0
LINE
  5
4285
  8
0
 10
264.70653023247348
 20
110.8569365638774
 30
0.0
 11
264.7065302324736
 21
72.85693656387744
 31
0.0
  0
LINE
  5
4286
  8
0
 10
280.7065302324736
 20
72.85693656387744
 30
0.0
 11
280.7065302324736
 21
110.8569365638774
 31
0.0
  0
LINE
  5
4287
  8
0
 10
280.70653023247348
 20
124.8569365638774
 30
0.0
 11
280.7065302324732
 21
209.75693656387739
 31
0.0
  0
LINE
  5
4288
  8
0
 10
278.20653023247382
 20
70.85693656387744
 30
0.0
 11
278.20653023247382
 21
71.413560890903355
 31
0.0
  0
LINE
  5
4289
  8
0
 10
267.20653023247382
 20
71.413560890903355
 30
0.0
 11
267.20653023247382
 21
70.85693656387744
 31
0.0
  0
POLYLINE
  5
428A
  8
0
 66
     1
 10
0.0
 20
0.0
 30
0.0
 70
   128
  0
VERTEX
  5
4A23
  8
0
 10
287.48101777691818
 20
129.85693656387741
 30
0.0
  0
VERTEX
  5
4A24
  8
0
 10
287.90591382854979
 20
130.0582730474558
 30
0.0
  0
VERTEX
  5
4A25
  8
0
 10
288.7065302324736
 20
130.45693656387741
 30
0.0
  0
SEQEND
  5
4A26
  8
0
  0
POLYLINE
  5
428B
  8
0
 66
     1
 10
0.0
 20
0.0
 30
0.0
 70
   128
  0
VERTEX
  5
4A27
  8
0
 10
256.7065302324736
 20
130.45693656387741
 30
0.0
  0
VERTEX
  5
4A28
  8
0
 10
257.50714663639752
 20
130.0582730474558
 30
0.0
  0
VERTEX
  5
4A29
  8
0
 10
257.93204268802901
 20
129.85693656387741
 30
0.0
  0
SEQEND
  5
4A2A
  8
0
  0
LINE
  5
428C
  8
0
 10
256.7065302324736
 20
133.85693656387741
 30
0.0
 11
256.7065302324736
 21
130.45693656387741
 31
0.0
  0
LINE
  5
428D
  8
0
 10
288.7065302324736
 20
130.45693656387741
 30
0.0
 11
288.7065302324736
 21
133.85693656387741
 31
0.0
  0
LINE
  5
428E
  8
0
 10
284.7065302324736
 20
151.56826142928259
 30
0.0
 11
284.2065302324736
 21
151.85693656387741
 31
0.0
  0
LINE
  5
428F
  8
0
 10
261.2065302324736
 20
151.85693656387741
 30
0.0
 11
260.7065302324736
 21
151.56826142928259
 31
0.0
  0
LINE
  5
4290
  8
0
 10
288.7065302324736
 20
125.3569365638774
 30
0.0
 11
288.7065302324736
 21
129.35693656387741
 31
0.0
  0
LINE
  5
4291
  8
0
 10
256.7065302324736
 20
129.35693656387741
 30
0.0
 11
256.7065302324736
 21
125.3569365638774
 31
0.0
  0
LINE
  5
4292
  8
0
 10
288.7065302324736
 20
129.35693656387741
 30
0.0
 11
288.2065302324736
 21
129.85693656387741
 31
0.0
  0
LINE
  5
4293
  8
0
 10
257.2065302324736
 20
129.85693656387741
 30
0.0
 11
256.7065302324736
 21
129.35693656387741
 31
0.0
  0
LINE
  5
4294
  8
0
 10
256.7065302324736
 20
125.3569365638774
 30
0.0
 11
257.2065302324736
 21
124.8569365638774
 31
0.0
  0
LINE
  5
4295
  8
0
 10
288.2065302324736
 20
124.8569365638774
 30
0.0
 11
288.7065302324736
 21
125.3569365638774
 31
0.0
  0
LINE
  5
4296
  8
0
 10
264.2065302324736
 20
105.8569365638774
 30
0.0
 11
264.70653023247399
 21
105.8569365638774
 31
0.0
  0
LINE
  5
4297
  8
0
 10
280.70653023247399
 20
105.8569365638774
 30
0.0
 11
281.2065302324736
 21
105.8569365638774
 31
0.0
  0
LINE
  5
4298
  8
0
 10
286.7065302324732
 20
21.856936563877241
 30
0.0
 11
258.70653023247309
 21
21.856936563877639
 31
0.0
  0
LINE
  5
4299
  8
0
 10
258.70653023247309
 20
21.856936563877639
 30
0.0
 11
258.70653023247348
 21
31.85693656387912
 31
0.0
  0
LINE
  5
429A
  8
0
 10
258.79007953554628
 20
27.45693656387763
 30
0.0
 11
258.70653023247343
 21
27.45693656387763
 31
0.0
  0
POLYLINE
  5
429B
  8
0
 66
     1
 10
0.0
 20
0.0
 30
0.0
 70
   128
  0
VERTEX
  5
4A2B
  8
0
 10
258.79007953554628
 20
27.45693656387763
 30
0.0
  0
VERTEX
  5
4A2C
  8
0
 10
258.90679644878611
 20
26.501485764993081
 30
0.0
  0
VERTEX
  5
4A2D
  8
0
 10
259.42645097470307
 20
25.27312952356402
 30
0.0
  0
VERTEX
  5
4A2E
  8
0
 10
260.35424035219881
 20
24.165032329677022
 30
0.0
  0
VERTEX
  5
4A2F
  8
0
 10
261.24355196854913
 20
23.49154292467372
 30
0.0
  0
VERTEX
  5
4A30
  8
0
 10
262.257015992905
 20
22.954411705604631
 30
0.0
  0
VERTEX
  5
4A31
  8
0
 10
263.97012516574978
 20
22.379565125239989
 30
0.0
  0
VERTEX
  5
4A32
  8
0
 10
265.7936489120907
 20
22.054327939239592
 30
0.0
  0
VERTEX
  5
4A33
  8
0
 10
268.24904823699148
 20
21.884256850604942
 30
0.0
  0
VERTEX
  5
4A34
  8
0
 10
270.7216876694427
 20
21.856936563877468
 30
0.0
  0
SEQEND
  5
4A35
  8
0
  0
POLYLINE
  5
429D
  8
0
 66
     1
 10
0.0
 20
0.0
 30
0.0
 70
   128
  0
VERTEX
  5
4A36
  8
0
 10
274.69137279550392
 20
21.856936563877412
 30
0.0
  0
VERTEX
  5
4A37
  8
0
 10
277.42272169069543
 20
21.892830972949302
 30
0.0
  0
VERTEX
  5
4A38
  8
0
 10
280.15407058588698
 20
22.12687160219096
 30
0.0
  0
VERTEX
  5
4A39
  8
0
 10
281.97701862578651
 20
22.524237080849591
 30
0.0
  0
VERTEX
  5
4A3A
  8
0
 10
283.75083146800438
 20
23.246249157618418
 30
0.0
  0
VERTEX
  5
4A3B
  8
0
 10
285.23140479355789
 20
24.328854029782828
 30
0.0
  0
VERTEX
  5
4A3C
  8
0
 10
285.82219152409101
 20
25.023943853875661
 30
0.0
  0
VERTEX
  5
4A3D
  8
0
 10
286.28577940412703
 20
25.847509231122238
 30
0.0
  0
VERTEX
  5
4A3E
  8
0
 10
286.61284953864788
 20
27.174216950795319
 30
0.0
  0
VERTEX
  5
4A3F
  8
0
 10
286.6229809294004
 20
27.456936563877239
 30
0.0
  0
SEQEND
  5
4A40
  8
0
  0
LINE
  5
429E
  8
0
 10
286.7065302324732
 20
27.456936563877239
 30
0.0
 11
286.6229809294004
 21
27.456936563877239
 31
0.0
  0
LINE
  5
429F
  8
0
 10
286.7065302324732
 20
31.856936563878548
 30
0.0
 11
286.7065302324732
 21
21.856936563877241
 31
0.0
  0
LINE
  5
42A1
  8
0
 10
258.79007953554628
 20
31.856936563877611
 30
0.0
 11
258.79007953554628
 21
27.45693656387763
 31
0.0
  0
LINE
  5
42A2
  8
0
 10
286.7065302324732
 20
31.856936563877241
 30
0.0
 11
258.70653023247542
 21
31.856936563877639
 31
0.0
  0
LINE
  5
42A3
  8
0
 10
286.6229809294004
 20
27.456936563877239
 30
0.0
 11
286.6229809294004
 21
31.856936563877241
 31
0.0
  0
LINE
  5
42A8
  8
0
 10
279.45653023247343
 20
44.122233135913319
 30
0.0
 11
265.9565302324736
 21
44.122233135913518
 31
0.0
  0
ARC
  5
42A9
  8
0
 10
272.70653023247542
 20
31.856936563878548
 30
0.0
 40
10.84792606906967
 50
359.99999999999409
 51
180.00000000002669
  0
LINE
  5
42AC
  8
0
 10
280.70653023247502
 20
230.62993656387741
 30
0.0
 11
264.70653023247502
 21
230.62993656387761
 31
0.0
  0
LINE
  5
42AD
  8
0
 10
279.4795302324751
 20
231.85693656387741
 30
0.0
 11
265.93353023247511
 21
231.85693656387761
 31
0.0
  0
LINE
  5
42AE
  8
0
 10
256.7065302324736
 20
62.856936563877412
 30
0.0
 11
288.7065302324736
 21
62.856936563877412
 31
0.0
  0
LINE
  5
42AF
  8
0
 10
256.7065302324736
 20
55.856936563877412
 30
0.0
 11
288.7065302324736
 21
55.856936563877412
 31
0.0
  0
LINE
  5
42B0
  8
0
 10
261.7065302324736
 20
70.85693656387744
 30
0.0
 11
283.7065302324736
 21
70.85693656387744
 31
0.0
  0
LINE
  5
42B1
  8
0
 10
280.7065302324736
 20
72.85693656387744
 30
0.0
 11
264.7065302324736
 21
72.85693656387744
 31
0.0
  0
LINE
  5
42B2
  8
0
 10
278.20653023247382
 20
71.413560890903355
 30
0.0
 11
267.20653023247382
 21
71.413560890903355
 31
0.0
  0
LINE
  5
42B3
  8
0
 10
266.61178612079908
 20
210.85693656387741
 30
0.0
 11
278.8012743441476
 21
210.85693656387741
 31
0.0
  0
LINE
  5
42B4
  8
0
 10
280.7065302324732
 20
209.75693656387739
 30
0.0
 11
264.70653023247331
 21
209.75693656387739
 31
0.0
  0
LINE
  5
42B5
  8
0
 10
256.7065302324736
 20
130.45693656387741
 30
0.0
 11
264.7065302324736
 21
130.45693656387741
 31
0.0
  0
LINE
  5
42B6
  8
0
 10
280.7065302324736
 20
130.45693656387741
 30
0.0
 11
288.7065302324736
 21
130.45693656387741
 31
0.0
  0
LINE
  5
42B7
  8
0
 10
256.7065302324736
 20
133.85693656387741
 30
0.0
 11
264.70653023247428
 21
133.85693656387741
 31
0.0
  0
LINE
  5
42B8
  8
0
 10
280.70653023247428
 20
133.85693656387741
 30
0.0
 11
288.7065302324736
 21
133.85693656387741
 31
0.0
  0
POLYLINE
  5
42B9
  8
0
 66
     1
 10
0.0
 20
0.0
 30
0.0
 70
   128
  0
VERTEX
  5
4A41
  8
0
 10
284.7065302324736
 20
150.49646465955809
 30
0.0
  0
VERTEX
  5
4A42
  8
0
 10
281.5636083655117
 20
151.3112051975055
 30
0.0
  0
VERTEX
  5
4A43
  8
0
 10
280.7065302324736
 20
151.4210399850306
 30
0.0
  0
SEQEND
  5
4A44
  8
0
  0
LINE
  5
42BA
  8
0
 10
284.7065302324736
 20
133.85693656387741
 30
0.0
 11
284.7065302324736
 21
150.49646465955809
 31
0.0
  0
LINE
  5
42BB
  8
0
 10
261.2065302324736
 20
151.85693656387741
 30
0.0
 11
264.70653023247451
 21
151.85693656387741
 31
0.0
  0
LINE
  5
42BC
  8
0
 10
280.70653023247451
 20
151.85693656387741
 30
0.0
 11
284.2065302324736
 21
151.85693656387741
 31
0.0
  0
LINE
  5
42BD
  8
0
 10
284.7065302324736
 20
150.49646465955809
 30
0.0
 11
284.7065302324736
 21
151.50768202026461
 31
0.0
  0
POLYLINE
  5
42BE
  8
0
 66
     1
 10
0.0
 20
0.0
 30
0.0
 70
   128
  0
VERTEX
  5
4A45
  8
0
 10
264.7065302324736
 20
151.3827946946592
 30
0.0
  0
VERTEX
  5
4A46
  8
0
 10
263.48877173611481
 20
151.2437572802904
 30
0.0
  0
VERTEX
  5
4A47
  8
0
 10
260.7065302324736
 20
150.49646465955809
 30
0.0
  0
SEQEND
  5
4A48
  8
0
  0
LINE
  5
42BF
  8
0
 10
260.7065302324736
 20
150.49646465955809
 30
0.0
 11
260.7065302324736
 21
151.50768202059669
 31
0.0
  0
LINE
  5
42C0
  8
0
 10
260.7065302324736
 20
133.85693656387741
 30
0.0
 11
260.7065302324736
 21
150.49646465955809
 31
0.0
  0
LINE
  5
42C1
  8
0
 10
288.7065302324736
 20
129.35693656387741
 30
0.0
 11
280.7065302324736
 21
129.35693656387741
 31
0.0
  0
LINE
  5
42C2
  8
0
 10
264.7065302324736
 20
129.35693656387741
 30
0.0
 11
256.7065302324736
 21
129.35693656387741
 31
0.0
  0
LINE
  5
42C3
  8
0
 10
256.7065302324736
 20
125.3569365638774
 30
0.0
 11
264.7065302324736
 21
125.3569365638774
 31
0.0
  0
LINE
  5
42C4
  8
0
 10
280.7065302324736
 20
125.3569365638774
 30
0.0
 11
288.7065302324736
 21
125.3569365638774
 31
0.0
  0
LINE
  5
42C5
  8
0
 10
257.2065302324736
 20
129.85693656387741
 30
0.0
 11
264.70653023247428
 21
129.85693656387741
 31
0.0
  0
LINE
  5
42C6
  8
0
 10
280.70653023247428
 20
129.85693656387741
 30
0.0
 11
288.2065302324736
 21
129.85693656387741
 31
0.0
  0
LINE
  5
42C7
  8
0
 10
253.7065302324736
 20
124.8569365638774
 30
0.0
 11
253.7065302324736
 21
105.8569365638774
 31
0.0
  0
LINE
  5
42C8
  8
0
 10
253.7065302324736
 20
124.8569365638774
 30
0.0
 11
291.7065302324736
 21
124.8569365638774
 31
0.0
  0
LINE
  5
42C9
  8
0
 10
291.7065302324736
 20
124.8569365638774
 30
0.0
 11
291.7065302324736
 21
105.8569365638774
 31
0.0
  0
LINE
  5
42CA
  8
0
 10
281.2065302324736
 20
105.8569365638774
 30
0.0
 11
291.7065302324736
 21
105.8569365638774
 31
0.0
  0
LINE
  5
42CB
  8
0
 10
281.2065302324736
 20
105.8569365638774
 30
0.0
 11
281.2065302324736
 21
110.8569365638774
 31
0.0
  0
LINE
  5
42CC
  8
0
 10
264.2065302324736
 20
110.8569365638774
 30
0.0
 11
281.2065302324736
 21
110.8569365638774
 31
0.0
  0
LINE
  5
42CD
  8
0
 10
264.2065302324736
 20
105.8569365638774
 30
0.0
 11
264.2065302324736
 21
110.8569365638774
 31
0.0
  0
LINE
  5
42CE
  8
0
 10
253.7065302324736
 20
105.8569365638774
 30
0.0
 11
264.2065302324736
 21
105.8569365638774
 31
0.0
  0
POLYLINE
  5
42CF
  8
0
 10
264.70653023247388
 20
107.55718912305241
 30
0.0
 66
     1
 70
     8
  0
VERTEX
  8
0
  5
4A81
 10
264.707
 20
107.557
 30
0.000000
  70
    32
  0
VERTEX
  8
0
  5
4A82
 10
264.699
 20
107.555
 30
0.000000
  70
    32
  0
VERTEX
  8
0
  5
4A83
 10
264.691
 20
107.552
 30
0.000000
  70
    32
  0
VERTEX
  8
0
  5
4A84
 10
264.684
 20
107.550
 30
0.000000
  70
    32
  0
VERTEX
  8
0
  5
4A85
 10
264.676
 20
107.548
 30
0.000000
  70
    32
  0
VERTEX
  8
0
  5
4A86
 10
264.669
 20
107.545
 30
0.000000
  70
    32
  0
VERTEX
  8
0
  5
4A87
 10
264.661
 20
107.543
 30
0.000000
  70
    32
  0
VERTEX
  8
0
  5
4A88
 10
264.654
 20
107.541
 30
0.000000
  70
    32
  0
VERTEX
  8
0
  5
4A89
 10
264.647
 20
107.538
 30
0.000000
  70
    32
  0
VERTEX
  8
0
  5
4A8A
 10
264.639
 20
107.536
 30
0.000000
  70
    32
  0
VERTEX
  8
0
  5
4A8B
 10
264.632
 20
107.533
 30
0.000000
  70
    32
  0
VERTEX
  8
0
  5
4A8C
 10
264.625
 20
107.531
 30
0.000000
  70
    32
  0
VERTEX
  8
0
  5
4A8D
 10
264.618
 20
107.529
 30
0.000000
  70
    32
  0
VERTEX
  8
0
  5
4A8E
 10
264.611
 20
107.526
 30
0.000000
  70
    32
  0
VERTEX
  8
0
  5
4A8F
 10
264.604
 20
107.524
 30
0.000000
  70
    32
  0
VERTEX
  8
0
  5
4A90
 10
264.597
 20
107.521
 30
0.000000
  70
    32
  0
VERTEX
  8
0
  5
4A91
 10
264.590
 20
107.519
 30
0.000000
  70
    32
  0
VERTEX
  8
0
  5
4A92
 10
264.583
 20
107.517
 30
0.000000
  70
    32
  0
VERTEX
  8
0
  5
4A93
 10
264.577
 20
107.514
 30
0.000000
  70
    32
  0
VERTEX
  8
0
  5
4A94
 10
264.570
 20
107.512
 30
0.000000
  70
    32
  0
VERTEX
  8
0
  5
4A95
 10
264.564
 20
107.509
 30
0.000000
  70
    32
  0
VERTEX
  8
0
  5
4A96
 10
264.557
 20
107.507
 30
0.000000
  70
    32
  0
VERTEX
  8
0
  5
4A97
 10
264.550
 20
107.505
 30
0.000000
  70
    32
  0
VERTEX
  8
0
  5
4A98
 10
264.544
 20
107.502
 30
0.000000
  70
    32
  0
VERTEX
  8
0
  5
4A99
 10
264.538
 20
107.500
 30
0.000000
  70
    32
  0
VERTEX
  8
0
  5
4A9A
 10
264.531
 20
107.497
 30
0.000000
  70
    32
  0
VERTEX
  8
0
  5
4A9B
 10
264.525
 20
107.495
 30
0.000000
  70
    32
  0
VERTEX
  8
0
  5
4A9C
 10
264.519
 20
107.492
 30
0.000000
  70
    32
  0
VERTEX
  8
0
  5
4A9D
 10
264.513
 20
107.490
 30
0.000000
  70
    32
  0
VERTEX
  8
0
  5
4A9E
 10
264.507
 20
107.488
 30
0.000000
  70
    32
  0
VERTEX
  8
0
  5
4A9F
 10
264.501
 20
107.485
 30
0.000000
  70
    32
  0
VERTEX
  8
0
  5
4AA0
 10
264.495
 20
107.483
 30
0.000000
  70
    32
  0
VERTEX
  8
0
  5
4AA1
 10
264.489
 20
107.480
 30
0.000000
  70
    32
  0
VERTEX
  8
0
  5
4AA2
 10
264.483
 20
107.478
 30
0.000000
  70
    32
  0
VERTEX
  8
0
  5
4AA3
 10
264.477
 20
107.475
 30
0.000000
  70
    32
  0
VERTEX
  8
0
  5
4AA4
 10
264.472
 20
107.473
 30
0.000000
  70
    32
  0
VERTEX
  8
0
  5
4AA5
 10
264.466
 20
107.471
 30
0.000000
  70
    32
  0
VERTEX
  8
0
  5
4AA6
 10
264.460
 20
107.468
 30
0.000000
  70
    32
  0
VERTEX
  8
0
  5
4AA7
 10
264.455
 20
107.466
 30
0.000000
  70
    32
  0
VERTEX
  8
0
  5
4AA8
 10
264.450
 20
107.463
 30
0.000000
  70
    32
  0
VERTEX
  8
0
  5
4AA9
 10
264.444
 20
107.461
 30
0.000000
  70
    32
  0
VERTEX
  8
0
  5
4AAA
 10
264.439
 20
107.458
 30
0.000000
  70
    32
  0
VERTEX
  8
0
  5
4AAB
 10
264.433
 20
107.456
 30
0.000000
  70
    32
  0
VERTEX
  8
0
  5
4AAC
 10
264.428
 20
107.454
 30
0.000000
  70
    32
  0
VERTEX
  8
0
  5
4AAD
 10
264.423
 20
107.451
 30
0.000000
  70
    32
  0
VERTEX
  8
0
  5
4AAE
 10
264.418
 20
107.449
 30
0.000000
  70
    32
  0
VERTEX
  8
0
  5
4AAF
 10
264.413
 20
107.446
 30
0.000000
  70
    32
  0
VERTEX
  8
0
  5
4AB0
 10
264.408
 20
107.444
 30
0.000000
  70
    32
  0
VERTEX
  8
0
  5
4AB1
 10
264.403
 20
107.441
 30
0.000000
  70
    32
  0
VERTEX
  8
0
  5
4AB2
 10
264.398
 20
107.439
 30
0.000000
  70
    32
  0
VERTEX
  8
0
  5
4AB3
 10
264.393
 20
107.436
 30
0.000000
  70
    32
  0
VERTEX
  8
0
  5
4AB4
 10
264.389
 20
107.434
 30
0.000000
  70
    32
  0
VERTEX
  8
0
  5
4AB5
 10
264.384
 20
107.431
 30
0.000000
  70
    32
  0
VERTEX
  8
0
  5
4AB6
 10
264.379
 20
107.429
 30
0.000000
  70
    32
  0
VERTEX
  8
0
  5
4AB7
 10
264.375
 20
107.426
 30
0.000000
  70
    32
  0
VERTEX
  8
0
  5
4AB8
 10
264.370
 20
107.424
 30
0.000000
  70
    32
  0
VERTEX
  8
0
  5
4AB9
 10
264.366
 20
107.422
 30
0.000000
  70
    32
  0
VERTEX
  8
0
  5
4ABA
 10
264.361
 20
107.419
 30
0.000000
  70
    32
  0
VERTEX
  8
0
  5
4ABB
 10
264.357
 20
107.417
 30
0.000000
  70
    32
  0
VERTEX
  8
0
  5
4ABC
 10
264.353
 20
107.414
 30
0.000000
  70
    32
  0
VERTEX
  8
0
  5
4ABD
 10
264.349
 20
107.412
 30
0.000000
  70
    32
  0
VERTEX
  8
0
  5
4ABE
 10
264.345
 20
107.409
 30
0.000000
  70
    32
  0
VERTEX
  8
0
  5
4ABF
 10
264.340
 20
107.407
 30
0.000000
  70
    32
  0
VERTEX
  8
0
  5
4AC0
 10
264.336
 20
107.404
 30
0.000000
  70
    32
  0
VERTEX
  8
0
  5
4AC1
 10
264.332
 20
107.402
 30
0.000000
  70
    32
  0
VERTEX
  8
0
  5
4AC2
 10
264.329
 20
107.399
 30
0.000000
  70
    32
  0
VERTEX
  8
0
  5
4AC3
 10
264.325
 20
107.397
 30
0.000000
  70
    32
  0
VERTEX
  8
0
  5
4AC4
 10
264.321
 20
107.394
 30
0.000000
  70
    32
  0
VERTEX
  8
0
  5
4AC5
 10
264.317
 20
107.392
 30
0.000000
  70
    32
  0
VERTEX
  8
0
  5
4AC6
 10
264.314
 20
107.389
 30
0.000000
  70
    32
  0
VERTEX
  8
0
  5
4AC7
 10
264.310
 20
107.387
 30
0.000000
  70
    32
  0
VERTEX
  8
0
  5
4AC8
 10
264.306
 20
107.384
 30
0.000000
  70
    32
  0
VERTEX
  8
0
  5
4AC9
 10
264.303
 20
107.382
 30
0.000000
  70
    32
  0
VERTEX
  8
0
  5
4ACA
 10
264.300
 20
107.379
 30
0.000000
  70
    32
  0
VERTEX
  8
0
  5
4ACB
 10
264.296
 20
107.377
 30
0.000000
  70
    32
  0
VERTEX
  8
0
  5
4ACC
 10
264.293
 20
107.374
 30
0.000000
  70
    32
  0
VERTEX
  8
0
  5
4ACD
 10
264.290
 20
107.372
 30
0.000000
  70
    32
  0
VERTEX
  8
0
  5
4ACE
 10
264.287
 20
107.369
 30
0.000000
  70
    32
  0
VERTEX
  8
0
  5
4ACF
 10
264.283
 20
107.367
 30
0.000000
  70
    32
  0
VERTEX
  8
0
  5
4AD0
 10
264.280
 20
107.364
 30
0.000000
  70
    32
  0
VERTEX
  8
0
  5
4AD1
 10
264.277
 20
107.362
 30
0.000000
  70
    32
  0
VERTEX
  8
0
  5
4AD2
 10
264.275
 20
107.359
 30
0.000000
  70
    32
  0
VERTEX
  8
0
  5
4AD3
 10
264.272
 20
107.357
 30
0.000000
  70
    32
  0
VERTEX
  8
0
  5
4AD4
 10
264.269
 20
107.354
 30
0.000000
  70
    32
  0
VERTEX
  8
0
  5
4AD5
 10
264.266
 20
107.352
 30
0.000000
  70
    32
  0
VERTEX
  8
0
  5
4AD6
 10
264.263
 20
107.349
 30
0.000000
  70
    32
  0
VERTEX
  8
0
  5
4AD7
 10
264.261
 20
107.347
 30
0.000000
  70
    32
  0
VERTEX
  8
0
  5
4AD8
 10
264.258
 20
107.344
 30
0.000000
  70
    32
  0
VERTEX
  8
0
  5
4AD9
 10
264.256
 20
107.342
 30
0.000000
  70
    32
  0
VERTEX
  8
0
  5
4ADA
 10
264.253
 20
107.339
 30
0.000000
  70
    32
  0
VERTEX
  8
0
  5
4ADB
 10
264.251
 20
107.337
 30
0.000000
  70
    32
  0
VERTEX
  8
0
  5
4ADC
 10
264.249
 20
107.334
 30
0.000000
  70
    32
  0
VERTEX
  8
0
  5
4ADD
 10
264.246
 20
107.332
 30
0.000000
  70
    32
  0
VERTEX
  8
0
  5
4ADE
 10
264.244
 20
107.329
 30
0.000000
  70
    32
  0
VERTEX
  8
0
  5
4ADF
 10
264.242
 20
107.327
 30
0.000000
  70
    32
  0
VERTEX
  8
0
  5
4AE0
 10
264.240
 20
107.324
 30
0.000000
  70
    32
  0
VERTEX
  8
0
  5
4AE1
 10
264.238
 20
107.322
 30
0.000000
  70
    32
  0
VERTEX
  8
0
  5
4AE2
 10
264.236
 20
107.319
 30
0.000000
  70
    32
  0
VERTEX
  8
0
  5
4AE3
 10
264.234
 20
107.317
 30
0.000000
  70
    32
  0
VERTEX
  8
0
  5
4AE4
 10
264.232
 20
107.314
 30
0.000000
  70
    32
  0
VERTEX
  8
0
  5
4AE5
 10
264.231
 20
107.312
 30
0.000000
  70
    32
  0
VERTEX
  8
0
  5
4AE6
 10
264.229
 20
107.309
 30
0.000000
  70
    32
  0
VERTEX
  8
0
  5
4AE7
 10
264.227
 20
107.307
 30
0.000000
  70
    32
  0
VERTEX
  8
0
  5
4AE8
 10
264.226
 20
107.304
 30
0.000000
  70
    32
  0
VERTEX
  8
0
  5
4AE9
 10
264.224
 20
107.302
 30
0.000000
  70
    32
  0
VERTEX
  8
0
  5
4AEA
 10
264.223
 20
107.299
 30
0.000000
  70
    32
  0
VERTEX
  8
0
  5
4AEB
 10
264.221
 20
107.297
 30
0.000000
  70
    32
  0
VERTEX
  8
0
  5
4AEC
 10
264.220
 20
107.294
 30
0.000000
  70
    32
  0
VERTEX
  8
0
  5
4AED
 10
264.219
 20
107.292
 30
0.000000
  70
    32
  0
VERTEX
  8
0
  5
4AEE
 10
264.218
 20
107.289
 30
0.000000
  70
    32
  0
VERTEX
  8
0
  5
4AEF
 10
264.217
 20
107.287
 30
0.000000
  70
    32
  0
VERTEX
  8
0
  5
4AF0
 10
264.215
 20
107.284
 30
0.000000
  70
    32
  0
VERTEX
  8
0
  5
4AF1
 10
264.214
 20
107.282
 30
0.000000
  70
    32
  0
VERTEX
  8
0
  5
4AF2
 10
264.213
 20
107.279
 30
0.000000
  70
    32
  0
VERTEX
  8
0
  5
4AF3
 10
264.213
 20
107.277
 30
0.000000
  70
    32
  0
VERTEX
  8
0
  5
4AF4
 10
264.212
 20
107.274
 30
0.000000
  70
    32
  0
VERTEX
  8
0
  5
4AF5
 10
264.211
 20
107.272
 30
0.000000
  70
    32
  0
VERTEX
  8
0
  5
4AF6
 10
264.210
 20
107.269
 30
0.000000
  70
    32
  0
VERTEX
  8
0
  5
4AF7
 10
264.210
 20
107.267
 30
0.000000
  70
    32
  0
VERTEX
  8
0
  5
4AF8
 10
264.209
 20
107.264
 30
0.000000
  70
    32
  0
VERTEX
  8
0
  5
4AF9
 10
264.209
 20
107.262
 30
0.000000
  70
    32
  0
VERTEX
  8
0
  5
4AFA
 10
264.208
 20
107.259
 30
0.000000
  70
    32
  0
VERTEX
  8
0
  5
4AFB
 10
264.208
 20
107.257
 30
0.000000
  70
    32
  0
VERTEX
  8
0
  5
4AFC
 10
264.207
 20
107.254
 30
0.000000
  70
    32
  0
VERTEX
  8
0
  5
4AFD
 10
264.207
 20
107.252
 30
0.000000
  70
    32
  0
VERTEX
  8
0
  5
4AFE
 10
264.207
 20
107.249
 30
0.000000
  70
    32
  0
VERTEX
  8
0
  5
4AFF
 10
264.207
 20
107.247
 30
0.000000
  70
    32
  0
VERTEX
  8
0
  5
4B00
 10
264.207
 20
107.244
 30
0.000000
  70
    32
  0
VERTEX
  8
0
  5
4B01
 10
264.207
 20
107.242
 30
0.000000
  70
    32
  0
SEQEND
  8
0
  5
4B02
  0
POLYLINE
  5
42D0
  8
0
 10
281.2065302324736
 20
107.24155346671159
 30
0.0
 66
     1
 70
     8
  0
VERTEX
  8
0
  5
4B03
 10
281.207
 20
107.242
 30
0.000000
  70
    32
  0
VERTEX
  8
0
  5
4B04
 10
281.206
 20
107.244
 30
0.000000
  70
    32
  0
VERTEX
  8
0
  5
4B05
 10
281.206
 20
107.247
 30
0.000000
  70
    32
  0
VERTEX
  8
0
  5
4B06
 10
281.206
 20
107.249
 30
0.000000
  70
    32
  0
VERTEX
  8
0
  5
4B07
 10
281.206
 20
107.252
 30
0.000000
  70
    32
  0
VERTEX
  8
0
  5
4B08
 10
281.206
 20
107.254
 30
0.000000
  70
    32
  0
VERTEX
  8
0
  5
4B09
 10
281.205
 20
107.257
 30
0.000000
  70
    32
  0
VERTEX
  8
0
  5
4B0A
 10
281.205
 20
107.259
 30
0.000000
  70
    32
  0
VERTEX
  8
0
  5
4B0B
 10
281.205
 20
107.262
 30
0.000000
  70
    32
  0
VERTEX
  8
0
  5
4B0C
 10
281.204
 20
107.264
 30
0.000000
  70
    32
  0
VERTEX
  8
0
  5
4B0D
 10
281.203
 20
107.267
 30
0.000000
  70
    32
  0
VERTEX
  8
0
  5
4B0E
 10
281.203
 20
107.269
 30
0.000000
  70
    32
  0
VERTEX
  8
0
  5
4B0F
 10
281.202
 20
107.272
 30
0.000000
  70
    32
  0
VERTEX
  8
0
  5
4B10
 10
281.201
 20
107.274
 30
0.000000
  70
    32
  0
VERTEX
  8
0
  5
4B11
 10
281.200
 20
107.277
 30
0.000000
  70
    32
  0
VERTEX
  8
0
  5
4B12
 10
281.200
 20
107.279
 30
0.000000
  70
    32
  0
VERTEX
  8
0
  5
4B13
 10
281.199
 20
107.282
 30
0.000000
  70
    32
  0
VERTEX
  8
0
  5
4B14
 10
281.198
 20
107.284
 30
0.000000
  70
    32
  0
VERTEX
  8
0
  5
4B15
 10
281.197
 20
107.287
 30
0.000000
  70
    32
  0
VERTEX
  8
0
  5
4B16
 10
281.195
 20
107.289
 30
0.000000
  70
    32
  0
VERTEX
  8
0
  5
4B17
 10
281.194
 20
107.292
 30
0.000000
  70
    32
  0
VERTEX
  8
0
  5
4B18
 10
281.193
 20
107.294
 30
0.000000
  70
    32
  0
VERTEX
  8
0
  5
4B19
 10
281.192
 20
107.297
 30
0.000000
  70
    32
  0
VERTEX
  8
0
  5
4B1A
 10
281.190
 20
107.299
 30
0.000000
  70
    32
  0
VERTEX
  8
0
  5
4B1B
 10
281.189
 20
107.302
 30
0.000000
  70
    32
  0
VERTEX
  8
0
  5
4B1C
 10
281.187
 20
107.304
 30
0.000000
  70
    32
  0
VERTEX
  8
0
  5
4B1D
 10
281.186
 20
107.307
 30
0.000000
  70
    32
  0
VERTEX
  8
0
  5
4B1E
 10
281.184
 20
107.309
 30
0.000000
  70
    32
  0
VERTEX
  8
0
  5
4B1F
 10
281.182
 20
107.312
 30
0.000000
  70
    32
  0
VERTEX
  8
0
  5
4B20
 10
281.181
 20
107.314
 30
0.000000
  70
    32
  0
VERTEX
  8
0
  5
4B21
 10
281.179
 20
107.317
 30
0.000000
  70
    32
  0
VERTEX
  8
0
  5
4B22
 10
281.177
 20
107.319
 30
0.000000
  70
    32
  0
VERTEX
  8
0
  5
4B23
 10
281.175
 20
107.322
 30
0.000000
  70
    32
  0
VERTEX
  8
0
  5
4B24
 10
281.173
 20
107.324
 30
0.000000
  70
    32
  0
VERTEX
  8
0
  5
4B25
 10
281.171
 20
107.327
 30
0.000000
  70
    32
  0
VERTEX
  8
0
  5
4B26
 10
281.169
 20
107.329
 30
0.000000
  70
    32
  0
VERTEX
  8
0
  5
4B27
 10
281.167
 20
107.332
 30
0.000000
  70
    32
  0
VERTEX
  8
0
  5
4B28
 10
281.164
 20
107.334
 30
0.000000
  70
    32
  0
VERTEX
  8
0
  5
4B29
 10
281.162
 20
107.337
 30
0.000000
  70
    32
  0
VERTEX
  8
0
  5
4B2A
 10
281.160
 20
107.339
 30
0.000000
  70
    32
  0
VERTEX
  8
0
  5
4B2B
 10
281.157
 20
107.342
 30
0.000000
  70
    32
  0
VERTEX
  8
0
  5
4B2C
 10
281.155
 20
107.344
 30
0.000000
  70
    32
  0
VERTEX
  8
0
  5
4B2D
 10
281.152
 20
107.347
 30
0.000000
  70
    32
  0
VERTEX
  8
0
  5
4B2E
 10
281.150
 20
107.349
 30
0.000000
  70
    32
  0
VERTEX
  8
0
  5
4B2F
 10
281.147
 20
107.352
 30
0.000000
  70
    32
  0
VERTEX
  8
0
  5
4B30
 10
281.144
 20
107.354
 30
0.000000
  70
    32
  0
VERTEX
  8
0
  5
4B31
 10
281.141
 20
107.357
 30
0.000000
  70
    32
  0
VERTEX
  8
0
  5
4B32
 10
281.139
 20
107.359
 30
0.000000
  70
    32
  0
VERTEX
  8
0
  5
4B33
 10
281.136
 20
107.362
 30
0.000000
  70
    32
  0
VERTEX
  8
0
  5
4B34
 10
281.133
 20
107.364
 30
0.000000
  70
    32
  0
VERTEX
  8
0
  5
4B35
 10
281.130
 20
107.367
 30
0.000000
  70
    32
  0
VERTEX
  8
0
  5
4B36
 10
281.126
 20
107.369
 30
0.000000
  70
    32
  0
VERTEX
  8
0
  5
4B37
 10
281.123
 20
107.372
 30
0.000000
  70
    32
  0
VERTEX
  8
0
  5
4B38
 10
281.120
 20
107.374
 30
0.000000
  70
    32
  0
VERTEX
  8
0
  5
4B39
 10
281.117
 20
107.377
 30
0.000000
  70
    32
  0
VERTEX
  8
0
  5
4B3A
 10
281.113
 20
107.379
 30
0.000000
  70
    32
  0
VERTEX
  8
0
  5
4B3B
 10
281.110
 20
107.382
 30
0.000000
  70
    32
  0
VERTEX
  8
0
  5
4B3C
 10
281.107
 20
107.384
 30
0.000000
  70
    32
  0
VERTEX
  8
0
  5
4B3D
 10
281.103
 20
107.387
 30
0.000000
  70
    32
  0
VERTEX
  8
0
  5
4B3E
 10
281.099
 20
107.389
 30
0.000000
  70
    32
  0
VERTEX
  8
0
  5
4B3F
 10
281.096
 20
107.392
 30
0.000000
  70
    32
  0
VERTEX
  8
0
  5
4B40
 10
281.092
 20
107.394
 30
0.000000
  70
    32
  0
VERTEX
  8
0
  5
4B41
 10
281.088
 20
107.397
 30
0.000000
  70
    32
  0
VERTEX
  8
0
  5
4B42
 10
281.084
 20
107.399
 30
0.000000
  70
    32
  0
VERTEX
  8
0
  5
4B43
 10
281.081
 20
107.402
 30
0.000000
  70
    32
  0
VERTEX
  8
0
  5
4B44
 10
281.077
 20
107.404
 30
0.000000
  70
    32
  0
VERTEX
  8
0
  5
4B45
 10
281.073
 20
107.407
 30
0.000000
  70
    32
  0
VERTEX
  8
0
  5
4B46
 10
281.069
 20
107.409
 30
0.000000
  70
    32
  0
VERTEX
  8
0
  5
4B47
 10
281.064
 20
107.412
 30
0.000000
  70
    32
  0
VERTEX
  8
0
  5
4B48
 10
281.060
 20
107.414
 30
0.000000
  70
    32
  0
VERTEX
  8
0
  5
4B49
 10
281.056
 20
107.417
 30
0.000000
  70
    32
  0
VERTEX
  8
0
  5
4B4A
 10
281.052
 20
107.419
 30
0.000000
  70
    32
  0
VERTEX
  8
0
  5
4B4B
 10
281.047
 20
107.422
 30
0.000000
  70
    32
  0
VERTEX
  8
0
  5
4B4C
 10
281.043
 20
107.424
 30
0.000000
  70
    32
  0
VERTEX
  8
0
  5
4B4D
 10
281.038
 20
107.426
 30
0.000000
  70
    32
  0
VERTEX
  8
0
  5
4B4E
 10
281.034
 20
107.429
 30
0.000000
  70
    32
  0
VERTEX
  8
0
  5
4B4F
 10
281.029
 20
107.431
 30
0.000000
  70
    32
  0
VERTEX
  8
0
  5
4B50
 10
281.024
 20
107.434
 30
0.000000
  70
    32
  0
VERTEX
  8
0
  5
4B51
 10
281.020
 20
107.436
 30
0.000000
  70
    32
  0
VERTEX
  8
0
  5
4B52
 10
281.015
 20
107.439
 30
0.000000
  70
    32
  0
VERTEX
  8
0
  5
4B53
 10
281.010
 20
107.441
 30
0.000000
  70
    32
  0
VERTEX
  8
0
  5
4B54
 10
281.005
 20
107.444
 30
0.000000
  70
    32
  0
VERTEX
  8
0
  5
4B55
 10
281.000
 20
107.446
 30
0.000000
  70
    32
  0
VERTEX
  8
0
  5
4B56
 10
280.995
 20
107.449
 30
0.000000
  70
    32
  0
VERTEX
  8
0
  5
4B57
 10
280.990
 20
107.451
 30
0.000000
  70
    32
  0
VERTEX
  8
0
  5
4B58
 10
280.985
 20
107.454
 30
0.000000
  70
    32
  0
VERTEX
  8
0
  5
4B59
 10
280.980
 20
107.456
 30
0.000000
  70
    32
  0
VERTEX
  8
0
  5
4B5A
 10
280.974
 20
107.458
 30
0.000000
  70
    32
  0
VERTEX
  8
0
  5
4B5B
 10
280.969
 20
107.461
 30
0.000000
  70
    32
  0
VERTEX
  8
0
  5
4B5C
 10
280.964
 20
107.463
 30
0.000000
  70
    32
  0
VERTEX
  8
0
  5
4B5D
 10
280.958
 20
107.466
 30
0.000000
  70
    32
  0
VERTEX
  8
0
  5
4B5E
 10
280.953
 20
107.468
 30
0.000000
  70
    32
  0
VERTEX
  8
0
  5
4B5F
 10
280.947
 20
107.471
 30
0.000000
  70
    32
  0
VERTEX
  8
0
  5
4B60
 10
280.941
 20
107.473
 30
0.000000
  70
    32
  0
VERTEX
  8
0
  5
4B61
 10
280.936
 20
107.475
 30
0.000000
  70
    32
  0
VERTEX
  8
0
  5
4B62
 10
280.930
 20
107.478
 30
0.000000
  70
    32
  0
VERTEX
  8
0
  5
4B63
 10
280.924
 20
107.480
 30
0.000000
  70
    32
  0
VERTEX
  8
0
  5
4B64
 10
280.918
 20
107.483
 30
0.000000
  70
    32
  0
VERTEX
  8
0
  5
4B65
 10
280.912
 20
107.485
 30
0.000000
  70
    32
  0
VERTEX
  8
0
  5
4B66
 10
280.906
 20
107.488
 30
0.000000
  70
    32
  0
VERTEX
  8
0
  5
4B67
 10
280.900
 20
107.490
 30
0.000000
  70
    32
  0
VERTEX
  8
0
  5
4B68
 10
280.894
 20
107.492
 30
0.000000
  70
    32
  0
VERTEX
  8
0
  5
4B69
 10
280.888
 20
107.495
 30
0.000000
  70
    32
  0
VERTEX
  8
0
  5
4B6A
 10
280.882
 20
107.497
 30
0.000000
  70
    32
  0
VERTEX
  8
0
  5
4B6B
 10
280.875
 20
107.500
 30
0.000000
  70
    32
  0
VERTEX
  8
0
  5
4B6C
 10
280.869
 20
107.502
 30
0.000000
  70
    32
  0
VERTEX
  8
0
  5
4B6D
 10
280.863
 20
107.505
 30
0.000000
  70
    32
  0
VERTEX
  8
0
  5
4B6E
 10
280.856
 20
107.507
 30
0.000000
  70
    32
  0
VERTEX
  8
0
  5
4B6F
 10
280.850
 20
107.509
 30
0.000000
  70
    32
  0
VERTEX
  8
0
  5
4B70
 10
280.843
 20
107.512
 30
0.000000
  70
    32
  0
VERTEX
  8
0
  5
4B71
 10
280.836
 20
107.514
 30
0.000000
  70
    32
  0
VERTEX
  8
0
  5
4B72
 10
280.830
 20
107.517
 30
0.000000
  70
    32
  0
VERTEX
  8
0
  5
4B73
 10
280.823
 20
107.519
 30
0.000000
  70
    32
  0
VERTEX
  8
0
  5
4B74
 10
280.816
 20
107.521
 30
0.000000
  70
    32
  0
VERTEX
  8
0
  5
4B75
 10
280.809
 20
107.524
 30
0.000000
  70
    32
  0
VERTEX
  8
0
  5
4B76
 10
280.802
 20
107.526
 30
0.000000
  70
    32
  0
VERTEX
  8
0
  5
4B77
 10
280.795
 20
107.529
 30
0.000000
  70
    32
  0
VERTEX
  8
0
  5
4B78
 10
280.788
 20
107.531
 30
0.000000
  70
    32
  0
VERTEX
  8
0
  5
4B79
 10
280.781
 20
107.533
 30
0.000000
  70
    32
  0
VERTEX
  8
0
  5
4B7A
 10
280.774
 20
107.536
 30
0.000000
  70
    32
  0
VERTEX
  8
0
  5
4B7B
 10
280.767
 20
107.538
 30
0.000000
  70
    32
  0
VERTEX
  8
0
  5
4B7C
 10
280.759
 20
107.541
 30
0.000000
  70
    32
  0
VERTEX
  8
0
  5
4B7D
 10
280.752
 20
107.543
 30
0.000000
  70
    32
  0
VERTEX
  8
0
  5
4B7E
 10
280.744
 20
107.545
 30
0.000000
  70
    32
  0
VERTEX
  8
0
  5
4B7F
 10
280.737
 20
107.548
 30
0.000000
  70
    32
  0
VERTEX
  8
0
  5
4B80
 10
280.729
 20
107.550
 30
0.000000
  70
    32
  0
VERTEX
  8
0
  5
4B81
 10
280.722
 20
107.552
 30
0.000000
  70
    32
  0
VERTEX
  8
0
  5
4B82
 10
280.714
 20
107.555
 30
0.000000
  70
    32
  0
VERTEX
  8
0
  5
4B83
 10
280.707
 20
107.557
 30
0.000000
  70
    32
  0
SEQEND
  8
0
  5
4B84
  0
LINE
  5
44E6
  8
3
 10
61.706530232473142
 20
105.8569365638773
 30
0.0
 11
61.706530232473142
 21
105.1248857563086
 31
0.0
  0
LINE
  5
44E7
  8
3
 10
47.706530232473121
 20
105.8569365638773
 30
0.0
 11
47.706530232473142
 21
105.1248857563084
 31
0.0
  0
LINE
  5
44EB
  8
3
 10
195.70653023247249
 20
105.8569365638774
 30
0.0
 11
195.7065302324736
 21
72.279586294687817
 31
0.0
  0
LINE
  5
44EC
  8
3
 10
181.70653023247351
 20
105.8569365638774
 30
0.0
 11
181.7065302324736
 21
72.279586294687817
 31
0.0
  0
LINE
  5
44ED
  8
3
 10
151.7065302324736
 20
106.1426511628749
 30
0.0
 11
151.7065302324736
 21
105.1248857563086
 31
0.0
  0
LINE
  5
44EE
  8
3
 10
165.7065302324736
 20
105.8569365638774
 30
0.0
 11
165.7065302324736
 21
105.1248857563086
 31
0.0
  0
LINE
  5
44EF
  8
3
 10
279.7065302324736
 20
231.6299365638786
 30
0.0
 11
279.70653023247371
 21
124.8569365638774
 31
0.0
  0
LINE
  5
44F0
  8
3
 10
265.70653023247371
 20
231.62993656387621
 30
0.0
 11
265.7065302324736
 21
124.8569365638774
 31
0.0
  0
LINE
  5
44F1
  8
3
 10
279.70653023247229
 20
110.8569365638774
 30
0.0
 11
279.7065302324736
 21
72.279586294687775
 31
0.0
  0
LINE
  5
44F2
  8
3
 10
265.70653023247348
 20
110.8569365638774
 30
0.0
 11
265.70653023247348
 21
72.279586294687959
 31
0.0
  0
ARC
  5
4680
  8
2
 10
158.7065302324736
 20
300.85693656387741
 30
0.0
 40
8.5
 50
270.0
 51
90.0
  0
LINE
  5
4683
  8
1
 10
141.7065302324736
 20
312.35693656387741
 30
0.0
 11
141.7065302324736
 21
289.35693656387741
 31
0.0
  0
LINE
  5
4684
  8
1
 10
158.7065302324736
 20
319.85693656387741
 30
0.0
 11
158.7065302324736
 21
281.85693656387741
 31
0.0
  0
LINE
  5
4688
  8
1
 10
188.7065302324736
 20
289.85693656387741
 30
0.0
 11
188.7065302324736
 21
311.85693656387753
 31
0.0
  0
LINE
  5
4689
  8
2
 10
145.15108852074761
 20
292.35693656387741
 30
0.0
 11
203.7065302324736
 21
292.35693656387741
 31
0.0
  0
LINE
  5
468A
  8
2
 10
145.15108852074761
 20
309.35693656387741
 30
0.0
 11
203.7065302324736
 21
309.35693656387741
 31
0.0
  0
LINE
  5
4695
  8
2
 10
158.7065302324736
 20
110.8569365638774
 30
0.0
 11
203.7065302324736
 21
110.8569365638774
 31
0.0
  0
LINE
  5
4696
  8
2
 10
133.2065302324736
 20
124.8569365638774
 30
0.0
 11
133.2065302324736
 21
106.3786965638774
 31
0.0
  0
LINE
  5
4697
  8
2
 10
167.2065302324736
 20
124.8569365638774
 30
0.0
 11
167.2065302324736
 21
110.8569365638774
 31
0.0
  0
LINE
  5
46A9
  8
1
 10
272.70653023247121
 20
236.8569365638775
 30
0.0
 11
272.70653023247309
 21
16.856936563877579
 31
0.0
  0
LINE
  5
46B9
  8
1
 10
141.7065302324736
 20
127.8569365638774
 30
0.0
 11
141.7065302324736
 21
104.223494029821
 31
0.0
  0
LINE
  5
48D5
  8
0
 10
62.706530232473369
 20
72.85693656387744
 30
0.0
 11
61.456530232473092
 21
72.85693656387744
 31
0.0
  0
LINE
  5
48D8
  8
0
 10
61.456530232473114
 20
72.135248727390191
 30
0.0
 11
62.706530232473369
 21
72.85693656387744
 31
0.0
  0
LINE
  5
48D9
  8
0
 10
46.706530232473369
 20
72.85693656387744
 30
0.0
 11
47.956530232473099
 21
72.135248727390604
 31
0.0
  0
LINE
  5
48DA
  8
3
 10
47.706530232473263
 20
105.1248857563082
 30
0.0
 11
47.706530232473312
 21
72.279586294687959
 31
0.0
  0
LINE
  5
48DB
  8
3
 10
61.706530232472311
 20
105.12488575630709
 30
0.0
 11
61.706530232473369
 21
72.279586294687775
 31
0.0
  0
LINE
  5
48DC
  8
0
 10
62.706530232473341
 20
72.856936563876246
 30
0.0
 11
62.706530232473312
 21
105.8569365638762
 31
0.0
  0
LINE
  5
48DD
  8
0
 10
46.706530232473341
 20
105.8569365638762
 30
0.0
 11
46.706530232473341
 21
72.856936563876246
 31
0.0
  0
LINE
  5
48DE
  8
0
 10
47.956530232473092
 20
72.856936563877426
 30
0.0
 11
46.706530232473369
 21
72.85693656387744
 31
0.0
  0
TEXT
  5
4990
  8
0
 62
     3
 10
0.0
 20
0.0
 30
0.0
 40
10.0
  1
BJ156-16080B3-T
  7
STANDARD1
  0
ENDSEC
  0
EOF
