  0
SECTION
  2
HEADER
  9
$ACADVER
  1
AC1009
  9
$INSBASE
 10
82.638099999999994
 20
103.82319099999999
 30
0.0
  9
$EXTMIN
 10
0.0
 20
-2.960436562073669
 30
0.0
  9
$EXTMAX
 10
283.52681319058638
 20
218.97480353614139
 30
0.0
  9
$LIMMIN
 10
0.0
 20
0.0
  9
$LIMMAX
 10
375.0
 20
270.0
  9
$ORTHOMODE
 70
     1
  9
$REGENMODE
 70
     1
  9
$FILLMODE
 70
     1
  9
$QTEXTMODE
 70
     0
  9
$MIRRTEXT
 70
     0
  9
$DRAGMODE
 70
     2
  9
$LTSCALE
 40
10.0
  9
$OSMODE
 70
  3071
  9
$ATTMODE
 70
     1
  9
$TEXTSIZE
 40
0.06
  9
$TRACEWID
 40
0.05
  9
$TEXTSTYLE
  7
STANDARD
  9
$CLAYER
  8
0
  9
$CELTYPE
  6
BYLAYER
  9
$CECOLOR
 62
   256
  9
$DIMSCALE
 40
1.0
  9
$DIMASZ
 40
3.0
  9
$DIMEXO
 40
2.0
  9
$DIMDLI
 40
10.0
  9
$DIMRND
 40
0.0
  9
$DIMDLE
 40
0.0
  9
$DIMEXE
 40
2.0
  9
$DIMTP
 40
0.0
  9
$DIMTM
 40
0.0
  9
$DIMTXT
 40
3.0
  9
$DIMCEN
 40
0.0
  9
$DIMTSZ
 40
0.0
  9
$DIMTOL
 70
     0
  9
$DIMLIM
 70
     0
  9
$DIMTIH
 70
     0
  9
$DIMTOH
 70
     0
  9
$DIMSE1
 70
     0
  9
$DIMSE2
 70
     0
  9
$DIMTAD
 70
     1
  9
$DIMZIN
 70
     0
  9
$DIMBLK
  1

  9
$DIMASO
 70
     0
  9
$DIMSHO
 70
     0
  9
$DIMPOST
  1

  9
$DIMAPOST
  1

  9
$DIMALT
 70
     0
  9
$DIMALTD
 70
     2
  9
$DIMALTF
 40
25.399999999999999
  9
$DIMLFAC
 40
1.0
  9
$DIMTOFL
 70
     1
  9
$DIMTVP
 40
1.6000000000000001
  9
$DIMTIX
 70
     1
  9
$DIMSOXD
 70
     0
  9
$DIMSAH
 70
     0
  9
$DIMBLK1
  1

  9
$DIMBLK2
  1

  9
$DIMSTYLE
  2
STANDARD
  9
$DIMCLRD
 70
     0
  9
$DIMCLRE
 70
     0
  9
$DIMCLRT
 70
     0
  9
$DIMTFAC
 40
1.0
  9
$DIMGAP
 40
0.09
  9
$LUNITS
 70
     2
  9
$LUPREC
 70
     4
  9
$SKETCHINC
 40
0.1
  9
$FILLETRAD
 40
0.0
  9
$AUNITS
 70
     0
  9
$AUPREC
 70
     4
  9
$MENU
  1
E:\r13\win\SUPPORT\ACAD
  9
$ELEVATION
 40
0.0
  9
$PELEVATION
 40
0.0
  9
$THICKNESS
 40
0.0
  9
$LIMCHECK
 70
     0
  9
$BLIPMODE
 70
     0
  9
$CHAMFERA
 40
0.0
  9
$CHAMFERB
 40
0.0
  9
$SKPOLY
 70
     0
  9
$TDCREATE
 40
2449840.348113426
  9
$TDUPDATE
 40
2456602.6143521531
  9
$TDINDWG
 40
0.0864022222
  9
$TDUSRTIMER
 40
2456598.3991166209
  9
$USRTIMER
 70
     1
  9
$ANGBASE
 50
0.0
  9
$ANGDIR
 70
     0
  9
$PDMODE
 70
     1
  9
$PDSIZE
 40
0.0
  9
$PLINEWID
 40
0.0
  9
$COORDS
 70
     1
  9
$SPLFRAME
 70
     0
  9
$SPLINETYPE
 70
     6
  9
$SPLINESEGS
 70
     8
  9
$ATTDIA
 70
     0
  9
$ATTREQ
 70
     1
  9
$HANDLING
 70
     1
  9
$HANDSEED
  5
2FF9
  9
$SURFTAB1
 70
     6
  9
$SURFTAB2
 70
     6
  9
$SURFTYPE
 70
     6
  9
$SURFU
 70
     6
  9
$SURFV
 70
     6
  9
$UCSNAME
  2

  9
$UCSORG
 10
0.0
 20
0.0
 30
0.0
  9
$UCSXDIR
 10
1.0
 20
0.0
 30
0.0
  9
$UCSYDIR
 10
0.0
 20
1.0
 30
0.0
  9
$PUCSNAME
  2

  9
$PUCSORG
 10
0.0
 20
0.0
 30
0.0
  9
$PUCSXDIR
 10
1.0
 20
0.0
 30
0.0
  9
$PUCSYDIR
 10
0.0
 20
1.0
 30
0.0
  9
$USERI1
 70
     3
  9
$USERI2
 70
     1
  9
$USERI3
 70
     0
  9
$USERI4
 70
     0
  9
$USERI5
 70
     0
  9
$USERR1
 40
1.0
  9
$USERR2
 40
3.0
  9
$USERR3
 40
3.0
  9
$USERR4
 40
3.0
  9
$USERR5
 40
10.0
  9
$WORLDVIEW
 70
     1
  9
$SHADEDGE
 70
     3
  9
$SHADEDIF
 70
    70
  9
$TILEMODE
 70
     1
  9
$MAXACTVP
 70
    16
  9
$PLIMCHECK
 70
     0
  9
$PEXTMIN
 10
1.0000000000000000E+020
 20
1.0000000000000000E+020
 30
1.0000000000000000E+020
  9
$PEXTMAX
 10
-1.0000000000000000E+020
 20
-1.0000000000000000E+020
 30
-1.0000000000000000E+020
  9
$PLIMMIN
 10
0.0
 20
0.0
  9
$PLIMMAX
 10
12.0
 20
9.0
  9
$UNITMODE
 70
     0
  9
$VISRETAIN
 70
     0
  9
$PLINEGEN
 70
     0
  9
$PSLTSCALE
 70
     0
  0
ENDSEC
  0
SECTION
  2
TABLES
  0
TABLE
  2
VPORT
 70
     1
  0
VPORT
  2
*ACTIVE
 70
     0
 10
0.0
 20
0.0
 11
1.0
 21
1.0
 12
195.0581083320873
 22
133.5127261426681
 13
0.0
 23
0.0
 14
5.0
 24
5.0
 15
10.0
 25
10.0
 16
0.0
 26
0.0
 36
1.0
 17
0.0
 27
0.0
 37
0.0
 40
275.42274993631997
 41
1.831871345029239
 42
50.0
 43
0.0
 44
0.0
 50
0.0
 51
0.0
 71
     0
 72
   100
 73
     1
 74
     0
 75
     0
 76
     0
 77
     0
 78
     0
  0
ENDTAB
  0
TABLE
  2
LTYPE
 70
     4
  0
LTYPE
  2
CONTINUOUS
 70
     0
  3
Solid Line
 72
    65
 73
     0
 40
0.0
  0
LTYPE
  2
CENTER
 70
     0
  3
____ _ ____ _ ____ _ ____ _ ____ _ ____ _ ____
 72
    65
 73
     4
 40
2.0
 49
1.25
 49
-0.25
 49
0.25
 49
-0.25
  0
LTYPE
  2
HIDDEN
 70
     0
  3
__ __ __ __ __ __ __ __ __ __ __ __ __ __ __ __
 72
    65
 73
     2
 40
0.375
 49
0.25
 49
-0.125
  0
LTYPE
  2
PHANTOM2
 70
     0
  3
___ _ _ ___ _ _ ___ _ _ ___ _ _
 72
    65
 73
     6
 40
1.25
 49
0.625
 49
-0.125
 49
0.125
 49
-0.125
 49
0.125
 49
-0.125
  0
ENDTAB
  0
TABLE
  2
LAYER
 70
     5
  0
LAYER
  2
0
 70
     0
 62
     7
  6
CONTINUOUS
  0
LAYER
  2
1
 70
     0
 62
     1
  6
CENTER
  0
LAYER
  2
2
 70
     0
 62
     2
  6
HIDDEN
  0
LAYER
  2
3
 70
     0
 62
     3
  6
CONTINUOUS
  0
LAYER
  2
DEFPOINTS
 70
     0
 62
     7
  6
CONTINUOUS
  0
ENDTAB
  0
TABLE
  2
STYLE
 70
     2
  0
STYLE
  2
STANDARD
 70
     0
 40
0.0
 41
1.0
 50
0.0
 71
     0
 42
0.06
  3
TXT
  4
BIGFONT
  0
STYLE
  2
STANDARD1
 70
     0
 40
0.0
 41
1.0
 50
0.0
 71
     0
 42
3.0
  3
txt
  4

  0
ENDTAB
  0
TABLE
  2
VIEW
 70
     0
  0
ENDTAB
  0
TABLE
  2
UCS
 70
     0
  0
ENDTAB
  0
TABLE
  2
APPID
 70
     3
  0
APPID
  2
ACAD
 70
     0
  0
APPID
  2
ACAD_MLEADERVER
 70
     0
  0
APPID
  2
ACAD_NAV_VCDISPLAY
 70
     0
  0
ENDTAB
  0
TABLE
  2
DIMSTYLE
 70
     1
  0
DIMSTYLE
  2
STANDARD
 70
     0
  3

  4

  5

  6

  7

 40
1.0
 41
0.18
 42
0.0625
 43
0.38
 44
0.18
 45
0.0
 46
0.0
 47
0.0
 48
0.0
140
0.18
141
0.09
142
0.0
143
25.399999999999999
144
1.0
145
0.0
146
1.0
147
0.09
 71
     0
 72
     0
 73
     1
 74
     1
 75
     0
 76
     0
 77
     0
 78
     0
170
     0
171
     2
172
     0
173
     0
174
     0
175
     0
176
     0
177
     0
178
     0
  0
ENDTAB
  0
ENDSEC
  0
SECTION
  2
BLOCKS
  0
BLOCK
  8
0
  2
$MODEL_SPACE
 70
     0
 10
0.0
 20
0.0
 30
0.0
  3
$MODEL_SPACE
  1

  0
ENDBLK
  5
223
  8
0
  0
BLOCK
 67
     1
  8
0
  2
$PAPER_SPACE
 70
     0
 10
0.0
 20
0.0
 30
0.0
  3
$PAPER_SPACE
  1

  0
ENDBLK
  5
221
 67
     1
  8
0
  0
ENDSEC
  0
SECTION
  2
ENTITIES
  0
ARC
  5
26F5
  8
0
 10
161.52681319058641
 20
39.212203949994183
 30
0.0
 40
11.000000000000441
 50
115.58300197739889
 51
128.51556905247739
  0
ARC
  5
26F6
  8
0
 10
161.52681319058641
 20
39.212203949994183
 30
0.0
 40
11.0000000000004
 50
51.484430947522618
 51
64.416998022601192
  0
LINE
  5
26F7
  8
0
 10
156.104163459776
 20
73.212203949994674
 30
0.0
 11
156.77681319058621
 21
72.047140440533667
 31
0.0
  0
LINE
  5
26F8
  8
0
 10
166.2768131905863
 20
72.047140440533667
 30
0.0
 11
166.9494629213967
 21
73.212203949994674
 31
0.0
  0
LINE
  5
26F9
  8
0
 10
167.52681319058621
 20
112.7122039499946
 30
0.0
 11
167.52681319058621
 21
138.13870394999461
 31
0.0
  0
LINE
  5
26FA
  8
0
 10
155.52681319058641
 20
138.13870394999461
 30
0.0
 11
155.52681319058641
 21
112.7122039499946
 31
0.0
  0
LINE
  5
26FB
  8
0
 10
167.52681319058621
 20
138.13870394999461
 30
0.0
 11
166.4533131905863
 21
139.21220394999469
 31
0.0
  0
LINE
  5
26FC
  8
0
 10
156.60031319058629
 20
139.21220394999469
 30
0.0
 11
155.52681319058641
 21
138.13870394999461
 31
0.0
  0
LINE
  5
26FD
  8
0
 10
166.2768131905863
 20
49.133771366486663
 30
0.0
 11
166.2768131905863
 21
72.047140440533667
 31
0.0
  0
LINE
  5
26FE
  8
0
 10
156.77681319058621
 20
72.047140440533667
 30
0.0
 11
156.77681319058621
 21
49.133771366486663
 31
0.0
  0
LINE
  5
26FF
  8
0
 10
178.02681319058621
 20
64.212203949994688
 30
0.0
 11
178.02681319058621
 21
58.212203949994681
 31
0.0
  0
LINE
  5
2700
  8
0
 10
203.02681319058641
 20
58.212203949994681
 30
0.0
 11
203.02681319058641
 21
64.212203949994688
 31
0.0
  0
LINE
  5
2701
  8
0
 10
181.52681319058621
 20
71.212203949994674
 30
0.0
 11
181.52681319058621
 21
64.212203949994688
 31
0.0
  0
LINE
  5
2702
  8
0
 10
199.52681319058641
 20
64.212203949994688
 30
0.0
 11
199.52681319058641
 21
71.212203949994674
 31
0.0
  0
LINE
  5
2703
  8
0
 10
184.5268131905863
 20
122.2122039499947
 30
0.0
 11
184.5268131905863
 21
92.212203949994674
 31
0.0
  0
LINE
  5
2704
  8
0
 10
196.52681319058641
 20
92.212203949994674
 30
0.0
 11
196.52681319058641
 21
122.2122039499947
 31
0.0
  0
LINE
  5
2705
  8
0
 10
196.52681319058641
 20
122.2122039499947
 30
0.0
 11
195.9494629213967
 21
123.2122039499947
 31
0.0
  0
LINE
  5
2706
  8
0
 10
185.104163459776
 20
123.2122039499947
 30
0.0
 11
184.5268131905863
 21
122.2122039499947
 31
0.0
  0
LINE
  5
2707
  8
0
 10
184.5268131905863
 20
73.21220394999466
 30
0.0
 11
186.9268131905863
 21
71.826563303939594
 31
0.0
  0
LINE
  5
2708
  8
0
 10
194.1268131905864
 20
71.826563303939594
 30
0.0
 11
196.52681319058641
 21
73.21220394999466
 31
0.0
  0
LINE
  5
2709
  8
0
 10
194.1268131905864
 20
71.212203949994674
 30
0.0
 11
194.1268131905864
 21
71.826563303939594
 31
0.0
  0
LINE
  5
270A
  8
0
 10
186.9268131905863
 20
71.826563303939594
 30
0.0
 11
186.9268131905863
 21
71.212203949994674
 31
0.0
  0
LINE
  5
270B
  8
0
 10
148.52681319058641
 20
99.712203949994702
 30
0.0
 11
148.52681319058641
 21
96.712203949994688
 31
0.0
  0
LINE
  5
270C
  8
0
 10
174.52681319058621
 20
96.712203949994688
 30
0.0
 11
174.52681319058621
 21
99.712203949994702
 31
0.0
  0
POLYLINE
  5
270D
  8
0
 66
     1
 10
0.0
 20
0.0
 30
0.0
 70
   128
  0
VERTEX
  5
2E57
  8
0
 10
148.52681319058641
 20
96.712203949994688
 30
0.0
  0
VERTEX
  5
2E58
  8
0
 10
149.18666223684039
 20
96.404734010664839
 30
0.0
  0
VERTEX
  5
2E59
  8
0
 10
149.62248673627539
 20
96.212203949994674
 30
0.0
  0
SEQEND
  5
2E5A
  8
0
  0
POLYLINE
  5
270E
  8
0
 66
     1
 10
0.0
 20
0.0
 30
0.0
 70
   128
  0
VERTEX
  5
2E5B
  8
0
 10
173.4311396448974
 20
96.212203949994674
 30
0.0
  0
VERTEX
  5
2E5C
  8
0
 10
173.8669641443322
 20
96.404734010664839
 30
0.0
  0
VERTEX
  5
2E5D
  8
0
 10
174.52681319058621
 20
96.712203949994688
 30
0.0
  0
SEQEND
  5
2E5E
  8
0
  0
LINE
  5
270F
  8
0
 10
172.4964683051893
 20
111.57502303936801
 30
0.0
 11
170.52681319058621
 21
112.7122039499946
 31
0.0
  0
LINE
  5
2710
  8
0
 10
152.52681319058641
 20
112.7122039499946
 30
0.0
 11
150.55715807598341
 21
111.57502303936791
 31
0.0
  0
LINE
  5
2711
  8
0
 10
148.52681319058641
 20
92.712203949994645
 30
0.0
 11
149.02681319058621
 21
92.212203949994674
 31
0.0
  0
LINE
  5
2712
  8
0
 10
174.02681319058621
 20
92.212203949994674
 30
0.0
 11
174.52681319058621
 21
92.712203949994645
 31
0.0
  0
LINE
  5
2713
  8
0
 10
174.52681319058621
 20
92.712203949994645
 30
0.0
 11
174.52681319058621
 21
95.712203949994688
 31
0.0
  0
LINE
  5
2714
  8
0
 10
148.52681319058641
 20
95.712203949994688
 30
0.0
 11
148.52681319058641
 21
92.712203949994645
 31
0.0
  0
LINE
  5
2715
  8
0
 10
174.52681319058621
 20
95.712203949994688
 30
0.0
 11
174.02681319058621
 21
96.212203949994674
 31
0.0
  0
LINE
  5
2716
  8
0
 10
149.02681319058641
 20
96.212203949994674
 30
0.0
 11
148.52681319058641
 21
95.712203949994688
 31
0.0
  0
LINE
  5
2717
  8
0
 10
114.1268131905863
 20
75.190228096900654
 30
0.0
 11
132.1268131905864
 21
73.212203949994674
 31
0.0
  0
LINE
  5
2718
  8
0
 10
101.5268131905862
 20
92.212203949994674
 30
0.0
 11
201.52681319058641
 21
92.212203949994674
 31
0.0
  0
ARC
  5
2719
  8
0
 10
107.5268131905863
 20
85.212203949994688
 30
0.0
 40
12.0
 50
240.0000000000002
 51
303.36701296923252
  0
LINE
  5
271A
  8
0
 10
101.5268131905862
 20
92.212203949994674
 30
0.0
 11
101.5268131905862
 21
74.819899104581424
 31
0.0
  0
LINE
  5
271B
  8
0
 10
201.52681319058641
 20
92.212203949994674
 30
0.0
 11
201.52681319058641
 21
73.21220394999466
 31
0.0
  0
LINE
  5
271C
  8
0
 10
201.52681319058641
 20
73.21220394999466
 30
0.0
 11
132.1268131905864
 21
73.212203949994674
 31
0.0
  0
LINE
  5
271D
  8
0
 10
172.52681319058621
 20
31.212203949994691
 30
0.0
 11
150.52681319058641
 21
31.212203949994691
 31
0.0
  0
LINE
  5
271E
  8
0
 10
150.59245907157231
 20
35.612203949994658
 30
0.0
 11
150.52681319058641
 21
35.612203949994658
 31
0.0
  0
POLYLINE
  5
271F
  8
0
 66
     1
 10
0.0
 20
0.0
 30
0.0
 70
   128
  0
VERTEX
  5
2E5F
  8
0
 10
150.59245907157231
 20
35.612203949994658
 30
0.0
  0
VERTEX
  5
2E60
  8
0
 10
150.6841652176891
 20
34.861492608014352
 30
0.0
  0
VERTEX
  5
2E61
  8
0
 10
151.0924652023381
 20
33.896355561177188
 30
0.0
  0
VERTEX
  5
2E62
  8
0
 10
151.82144257037049
 20
33.025707765980172
 30
0.0
  0
VERTEX
  5
2E63
  8
0
 10
152.5201874117887
 20
32.496537519191889
 30
0.0
  0
VERTEX
  5
2E64
  8
0
 10
153.31648057378251
 20
32.074505847066149
 30
0.0
  0
VERTEX
  5
2E65
  8
0
 10
154.6624949238747
 20
31.622840676779621
 30
0.0
  0
VERTEX
  5
2E66
  8
0
 10
156.09526358171399
 20
31.367297173493569
 30
0.0
  0
VERTEX
  5
2E67
  8
0
 10
158.0245059084225
 20
31.23366988956624
 30
0.0
  0
VERTEX
  5
2E68
  8
0
 10
159.96729403392081
 20
31.212203949994691
 30
0.0
  0
SEQEND
  5
2E69
  8
0
  0
LINE
  5
2720
  8
0
 10
150.52681319058641
 20
31.212203949994691
 30
0.0
 11
150.52681319058621
 21
39.212203949994688
 31
0.0
  0
POLYLINE
  5
2722
  8
0
 66
     1
 10
0.0
 20
0.0
 30
0.0
 70
   128
  0
VERTEX
  5
2E6A
  8
0
 10
163.08633234725181
 20
31.212203949994691
 30
0.0
  0
VERTEX
  5
2E6B
  8
0
 10
165.23239219347411
 20
31.24040669997979
 30
0.0
  0
VERTEX
  5
2E6C
  8
0
 10
167.3784520396963
 20
31.42429576581247
 30
0.0
  0
VERTEX
  5
2E6D
  8
0
 10
168.81076835676041
 20
31.736511499044148
 30
0.0
  0
VERTEX
  5
2E6E
  8
0
 10
170.204478447074
 20
32.303806702219468
 30
0.0
  0
VERTEX
  5
2E6F
  8
0
 10
171.36778606000951
 20
33.154424816062999
 30
0.0
  0
VERTEX
  5
2E70
  8
0
 10
171.83197563399989
 20
33.700566820707422
 30
0.0
  0
VERTEX
  5
2E71
  8
0
 10
172.19622325402841
 20
34.347653902829933
 30
0.0
  0
VERTEX
  5
2E72
  8
0
 10
172.4532069311519
 20
35.390067111144532
 30
0.0
  0
VERTEX
  5
2E73
  8
0
 10
172.4611673096004
 20
35.612203949994658
 30
0.0
  0
SEQEND
  5
2E74
  8
0
  0
LINE
  5
2723
  8
0
 10
172.52681319058621
 20
35.612203949994658
 30
0.0
 11
172.4611673096004
 21
35.612203949994658
 31
0.0
  0
LINE
  5
2724
  8
0
 10
172.52681319058621
 20
39.212203949994688
 30
0.0
 11
172.52681319058621
 21
31.212203949994691
 31
0.0
  0
LINE
  5
2725
  8
0
 10
166.27681319058649
 20
49.133771366486663
 30
0.0
 11
156.77681319058621
 21
49.133771366486663
 31
0.0
  0
LINE
  5
2726
  8
0
 10
154.6768131905863
 20
39.212203949994688
 30
0.0
 11
154.6768131905863
 21
47.819032634243058
 31
0.0
  0
LINE
  5
2727
  8
0
 10
168.3768131905864
 20
47.819032634243058
 30
0.0
 11
168.37681319058589
 21
39.212203949994688
 31
0.0
  0
LINE
  5
2728
  8
0
 10
172.4611673096004
 20
35.612203949994658
 30
0.0
 11
172.4611673096004
 21
39.212203949994688
 31
0.0
  0
LINE
  5
272B
  8
0
 10
150.59245907157231
 20
39.212203949994688
 30
0.0
 11
150.59245907157231
 21
35.612203949994658
 31
0.0
  0
LINE
  5
272C
  8
0
 10
172.52681319058621
 20
39.212203949994688
 30
0.0
 11
150.52681319058641
 21
39.212203949994688
 31
0.0
  0
LINE
  5
2731
  8
0
 10
166.2768131905863
 20
72.047140440533667
 30
0.0
 11
156.77681319058621
 21
72.047140440533667
 31
0.0
  0
LINE
  5
2732
  8
0
 10
167.52681319058621
 20
138.13870394999461
 30
0.0
 11
155.52681319058641
 21
138.13870394999461
 31
0.0
  0
LINE
  5
2733
  8
0
 10
166.4533131905863
 20
139.21220394999469
 30
0.0
 11
156.60031319058629
 21
139.21220394999469
 31
0.0
  0
LINE
  5
2735
  8
0
 10
178.02681319058621
 20
58.212203949994681
 30
0.0
 11
203.02681319058641
 21
58.212203949994681
 31
0.0
  0
LINE
  5
2737
  8
0
 10
178.02681319058621
 20
64.212203949994688
 30
0.0
 11
203.0268131905863
 21
64.212203949994674
 31
0.0
  0
LINE
  5
2739
  8
0
 10
181.52681319058621
 20
71.212203949994674
 30
0.0
 11
199.52681319058641
 21
71.212203949994674
 31
0.0
  0
LINE
  5
273A
  8
0
 10
196.52681319058641
 20
122.2122039499947
 30
0.0
 11
184.5268131905863
 21
122.2122039499947
 31
0.0
  0
LINE
  5
273B
  8
0
 10
185.104163459776
 20
123.2122039499947
 30
0.0
 11
195.9494629213967
 21
123.2122039499947
 31
0.0
  0
LINE
  5
273C
  8
0
 10
194.1268131905864
 20
71.826563303939594
 30
0.0
 11
186.9268131905863
 21
71.826563303939594
 31
0.0
  0
LINE
  5
273E
  8
0
 10
148.52681319058641
 20
99.712203949994702
 30
0.0
 11
174.52681319058621
 21
99.712203949994674
 31
0.0
  0
LINE
  5
2740
  8
0
 10
148.52681319058641
 20
96.712203949994688
 30
0.0
 11
174.52681319058621
 21
96.712203949994674
 31
0.0
  0
LINE
  5
2741
  8
0
 10
150.55715807598341
 20
99.712203949994702
 30
0.0
 11
150.55715807598341
 21
111.57502303936791
 31
0.0
  0
ARC
  5
2742
  8
0
 10
153.29957185463419
 20
107.43183404234379
 30
0.0
 40
4.9685861568856211
 50
56.499069126498767
 51
123.5009308735013
  0
LINE
  5
2743
  8
0
 10
156.0419856332849
 20
99.712203949994702
 30
0.0
 11
156.0419856332849
 21
111.57502303936791
 31
0.0
  0
LINE
  5
2745
  8
0
 10
152.52681319058641
 20
112.7122039499946
 30
0.0
 11
170.52681319058621
 21
112.7122039499946
 31
0.0
  0
ARC
  5
2746
  8
0
 10
169.7540545265386
 20
107.43183404234389
 30
0.0
 40
4.9685861568855261
 50
56.499069126499137
 51
123.5009308735016
  0
ARC
  5
2747
  8
0
 10
161.52681319058621
 20
93.652951661597569
 30
0.0
 40
18.742571216437511
 50
72.983919892827799
 51
107.0160801071721
  0
LINE
  5
2748
  8
0
 10
167.0116407478879
 20
99.712203949994702
 30
0.0
 11
167.0116407478879
 21
111.57502303936791
 31
0.0
  0
LINE
  5
2749
  8
0
 10
172.4964683051893
 20
99.712203949994702
 30
0.0
 11
172.4964683051893
 21
111.57502303936801
 31
0.0
  0
LINE
  5
274A
  8
0
 10
148.52681319058641
 20
92.712203949994645
 30
0.0
 11
174.52681319058621
 21
92.712203949994645
 31
0.0
  0
LINE
  5
274B
  8
0
 10
174.52681319058621
 20
95.712203949994688
 30
0.0
 11
148.52681319058641
 21
95.712203949994688
 31
0.0
  0
LINE
  5
274C
  8
0
 10
149.02681319058641
 20
96.212203949994674
 30
0.0
 11
174.02681319058621
 21
96.212203949994674
 31
0.0
  0
LINE
  5
274D
  8
1
 10
121.5268131905864
 20
95.212203949994688
 30
0.0
 11
121.5268131905864
 21
71.358980955171006
 31
0.0
  0
LINE
  5
2765
  8
3
 10
166.65181319058641
 20
139.01370394999461
 30
0.0
 11
166.65181319058641
 21
112.7122039499946
 31
0.0
  0
LINE
  5
2766
  8
3
 10
156.40181319058641
 20
139.01370394999461
 30
0.0
 11
156.40181319058649
 21
112.7122039499946
 31
0.0
  0
LINE
  5
2767
  8
3
 10
195.6518131905863
 20
123.2122039499947
 30
0.0
 11
195.6518131905863
 21
92.212203949994702
 31
0.0
  0
LINE
  5
2768
  8
3
 10
185.40181319058649
 20
123.2122039499947
 30
0.0
 11
185.40181319058649
 21
92.212203949994702
 31
0.0
  0
LINE
  5
276A
  8
1
 10
161.5268131905863
 20
144.21220394999469
 30
0.0
 11
161.52681319058641
 21
26.212203949994691
 31
0.0
  0
LINE
  5
276E
  8
1
 10
190.52681319058641
 20
53.212203949994681
 30
0.0
 11
190.5268131905863
 21
128.21220394999469
 31
0.0
  0
LINE
  5
27CD
  8
0
 10
101.5268131905862
 20
218.97480353614139
 30
0.0
 11
201.52681319058649
 21
218.97480353614139
 31
0.0
  0
LINE
  5
27CE
  8
0
 10
201.52681319058649
 20
186.97480353614139
 30
0.0
 11
201.52681319058649
 21
218.97480353614139
 31
0.0
  0
LINE
  5
27CF
  8
0
 10
101.5268131905862
 20
186.97480353614139
 30
0.0
 11
201.52681319058649
 21
186.97480353614139
 31
0.0
  0
LINE
  5
27D0
  8
0
 10
101.5268131905862
 20
186.97480353614139
 30
0.0
 11
101.5268131905862
 21
218.97480353614139
 31
0.0
  0
LINE
  5
27D1
  8
0
 10
121.5268131905864
 20
209.47480353614139
 30
0.0
 11
150.2684829413887
 21
209.47480353614139
 31
0.0
  0
ARC
  5
27D2
  8
0
 10
121.5268131905864
 20
202.97480353614139
 30
0.0
 40
6.5
 50
90.0
 51
270.0
  0
LINE
  5
27D3
  8
0
 10
150.2684829413887
 20
196.47480353614139
 30
0.0
 11
121.5268131905864
 21
196.47480353614139
 31
0.0
  0
CIRCLE
  5
27D4
  8
0
 10
161.52681319058641
 20
202.97480353614131
 30
0.0
 40
6.0
  0
CIRCLE
  5
27D7
  8
0
 10
190.52681319058621
 20
202.97480353614139
 30
0.0
 40
6.0
  0
LINE
  5
27D8
  8
0
 10
192.25886399815519
 20
205.97480353614139
 30
0.0
 11
188.7947623830174
 21
205.97480353614139
 31
0.0
  0
LINE
  5
27D9
  8
0
 10
188.7947623830174
 20
205.97480353614139
 30
0.0
 11
187.0627115754485
 21
202.97480353614139
 31
0.0
  0
LINE
  5
27DA
  8
0
 10
187.0627115754485
 20
202.97480353614139
 30
0.0
 11
188.7947623830174
 21
199.97480353614139
 31
0.0
  0
LINE
  5
27DB
  8
0
 10
188.7947623830174
 20
199.97480353614139
 30
0.0
 11
192.25886399815519
 21
199.97480353614139
 31
0.0
  0
LINE
  5
27DC
  8
0
 10
192.25886399815519
 20
199.97480353614139
 30
0.0
 11
193.99091480572409
 21
202.97480353614139
 31
0.0
  0
LINE
  5
27DD
  8
0
 10
193.99091480572409
 20
202.97480353614139
 30
0.0
 11
192.25886399815519
 21
205.97480353614139
 31
0.0
  0
ARC
  5
27DE
  8
0
 10
190.52681319058621
 20
202.97480353614171
 30
0.0
 40
12.500000000000041
 50
331.64236342367309
 51
28.357636576327572
  0
CIRCLE
  5
27DF
  8
0
 10
161.52681319058641
 20
202.97480353614131
 30
0.0
 40
9.0
  0
LINE
  5
27E1
  8
0
 10
150.55715807598341
 20
202.97480353614131
 30
0.0
 11
156.04198563328481
 21
212.47480353614131
 31
0.0
  0
LINE
  5
27E2
  8
0
 10
156.04198563328481
 20
212.47480353614131
 30
0.0
 11
167.01164074788781
 21
212.47480353614131
 31
0.0
  0
LINE
  5
27E3
  8
0
 10
167.01164074788781
 20
212.47480353614131
 30
0.0
 11
172.4964683051893
 21
202.97480353614131
 31
0.0
  0
LINE
  5
27E4
  8
0
 10
172.4964683051893
 20
202.97480353614131
 30
0.0
 11
167.0116407478879
 21
193.47480353614131
 31
0.0
  0
LINE
  5
27E5
  8
0
 10
167.0116407478879
 20
193.47480353614131
 30
0.0
 11
156.0419856332849
 21
193.47480353614131
 31
0.0
  0
LINE
  5
27E6
  8
0
 10
156.0419856332849
 20
193.47480353614131
 30
0.0
 11
150.55715807598341
 21
202.97480353614131
 31
0.0
  0
CIRCLE
  5
27E7
  8
0
 10
161.52681319058641
 20
202.97480353614139
 30
0.0
 40
13.0
  0
CIRCLE
  5
27F0
  8
3
 10
161.52681319058641
 20
202.97480353614131
 30
0.0
 40
5.125
  0
CIRCLE
  5
27F1
  8
3
 10
190.5268131905863
 20
202.97480353614151
 30
0.0
 40
5.1249999999999432
  0
LINE
  5
27F2
  8
1
 10
96.526813190586267
 20
202.97480353614139
 30
0.0
 11
208.0268131905863
 21
202.97480353614151
 31
0.0
  0
LINE
  5
27F3
  8
0
 10
19.526813190586381
 20
73.212203949994702
 30
0.0
 11
51.526813190586381
 21
73.212203949994702
 31
0.0
  0
ARC
  5
27F4
  8
0
 10
35.526813190586608
 20
39.212203949994219
 30
0.0
 40
11.00000000000041
 50
115.58300197739899
 51
179.99999999999761
  0
ARC
  5
27F5
  8
0
 10
35.526813190586608
 20
39.212203949994219
 30
0.0
 40
11.00000000000024
 50
0.0000000000023686
 51
64.416998022601305
  0
LINE
  5
27F6
  8
0
 10
41.52681319058626
 20
112.7122039499947
 30
0.0
 11
41.52681319058626
 21
138.13870394999461
 31
0.0
  0
LINE
  5
27F7
  8
0
 10
29.526813190586271
 20
138.13870394999461
 30
0.0
 11
29.526813190586271
 21
112.7122039499947
 31
0.0
  0
LINE
  5
27F8
  8
0
 10
41.52681319058626
 20
138.13870394999461
 30
0.0
 11
40.453313190586179
 21
139.21220394999469
 31
0.0
  0
LINE
  5
27F9
  8
0
 10
30.600313190586231
 20
139.21220394999469
 30
0.0
 11
29.526813190586271
 21
138.13870394999461
 31
0.0
  0
LINE
  5
27FA
  8
0
 10
30.104163459775808
 20
73.212203949994702
 30
0.0
 11
30.776813190586271
 21
72.047140440533681
 31
0.0
  0
LINE
  5
27FB
  8
0
 10
40.27681319058626
 20
72.047140440533681
 30
0.0
 11
40.949462921396609
 21
73.212203949994702
 31
0.0
  0
LINE
  5
27FC
  8
0
 10
40.27681319058626
 20
49.133771366486691
 30
0.0
 11
40.27681319058626
 21
72.047140440533681
 31
0.0
  0
LINE
  5
27FD
  8
0
 10
30.776813190586271
 20
72.047140440533681
 30
0.0
 11
30.776813190586271
 21
49.133771366486691
 31
0.0
  0
LINE
  5
27FE
  8
0
 10
23.02681319058593
 20
64.212203949994702
 30
0.0
 11
23.02681319058593
 21
58.212203949994702
 31
0.0
  0
LINE
  5
27FF
  8
0
 10
48.026813190585919
 20
58.212203949994702
 30
0.0
 11
48.026813190585919
 21
64.212203949994702
 31
0.0
  0
LINE
  5
2800
  8
0
 10
26.52681319058593
 20
71.212203949994702
 30
0.0
 11
26.52681319058593
 21
64.212203949994702
 31
0.0
  0
LINE
  5
2801
  8
0
 10
44.526813190585919
 20
64.212203949994702
 30
0.0
 11
44.526813190585919
 21
71.212203949994702
 31
0.0
  0
LINE
  5
2802
  8
0
 10
29.52681319058593
 20
73.212203949994702
 30
0.0
 11
30.392838594370801
 21
72.712203949994446
 31
0.0
  0
LINE
  5
2803
  8
0
 10
40.660787786801848
 20
72.712203949994873
 30
0.0
 11
41.526813190585933
 21
73.212203949994702
 31
0.0
  0
LINE
  5
2804
  8
0
 10
22.526813190586271
 20
99.712203949994702
 30
0.0
 11
22.526813190586271
 21
96.712203949994716
 31
0.0
  0
LINE
  5
2805
  8
0
 10
48.526813190586147
 20
96.712203949994716
 30
0.0
 11
48.526813190586147
 21
99.712203949994702
 31
0.0
  0
POLYLINE
  5
2806
  8
0
 66
     1
 10
0.0
 20
0.0
 30
0.0
 70
   128
  0
VERTEX
  5
2E75
  8
0
 10
47.43113964489725
 20
96.212203949994702
 30
0.0
  0
VERTEX
  5
2E76
  8
0
 10
47.86696414433208
 20
96.404734010664853
 30
0.0
  0
VERTEX
  5
2E77
  8
0
 10
48.526813190586267
 20
96.712203949994716
 30
0.0
  0
SEQEND
  5
2E78
  8
0
  0
POLYLINE
  5
2807
  8
0
 66
     1
 10
0.0
 20
0.0
 30
0.0
 70
   128
  0
VERTEX
  5
2E79
  8
0
 10
22.52681319058615
 20
96.712203949994716
 30
0.0
  0
VERTEX
  5
2E7A
  8
0
 10
23.186662236840331
 20
96.404734010664853
 30
0.0
  0
VERTEX
  5
2E7B
  8
0
 10
23.622486736275171
 20
96.212203949994702
 30
0.0
  0
SEQEND
  5
2E7C
  8
0
  0
LINE
  5
2808
  8
0
 10
45.02681319058626
 20
112.42352881539981
 30
0.0
 11
44.526813190586147
 21
112.7122039499947
 31
0.0
  0
LINE
  5
2809
  8
0
 10
26.526813190586271
 20
112.7122039499947
 30
0.0
 11
26.026813190586271
 21
112.42352881539981
 31
0.0
  0
LINE
  5
280A
  8
0
 10
22.526813190586271
 20
92.712203949994674
 30
0.0
 11
23.02681319058615
 21
92.212203949994702
 31
0.0
  0
LINE
  5
280B
  8
0
 10
48.026813190586267
 20
92.212203949994702
 30
0.0
 11
48.526813190586147
 21
92.712203949994674
 31
0.0
  0
LINE
  5
280C
  8
0
 10
48.526813190586147
 20
92.712203949994674
 30
0.0
 11
48.526813190586147
 21
95.712203949994688
 31
0.0
  0
LINE
  5
280D
  8
0
 10
22.526813190586271
 20
95.712203949994688
 30
0.0
 11
22.526813190586271
 21
92.712203949994674
 31
0.0
  0
LINE
  5
280E
  8
0
 10
48.526813190586147
 20
95.712203949994688
 30
0.0
 11
48.026813190586147
 21
96.212203949994702
 31
0.0
  0
LINE
  5
280F
  8
0
 10
23.026813190586271
 20
96.212203949994702
 30
0.0
 11
22.526813190586271
 21
95.712203949994688
 31
0.0
  0
LINE
  5
2810
  8
0
 10
51.526813190586381
 20
92.212203949994731
 30
0.0
 11
51.526813190586381
 21
74.819899104581424
 31
0.0
  0
LINE
  5
2811
  8
0
 10
51.526813190586381
 20
74.819899104581424
 30
0.0
 11
19.526813190586381
 21
74.819899104581424
 31
0.0
  0
LINE
  5
2812
  8
0
 10
19.526813190586381
 20
92.212203949994731
 30
0.0
 11
19.526813190586381
 21
74.819899104581424
 31
0.0
  0
LINE
  5
2813
  8
0
 10
51.526813190586381
 20
92.212203949994731
 30
0.0
 11
19.526813190586381
 21
92.212203949994731
 31
0.0
  0
LINE
  5
2814
  8
0
 10
51.526813190586381
 20
74.819899104581424
 30
0.0
 11
51.526813190586381
 21
73.212203949994702
 31
0.0
  0
LINE
  5
2815
  8
0
 10
19.526813190586381
 20
74.819899104581424
 30
0.0
 11
19.526813190586381
 21
73.212203949994702
 31
0.0
  0
LINE
  5
2816
  8
0
 10
29.026813190586381
 20
73.212203949994674
 30
0.0
 11
19.52681319058626
 21
73.212203949994674
 31
0.0
  0
LINE
  5
2817
  8
0
 10
51.52681319058626
 20
73.212203949994674
 30
0.0
 11
42.026813190586381
 21
73.212203949994674
 31
0.0
  0
LINE
  5
2818
  8
0
 10
24.5924590715722
 20
35.612203949994679
 30
0.0
 11
24.526813190586271
 21
35.612203949994679
 31
0.0
  0
POLYLINE
  5
2819
  8
0
 66
     1
 10
0.0
 20
0.0
 30
0.0
 70
   128
  0
VERTEX
  5
2E7D
  8
0
 10
24.5924590715722
 20
35.612203949994679
 30
0.0
  0
VERTEX
  5
2E7E
  8
0
 10
24.684165217689038
 20
34.861492608014331
 30
0.0
  0
VERTEX
  5
2E7F
  8
0
 10
25.092465202338079
 20
33.896355561177167
 30
0.0
  0
VERTEX
  5
2E80
  8
0
 10
25.82144257037055
 20
33.025707765980187
 30
0.0
  0
VERTEX
  5
2E81
  8
0
 10
26.520187411788591
 20
32.496537519191882
 30
0.0
  0
VERTEX
  5
2E82
  8
0
 10
27.316480573782538
 20
32.07450584706617
 30
0.0
  0
VERTEX
  5
2E83
  8
0
 10
28.66249492387476
 20
31.622840676779632
 30
0.0
  0
VERTEX
  5
2E84
  8
0
 10
30.09526358171399
 20
31.367297173493579
 30
0.0
  0
VERTEX
  5
2E85
  8
0
 10
32.024505908422498
 20
31.233669889566261
 30
0.0
  0
VERTEX
  5
2E86
  8
0
 10
33.967294033920673
 20
31.21220394999467
 30
0.0
  0
SEQEND
  5
2E87
  8
0
  0
LINE
  5
281A
  8
0
 10
46.52681319058626
 20
31.21220394999467
 30
0.0
 11
24.526813190586271
 21
31.21220394999467
 31
0.0
  0
POLYLINE
  5
281D
  8
0
 66
     1
 10
0.0
 20
0.0
 30
0.0
 70
   128
  0
VERTEX
  5
2E88
  8
0
 10
37.086332347251762
 20
31.21220394999467
 30
0.0
  0
VERTEX
  5
2E89
  8
0
 10
39.23239219347397
 20
31.240406699979768
 30
0.0
  0
VERTEX
  5
2E8A
  8
0
 10
41.378452039696178
 20
31.424295765812492
 30
0.0
  0
VERTEX
  5
2E8B
  8
0
 10
42.810768356760263
 20
31.73651149904417
 30
0.0
  0
VERTEX
  5
2E8C
  8
0
 10
44.204478447073939
 20
32.303806702219489
 30
0.0
  0
VERTEX
  5
2E8D
  8
0
 10
45.367786060009387
 20
33.154424816062992
 30
0.0
  0
VERTEX
  5
2E8E
  8
0
 10
45.831975633999832
 20
33.700566820707458
 30
0.0
  0
VERTEX
  5
2E8F
  8
0
 10
46.196223254028382
 20
34.347653902829947
 30
0.0
  0
VERTEX
  5
2E90
  8
0
 10
46.453206931151833
 20
35.390067111144553
 30
0.0
  0
VERTEX
  5
2E91
  8
0
 10
46.461167309600327
 20
35.612203949994679
 30
0.0
  0
SEQEND
  5
2E92
  8
0
  0
LINE
  5
281E
  8
0
 10
46.52681319058626
 20
35.612203949994679
 30
0.0
 11
46.461167309600327
 21
35.612203949994679
 31
0.0
  0
LINE
  5
2821
  8
0
 10
24.5924590715722
 20
39.212203949994681
 30
0.0
 11
24.5924590715722
 21
35.612203949994679
 31
0.0
  0
LINE
  5
2822
  8
0
 10
46.52681319058626
 20
39.21220394999439
 30
0.0
 11
24.526813190586271
 21
39.212203949994681
 31
0.0
  0
LINE
  5
2823
  8
0
 10
46.461167309600327
 20
35.612203949994679
 30
0.0
 11
46.461167309600327
 21
39.212203949994681
 31
0.0
  0
LINE
  5
2825
  8
0
 10
24.526813190586381
 20
31.212203949994709
 30
0.0
 11
24.526813190586271
 21
39.212203949994681
 31
0.0
  0
LINE
  5
2827
  8
0
 10
46.52681319058626
 20
39.212203949994681
 30
0.0
 11
46.526813190586381
 21
31.212203949994709
 31
0.0
  0
LINE
  5
2828
  8
0
 10
40.276813190586147
 20
49.133771366486691
 30
0.0
 11
30.776813190586271
 21
49.133771366486691
 31
0.0
  0
ARC
  5
282A
  8
0
 10
35.526813190586608
 20
39.212203949994219
 30
0.0
 40
8.6068286842488533
 50
0.0000000000030273
 51
179.9999999999969
  0
LINE
  5
282B
  8
0
 10
41.52681319058626
 20
138.13870394999461
 30
0.0
 11
29.526813190586271
 21
138.13870394999461
 31
0.0
  0
LINE
  5
282D
  8
0
 10
40.453313190586179
 20
139.21220394999469
 30
0.0
 11
30.600313190586231
 21
139.21220394999469
 31
0.0
  0
LINE
  5
282F
  8
0
 10
40.276813190586381
 20
72.047140440533681
 30
0.0
 11
30.776813190586271
 21
72.047140440533681
 31
0.0
  0
LINE
  5
2831
  8
0
 10
23.02681319058593
 20
64.212203949994702
 30
0.0
 11
30.776813190586271
 21
64.212203949994702
 31
0.0
  0
LINE
  5
2832
  8
0
 10
40.27681319058626
 20
64.212203949994702
 30
0.0
 11
48.026813190585919
 21
64.212203949994702
 31
0.0
  0
LINE
  5
2833
  8
0
 10
23.02681319058593
 20
58.212203949994702
 30
0.0
 11
30.776813190586271
 21
58.212203949994702
 31
0.0
  0
LINE
  5
2834
  8
0
 10
40.27681319058626
 20
58.212203949994702
 30
0.0
 11
48.026813190585919
 21
58.212203949994702
 31
0.0
  0
LINE
  5
2835
  8
0
 10
26.52681319058593
 20
71.212203949994702
 30
0.0
 11
30.776813190586271
 21
71.212203949994702
 31
0.0
  0
LINE
  5
2836
  8
0
 10
40.27681319058626
 20
71.212203949994702
 30
0.0
 11
44.526813190585919
 21
71.212203949994702
 31
0.0
  0
LINE
  5
2837
  8
0
 10
22.52681319058615
 20
99.712203949994702
 30
0.0
 11
48.526813190586147
 21
99.712203949994702
 31
0.0
  0
LINE
  5
2838
  8
0
 10
22.52681319058615
 20
96.712203949994716
 30
0.0
 11
48.526813190586147
 21
96.712203949994716
 31
0.0
  0
LINE
  5
2839
  8
0
 10
26.026813190586271
 20
99.712203949994702
 30
0.0
 11
26.026813190586271
 21
112.42352881539981
 31
0.0
  0
ARC
  5
283A
  8
0
 10
30.776813190586271
 20
98.451957759180104
 30
0.0
 40
13.956265343854451
 50
70.101865707357206
 51
109.89813429264279
  0
LINE
  5
283B
  8
0
 10
35.526813190586267
 20
99.712203949994702
 30
0.0
 11
35.526813190586267
 21
111.57502303936801
 31
0.0
  0
LINE
  5
283C
  8
0
 10
26.52681319058615
 20
112.7122039499947
 30
0.0
 11
44.526813190586147
 21
112.7122039499947
 31
0.0
  0
ARC
  5
283F
  8
0
 10
40.27681319058626
 20
98.451957759180644
 30
0.0
 40
13.95626534385395
 50
70.101865707357106
 51
109.89813429264289
  0
LINE
  5
2840
  8
0
 10
45.02681319058626
 20
99.712203949994702
 30
0.0
 11
45.02681319058626
 21
112.42352881539981
 31
0.0
  0
LINE
  5
2842
  8
0
 10
22.526813190586271
 20
92.712203949994674
 30
0.0
 11
48.526813190586147
 21
92.712203949994645
 31
0.0
  0
LINE
  5
2843
  8
0
 10
48.526813190586147
 20
95.712203949994688
 30
0.0
 11
22.526813190586271
 21
95.712203949994688
 31
0.0
  0
LINE
  5
2844
  8
0
 10
23.026813190586271
 20
96.212203949994702
 30
0.0
 11
48.026813190586267
 21
96.212203949994702
 31
0.0
  0
LINE
  5
2846
  8
3
 10
40.65181319058626
 20
139.01370394999469
 30
0.0
 11
40.65181319058626
 21
112.7122039499947
 31
0.0
  0
LINE
  5
2847
  8
3
 10
30.40181319058615
 20
139.01370394999469
 30
0.0
 11
30.40181319058615
 21
112.7122039499947
 31
0.0
  0
LINE
  5
284C
  8
1
 10
35.526813190586211
 20
144.21220394999469
 30
0.0
 11
35.52681319058604
 21
26.21220394999467
 31
0.0
  0
ARC
  5
28AA
  8
0
 10
267.52681319058593
 20
39.212203949994183
 30
0.0
 40
11.00000000000021
 50
115.5830019773986
 51
179.9999999999973
  0
ARC
  5
28AB
  8
0
 10
267.52681319058593
 20
39.212203949994183
 30
0.0
 40
11.00000000000043
 50
0.0000000000026647
 51
64.416998022600922
  0
LINE
  5
28AC
  8
0
 10
273.52681319058638
 20
122.2122039499947
 30
0.0
 11
273.52681319058638
 21
138.13870394999461
 31
0.0
  0
LINE
  5
28AD
  8
0
 10
261.52681319058638
 20
138.13870394999461
 30
0.0
 11
261.52681319058638
 21
122.2122039499946
 31
0.0
  0
LINE
  5
28AE
  8
0
 10
273.52681319058638
 20
138.13870394999461
 30
0.0
 11
272.45331319058641
 21
139.21220394999469
 31
0.0
  0
LINE
  5
28AF
  8
0
 10
262.60031319058629
 20
139.21220394999469
 30
0.0
 11
261.52681319058638
 21
138.13870394999461
 31
0.0
  0
LINE
  5
28B0
  8
0
 10
262.39283859437091
 20
72.712203949994688
 30
0.0
 11
262.77681319058638
 21
72.047140440533667
 31
0.0
  0
LINE
  5
28B1
  8
0
 10
272.27681319058638
 20
72.047140440533667
 30
0.0
 11
272.6607877868019
 21
72.712203949994603
 31
0.0
  0
LINE
  5
28B2
  8
0
 10
272.27681319058638
 20
49.133771366486663
 30
0.0
 11
272.27681319058638
 21
58.212203949994681
 31
0.0
  0
LINE
  5
28B3
  8
0
 10
272.27681319058638
 20
71.212203949994674
 30
0.0
 11
272.27681319058638
 21
72.047140440533667
 31
0.0
  0
LINE
  5
28B4
  8
0
 10
262.77681319058638
 20
72.047140440533667
 30
0.0
 11
262.77681319058638
 21
71.212203949994674
 31
0.0
  0
LINE
  5
28B5
  8
0
 10
262.77681319058638
 20
58.212203949994681
 30
0.0
 11
262.77681319058638
 21
49.133771366486663
 31
0.0
  0
LINE
  5
28B6
  8
0
 10
255.02681319058641
 20
64.212203949994688
 30
0.0
 11
255.02681319058641
 21
58.212203949994681
 31
0.0
  0
LINE
  5
28B7
  8
0
 10
280.02681319058638
 20
58.212203949994681
 30
0.0
 11
280.02681319058638
 21
64.212203949994688
 31
0.0
  0
LINE
  5
28B8
  8
0
 10
258.52681319058638
 20
71.212203949994674
 30
0.0
 11
258.52681319058638
 21
64.212203949994688
 31
0.0
  0
LINE
  5
28B9
  8
0
 10
276.52681319058638
 20
64.212203949994688
 30
0.0
 11
276.52681319058638
 21
71.212203949994674
 31
0.0
  0
LINE
  5
28BA
  8
0
 10
261.52681319058638
 20
73.21220394999466
 30
0.0
 11
263.92681319058647
 21
71.826563303939594
 31
0.0
  0
LINE
  5
28BB
  8
0
 10
271.12681319058652
 20
71.826563303939594
 30
0.0
 11
273.52681319058638
 21
73.21220394999466
 31
0.0
  0
LINE
  5
28BC
  8
0
 10
261.52681319058638
 20
122.2122039499947
 30
0.0
 11
261.52681319058638
 21
92.212203949994674
 31
0.0
  0
LINE
  5
28BD
  8
0
 10
261.52681319058638
 20
78.212203949994631
 30
0.0
 11
261.52681319058638
 21
73.21220394999466
 31
0.0
  0
LINE
  5
28BE
  8
0
 10
273.52681319058638
 20
73.21220394999466
 30
0.0
 11
273.52681319058638
 21
78.212203949994603
 31
0.0
  0
LINE
  5
28BF
  8
0
 10
273.52681319058638
 20
92.212203949994674
 30
0.0
 11
273.52681319058638
 21
122.2122039499947
 31
0.0
  0
LINE
  5
28C0
  8
0
 10
273.52681319058638
 20
122.2122039499947
 30
0.0
 11
272.94946292139679
 21
123.2122039499947
 31
0.0
  0
LINE
  5
28C1
  8
0
 10
262.10416345977609
 20
123.2122039499947
 30
0.0
 11
261.52681319058638
 21
122.2122039499947
 31
0.0
  0
LINE
  5
28C2
  8
0
 10
271.12681319058652
 20
71.212203949994674
 30
0.0
 11
271.12681319058652
 21
71.826563303939594
 31
0.0
  0
LINE
  5
28C3
  8
0
 10
263.92681319058647
 20
71.826563303939594
 30
0.0
 11
263.92681319058647
 21
71.212203949994674
 31
0.0
  0
POLYLINE
  5
28C4
  8
0
 66
     1
 10
0.0
 20
0.0
 30
0.0
 70
   128
  0
VERTEX
  5
2E93
  8
0
 10
279.43113964489748
 20
96.212203949994674
 30
0.0
  0
VERTEX
  5
2E94
  8
0
 10
279.86696414433231
 20
96.404734010664839
 30
0.0
  0
VERTEX
  5
2E95
  8
0
 10
280.52681319058638
 20
96.712203949994688
 30
0.0
  0
SEQEND
  5
2E96
  8
0
  0
POLYLINE
  5
28C5
  8
0
 66
     1
 10
0.0
 20
0.0
 30
0.0
 70
   128
  0
VERTEX
  5
2E97
  8
0
 10
254.52681319058641
 20
96.712203949994688
 30
0.0
  0
VERTEX
  5
2E98
  8
0
 10
255.1866622368407
 20
96.404734010664839
 30
0.0
  0
VERTEX
  5
2E99
  8
0
 10
255.6224867362755
 20
96.212203949994674
 30
0.0
  0
SEQEND
  5
2E9A
  8
0
  0
LINE
  5
28C6
  8
0
 10
254.52681319058641
 20
99.712203949994702
 30
0.0
 11
254.52681319058641
 21
96.712203949994688
 31
0.0
  0
LINE
  5
28C7
  8
0
 10
280.52681319058638
 20
96.712203949994688
 30
0.0
 11
280.52681319058638
 21
99.712203949994702
 31
0.0
  0
LINE
  5
28C8
  8
0
 10
277.02681319058638
 20
112.42352881539981
 30
0.0
 11
276.52681319058638
 21
112.7122039499946
 31
0.0
  0
LINE
  5
28C9
  8
0
 10
258.52681319058638
 20
112.7122039499946
 30
0.0
 11
258.02681319058638
 21
112.42352881539981
 31
0.0
  0
LINE
  5
28CA
  8
0
 10
280.52681319058638
 20
95.712203949994688
 30
0.0
 11
280.02681319058638
 21
96.212203949994674
 31
0.0
  0
LINE
  5
28CB
  8
0
 10
255.02681319058641
 20
96.212203949994674
 30
0.0
 11
254.52681319058641
 21
95.712203949994688
 31
0.0
  0
LINE
  5
28CC
  8
0
 10
254.52681319058641
 20
92.712203949994645
 30
0.0
 11
255.02681319058641
 21
92.212203949994674
 31
0.0
  0
LINE
  5
28CD
  8
0
 10
280.02681319058638
 20
92.212203949994674
 30
0.0
 11
280.52681319058638
 21
92.712203949994645
 31
0.0
  0
LINE
  5
28CE
  8
0
 10
280.52681319058638
 20
92.712203949994645
 30
0.0
 11
280.52681319058638
 21
95.712203949994688
 31
0.0
  0
LINE
  5
28CF
  8
0
 10
254.52681319058641
 20
95.712203949994688
 30
0.0
 11
254.52681319058641
 21
92.712203949994645
 31
0.0
  0
LINE
  5
28D0
  8
0
 10
251.52681319058641
 20
92.212203949994674
 30
0.0
 11
251.52681319058641
 21
73.212203949994603
 31
0.0
  0
LINE
  5
28D1
  8
0
 10
274.02681319058638
 20
73.212203949994631
 30
0.0
 11
274.02681319058638
 21
78.212203949994603
 31
0.0
  0
LINE
  5
28D2
  8
0
 10
261.02681319058638
 20
78.212203949994603
 30
0.0
 11
274.02681319058638
 21
78.212203949994603
 31
0.0
  0
LINE
  5
28D3
  8
0
 10
261.02681319058638
 20
73.212203949994631
 30
0.0
 11
261.02681319058638
 21
78.212203949994603
 31
0.0
  0
LINE
  5
28D4
  8
0
 10
251.52681319058641
 20
73.212203949994603
 30
0.0
 11
283.52681319058638
 21
73.212203949994702
 31
0.0
  0
LINE
  5
28D6
  8
0
 10
251.52681319058641
 20
92.212203949994674
 30
0.0
 11
283.52681319058638
 21
92.212203949994674
 31
0.0
  0
LINE
  5
28D7
  8
0
 10
283.52681319058638
 20
92.212203949994674
 30
0.0
 11
283.52681319058638
 21
73.212203949994603
 31
0.0
  0
POLYLINE
  5
28D8
  8
0
 10
261.52681319058649
 20
74.651765968020669
 30
0.0
 66
     1
 70
     8
  0
VERTEX
  8
0
  5
2EF5
 10
261.527
 20
74.6518
 30
0.000000
  70
    32
  0
VERTEX
  8
0
  5
2EF6
 10
261.519
 20
74.6497
 30
0.000000
  70
    32
  0
VERTEX
  8
0
  5
2EF7
 10
261.512
 20
74.6477
 30
0.000000
  70
    32
  0
VERTEX
  8
0
  5
2EF8
 10
261.504
 20
74.6457
 30
0.000000
  70
    32
  0
VERTEX
  8
0
  5
2EF9
 10
261.496
 20
74.6436
 30
0.000000
  70
    32
  0
VERTEX
  8
0
  5
2EFA
 10
261.489
 20
74.6416
 30
0.000000
  70
    32
  0
VERTEX
  8
0
  5
2EFB
 10
261.482
 20
74.6395
 30
0.000000
  70
    32
  0
VERTEX
  8
0
  5
2EFC
 10
261.474
 20
74.6375
 30
0.000000
  70
    32
  0
VERTEX
  8
0
  5
2EFD
 10
261.467
 20
74.6354
 30
0.000000
  70
    32
  0
VERTEX
  8
0
  5
2EFE
 10
261.460
 20
74.6334
 30
0.000000
  70
    32
  0
VERTEX
  8
0
  5
2EFF
 10
261.453
 20
74.6313
 30
0.000000
  70
    32
  0
VERTEX
  8
0
  5
2F00
 10
261.445
 20
74.6292
 30
0.000000
  70
    32
  0
VERTEX
  8
0
  5
2F01
 10
261.438
 20
74.6272
 30
0.000000
  70
    32
  0
VERTEX
  8
0
  5
2F02
 10
261.431
 20
74.6251
 30
0.000000
  70
    32
  0
VERTEX
  8
0
  5
2F03
 10
261.424
 20
74.6230
 30
0.000000
  70
    32
  0
VERTEX
  8
0
  5
2F04
 10
261.418
 20
74.6210
 30
0.000000
  70
    32
  0
VERTEX
  8
0
  5
2F05
 10
261.411
 20
74.6189
 30
0.000000
  70
    32
  0
VERTEX
  8
0
  5
2F06
 10
261.404
 20
74.6168
 30
0.000000
  70
    32
  0
VERTEX
  8
0
  5
2F07
 10
261.397
 20
74.6148
 30
0.000000
  70
    32
  0
VERTEX
  8
0
  5
2F08
 10
261.391
 20
74.6127
 30
0.000000
  70
    32
  0
VERTEX
  8
0
  5
2F09
 10
261.384
 20
74.6106
 30
0.000000
  70
    32
  0
VERTEX
  8
0
  5
2F0A
 10
261.378
 20
74.6085
 30
0.000000
  70
    32
  0
VERTEX
  8
0
  5
2F0B
 10
261.371
 20
74.6064
 30
0.000000
  70
    32
  0
VERTEX
  8
0
  5
2F0C
 10
261.365
 20
74.6043
 30
0.000000
  70
    32
  0
VERTEX
  8
0
  5
2F0D
 10
261.358
 20
74.6023
 30
0.000000
  70
    32
  0
VERTEX
  8
0
  5
2F0E
 10
261.352
 20
74.6002
 30
0.000000
  70
    32
  0
VERTEX
  8
0
  5
2F0F
 10
261.346
 20
74.5981
 30
0.000000
  70
    32
  0
VERTEX
  8
0
  5
2F10
 10
261.340
 20
74.5960
 30
0.000000
  70
    32
  0
VERTEX
  8
0
  5
2F11
 10
261.334
 20
74.5939
 30
0.000000
  70
    32
  0
VERTEX
  8
0
  5
2F12
 10
261.327
 20
74.5918
 30
0.000000
  70
    32
  0
VERTEX
  8
0
  5
2F13
 10
261.321
 20
74.5897
 30
0.000000
  70
    32
  0
VERTEX
  8
0
  5
2F14
 10
261.316
 20
74.5876
 30
0.000000
  70
    32
  0
VERTEX
  8
0
  5
2F15
 10
261.310
 20
74.5855
 30
0.000000
  70
    32
  0
VERTEX
  8
0
  5
2F16
 10
261.304
 20
74.5834
 30
0.000000
  70
    32
  0
VERTEX
  8
0
  5
2F17
 10
261.298
 20
74.5812
 30
0.000000
  70
    32
  0
VERTEX
  8
0
  5
2F18
 10
261.292
 20
74.5791
 30
0.000000
  70
    32
  0
VERTEX
  8
0
  5
2F19
 10
261.287
 20
74.5770
 30
0.000000
  70
    32
  0
VERTEX
  8
0
  5
2F1A
 10
261.281
 20
74.5749
 30
0.000000
  70
    32
  0
VERTEX
  8
0
  5
2F1B
 10
261.276
 20
74.5728
 30
0.000000
  70
    32
  0
VERTEX
  8
0
  5
2F1C
 10
261.270
 20
74.5707
 30
0.000000
  70
    32
  0
VERTEX
  8
0
  5
2F1D
 10
261.265
 20
74.5685
 30
0.000000
  70
    32
  0
VERTEX
  8
0
  5
2F1E
 10
261.259
 20
74.5664
 30
0.000000
  70
    32
  0
VERTEX
  8
0
  5
2F1F
 10
261.254
 20
74.5643
 30
0.000000
  70
    32
  0
VERTEX
  8
0
  5
2F20
 10
261.249
 20
74.5622
 30
0.000000
  70
    32
  0
VERTEX
  8
0
  5
2F21
 10
261.244
 20
74.5600
 30
0.000000
  70
    32
  0
VERTEX
  8
0
  5
2F22
 10
261.239
 20
74.5579
 30
0.000000
  70
    32
  0
VERTEX
  8
0
  5
2F23
 10
261.234
 20
74.5558
 30
0.000000
  70
    32
  0
VERTEX
  8
0
  5
2F24
 10
261.229
 20
74.5536
 30
0.000000
  70
    32
  0
VERTEX
  8
0
  5
2F25
 10
261.224
 20
74.5515
 30
0.000000
  70
    32
  0
VERTEX
  8
0
  5
2F26
 10
261.219
 20
74.5494
 30
0.000000
  70
    32
  0
VERTEX
  8
0
  5
2F27
 10
261.214
 20
74.5472
 30
0.000000
  70
    32
  0
VERTEX
  8
0
  5
2F28
 10
261.209
 20
74.5451
 30
0.000000
  70
    32
  0
VERTEX
  8
0
  5
2F29
 10
261.205
 20
74.5429
 30
0.000000
  70
    32
  0
VERTEX
  8
0
  5
2F2A
 10
261.200
 20
74.5408
 30
0.000000
  70
    32
  0
VERTEX
  8
0
  5
2F2B
 10
261.195
 20
74.5387
 30
0.000000
  70
    32
  0
VERTEX
  8
0
  5
2F2C
 10
261.191
 20
74.5365
 30
0.000000
  70
    32
  0
VERTEX
  8
0
  5
2F2D
 10
261.186
 20
74.5344
 30
0.000000
  70
    32
  0
VERTEX
  8
0
  5
2F2E
 10
261.182
 20
74.5322
 30
0.000000
  70
    32
  0
VERTEX
  8
0
  5
2F2F
 10
261.178
 20
74.5301
 30
0.000000
  70
    32
  0
VERTEX
  8
0
  5
2F30
 10
261.173
 20
74.5279
 30
0.000000
  70
    32
  0
VERTEX
  8
0
  5
2F31
 10
261.169
 20
74.5258
 30
0.000000
  70
    32
  0
VERTEX
  8
0
  5
2F32
 10
261.165
 20
74.5236
 30
0.000000
  70
    32
  0
VERTEX
  8
0
  5
2F33
 10
261.161
 20
74.5214
 30
0.000000
  70
    32
  0
VERTEX
  8
0
  5
2F34
 10
261.157
 20
74.5193
 30
0.000000
  70
    32
  0
VERTEX
  8
0
  5
2F35
 10
261.153
 20
74.5171
 30
0.000000
  70
    32
  0
VERTEX
  8
0
  5
2F36
 10
261.149
 20
74.5150
 30
0.000000
  70
    32
  0
VERTEX
  8
0
  5
2F37
 10
261.145
 20
74.5128
 30
0.000000
  70
    32
  0
VERTEX
  8
0
  5
2F38
 10
261.142
 20
74.5106
 30
0.000000
  70
    32
  0
VERTEX
  8
0
  5
2F39
 10
261.138
 20
74.5085
 30
0.000000
  70
    32
  0
VERTEX
  8
0
  5
2F3A
 10
261.134
 20
74.5063
 30
0.000000
  70
    32
  0
VERTEX
  8
0
  5
2F3B
 10
261.131
 20
74.5041
 30
0.000000
  70
    32
  0
VERTEX
  8
0
  5
2F3C
 10
261.127
 20
74.5020
 30
0.000000
  70
    32
  0
VERTEX
  8
0
  5
2F3D
 10
261.124
 20
74.4998
 30
0.000000
  70
    32
  0
VERTEX
  8
0
  5
2F3E
 10
261.120
 20
74.4976
 30
0.000000
  70
    32
  0
VERTEX
  8
0
  5
2F3F
 10
261.117
 20
74.4955
 30
0.000000
  70
    32
  0
VERTEX
  8
0
  5
2F40
 10
261.113
 20
74.4933
 30
0.000000
  70
    32
  0
VERTEX
  8
0
  5
2F41
 10
261.110
 20
74.4911
 30
0.000000
  70
    32
  0
VERTEX
  8
0
  5
2F42
 10
261.107
 20
74.4889
 30
0.000000
  70
    32
  0
VERTEX
  8
0
  5
2F43
 10
261.104
 20
74.4868
 30
0.000000
  70
    32
  0
VERTEX
  8
0
  5
2F44
 10
261.101
 20
74.4846
 30
0.000000
  70
    32
  0
VERTEX
  8
0
  5
2F45
 10
261.098
 20
74.4824
 30
0.000000
  70
    32
  0
VERTEX
  8
0
  5
2F46
 10
261.095
 20
74.4802
 30
0.000000
  70
    32
  0
VERTEX
  8
0
  5
2F47
 10
261.092
 20
74.4780
 30
0.000000
  70
    32
  0
VERTEX
  8
0
  5
2F48
 10
261.089
 20
74.4759
 30
0.000000
  70
    32
  0
VERTEX
  8
0
  5
2F49
 10
261.087
 20
74.4737
 30
0.000000
  70
    32
  0
VERTEX
  8
0
  5
2F4A
 10
261.084
 20
74.4715
 30
0.000000
  70
    32
  0
VERTEX
  8
0
  5
2F4B
 10
261.081
 20
74.4693
 30
0.000000
  70
    32
  0
VERTEX
  8
0
  5
2F4C
 10
261.079
 20
74.4671
 30
0.000000
  70
    32
  0
VERTEX
  8
0
  5
2F4D
 10
261.076
 20
74.4649
 30
0.000000
  70
    32
  0
VERTEX
  8
0
  5
2F4E
 10
261.074
 20
74.4628
 30
0.000000
  70
    32
  0
VERTEX
  8
0
  5
2F4F
 10
261.071
 20
74.4606
 30
0.000000
  70
    32
  0
VERTEX
  8
0
  5
2F50
 10
261.069
 20
74.4584
 30
0.000000
  70
    32
  0
VERTEX
  8
0
  5
2F51
 10
261.067
 20
74.4562
 30
0.000000
  70
    32
  0
VERTEX
  8
0
  5
2F52
 10
261.065
 20
74.4540
 30
0.000000
  70
    32
  0
VERTEX
  8
0
  5
2F53
 10
261.063
 20
74.4518
 30
0.000000
  70
    32
  0
VERTEX
  8
0
  5
2F54
 10
261.060
 20
74.4496
 30
0.000000
  70
    32
  0
VERTEX
  8
0
  5
2F55
 10
261.058
 20
74.4474
 30
0.000000
  70
    32
  0
VERTEX
  8
0
  5
2F56
 10
261.057
 20
74.4452
 30
0.000000
  70
    32
  0
VERTEX
  8
0
  5
2F57
 10
261.055
 20
74.4430
 30
0.000000
  70
    32
  0
VERTEX
  8
0
  5
2F58
 10
261.053
 20
74.4408
 30
0.000000
  70
    32
  0
VERTEX
  8
0
  5
2F59
 10
261.051
 20
74.4386
 30
0.000000
  70
    32
  0
VERTEX
  8
0
  5
2F5A
 10
261.049
 20
74.4365
 30
0.000000
  70
    32
  0
VERTEX
  8
0
  5
2F5B
 10
261.048
 20
74.4343
 30
0.000000
  70
    32
  0
VERTEX
  8
0
  5
2F5C
 10
261.046
 20
74.4321
 30
0.000000
  70
    32
  0
VERTEX
  8
0
  5
2F5D
 10
261.045
 20
74.4299
 30
0.000000
  70
    32
  0
VERTEX
  8
0
  5
2F5E
 10
261.043
 20
74.4277
 30
0.000000
  70
    32
  0
VERTEX
  8
0
  5
2F5F
 10
261.042
 20
74.4255
 30
0.000000
  70
    32
  0
VERTEX
  8
0
  5
2F60
 10
261.040
 20
74.4233
 30
0.000000
  70
    32
  0
VERTEX
  8
0
  5
2F61
 10
261.039
 20
74.4211
 30
0.000000
  70
    32
  0
VERTEX
  8
0
  5
2F62
 10
261.038
 20
74.4189
 30
0.000000
  70
    32
  0
VERTEX
  8
0
  5
2F63
 10
261.037
 20
74.4167
 30
0.000000
  70
    32
  0
VERTEX
  8
0
  5
2F64
 10
261.036
 20
74.4145
 30
0.000000
  70
    32
  0
VERTEX
  8
0
  5
2F65
 10
261.035
 20
74.4123
 30
0.000000
  70
    32
  0
VERTEX
  8
0
  5
2F66
 10
261.034
 20
74.4101
 30
0.000000
  70
    32
  0
VERTEX
  8
0
  5
2F67
 10
261.033
 20
74.4079
 30
0.000000
  70
    32
  0
VERTEX
  8
0
  5
2F68
 10
261.032
 20
74.4057
 30
0.000000
  70
    32
  0
VERTEX
  8
0
  5
2F69
 10
261.031
 20
74.4035
 30
0.000000
  70
    32
  0
VERTEX
  8
0
  5
2F6A
 10
261.031
 20
74.4013
 30
0.000000
  70
    32
  0
VERTEX
  8
0
  5
2F6B
 10
261.030
 20
74.3991
 30
0.000000
  70
    32
  0
VERTEX
  8
0
  5
2F6C
 10
261.029
 20
74.3969
 30
0.000000
  70
    32
  0
VERTEX
  8
0
  5
2F6D
 10
261.029
 20
74.3947
 30
0.000000
  70
    32
  0
VERTEX
  8
0
  5
2F6E
 10
261.028
 20
74.3925
 30
0.000000
  70
    32
  0
VERTEX
  8
0
  5
2F6F
 10
261.028
 20
74.3903
 30
0.000000
  70
    32
  0
VERTEX
  8
0
  5
2F70
 10
261.028
 20
74.3881
 30
0.000000
  70
    32
  0
VERTEX
  8
0
  5
2F71
 10
261.027
 20
74.3859
 30
0.000000
  70
    32
  0
VERTEX
  8
0
  5
2F72
 10
261.027
 20
74.3836
 30
0.000000
  70
    32
  0
VERTEX
  8
0
  5
2F73
 10
261.027
 20
74.3814
 30
0.000000
  70
    32
  0
VERTEX
  8
0
  5
2F74
 10
261.027
 20
74.3792
 30
0.000000
  70
    32
  0
VERTEX
  8
0
  5
2F75
 10
261.027
 20
74.3770
 30
0.000000
  70
    32
  0
SEQEND
  8
0
  5
2F76
  0
POLYLINE
  5
28D9
  8
0
 10
274.02681319058661
 20
74.377040392061531
 30
0.0
 66
     1
 70
     8
  0
VERTEX
  8
0
  5
2F77
 10
274.027
 20
74.3770
 30
0.000000
  70
    32
  0
VERTEX
  8
0
  5
2F78
 10
274.027
 20
74.3792
 30
0.000000
  70
    32
  0
VERTEX
  8
0
  5
2F79
 10
274.027
 20
74.3814
 30
0.000000
  70
    32
  0
VERTEX
  8
0
  5
2F7A
 10
274.027
 20
74.3836
 30
0.000000
  70
    32
  0
VERTEX
  8
0
  5
2F7B
 10
274.026
 20
74.3859
 30
0.000000
  70
    32
  0
VERTEX
  8
0
  5
2F7C
 10
274.026
 20
74.3881
 30
0.000000
  70
    32
  0
VERTEX
  8
0
  5
2F7D
 10
274.026
 20
74.3903
 30
0.000000
  70
    32
  0
VERTEX
  8
0
  5
2F7E
 10
274.025
 20
74.3925
 30
0.000000
  70
    32
  0
VERTEX
  8
0
  5
2F7F
 10
274.025
 20
74.3947
 30
0.000000
  70
    32
  0
VERTEX
  8
0
  5
2F80
 10
274.024
 20
74.3969
 30
0.000000
  70
    32
  0
VERTEX
  8
0
  5
2F81
 10
274.024
 20
74.3991
 30
0.000000
  70
    32
  0
VERTEX
  8
0
  5
2F82
 10
274.023
 20
74.4013
 30
0.000000
  70
    32
  0
VERTEX
  8
0
  5
2F83
 10
274.022
 20
74.4035
 30
0.000000
  70
    32
  0
VERTEX
  8
0
  5
2F84
 10
274.022
 20
74.4057
 30
0.000000
  70
    32
  0
VERTEX
  8
0
  5
2F85
 10
274.021
 20
74.4079
 30
0.000000
  70
    32
  0
VERTEX
  8
0
  5
2F86
 10
274.020
 20
74.4101
 30
0.000000
  70
    32
  0
VERTEX
  8
0
  5
2F87
 10
274.019
 20
74.4123
 30
0.000000
  70
    32
  0
VERTEX
  8
0
  5
2F88
 10
274.018
 20
74.4145
 30
0.000000
  70
    32
  0
VERTEX
  8
0
  5
2F89
 10
274.017
 20
74.4167
 30
0.000000
  70
    32
  0
VERTEX
  8
0
  5
2F8A
 10
274.016
 20
74.4189
 30
0.000000
  70
    32
  0
VERTEX
  8
0
  5
2F8B
 10
274.014
 20
74.4211
 30
0.000000
  70
    32
  0
VERTEX
  8
0
  5
2F8C
 10
274.013
 20
74.4233
 30
0.000000
  70
    32
  0
VERTEX
  8
0
  5
2F8D
 10
274.012
 20
74.4255
 30
0.000000
  70
    32
  0
VERTEX
  8
0
  5
2F8E
 10
274.010
 20
74.4277
 30
0.000000
  70
    32
  0
VERTEX
  8
0
  5
2F8F
 10
274.009
 20
74.4299
 30
0.000000
  70
    32
  0
VERTEX
  8
0
  5
2F90
 10
274.007
 20
74.4321
 30
0.000000
  70
    32
  0
VERTEX
  8
0
  5
2F91
 10
274.006
 20
74.4343
 30
0.000000
  70
    32
  0
VERTEX
  8
0
  5
2F92
 10
274.004
 20
74.4365
 30
0.000000
  70
    32
  0
VERTEX
  8
0
  5
2F93
 10
274.003
 20
74.4386
 30
0.000000
  70
    32
  0
VERTEX
  8
0
  5
2F94
 10
274.001
 20
74.4408
 30
0.000000
  70
    32
  0
VERTEX
  8
0
  5
2F95
 10
273.999
 20
74.4430
 30
0.000000
  70
    32
  0
VERTEX
  8
0
  5
2F96
 10
273.997
 20
74.4452
 30
0.000000
  70
    32
  0
VERTEX
  8
0
  5
2F97
 10
273.995
 20
74.4474
 30
0.000000
  70
    32
  0
VERTEX
  8
0
  5
2F98
 10
273.993
 20
74.4496
 30
0.000000
  70
    32
  0
VERTEX
  8
0
  5
2F99
 10
273.991
 20
74.4518
 30
0.000000
  70
    32
  0
VERTEX
  8
0
  5
2F9A
 10
273.989
 20
74.4540
 30
0.000000
  70
    32
  0
VERTEX
  8
0
  5
2F9B
 10
273.987
 20
74.4562
 30
0.000000
  70
    32
  0
VERTEX
  8
0
  5
2F9C
 10
273.985
 20
74.4584
 30
0.000000
  70
    32
  0
VERTEX
  8
0
  5
2F9D
 10
273.982
 20
74.4606
 30
0.000000
  70
    32
  0
VERTEX
  8
0
  5
2F9E
 10
273.980
 20
74.4628
 30
0.000000
  70
    32
  0
VERTEX
  8
0
  5
2F9F
 10
273.977
 20
74.4649
 30
0.000000
  70
    32
  0
VERTEX
  8
0
  5
2FA0
 10
273.975
 20
74.4671
 30
0.000000
  70
    32
  0
VERTEX
  8
0
  5
2FA1
 10
273.972
 20
74.4693
 30
0.000000
  70
    32
  0
VERTEX
  8
0
  5
2FA2
 10
273.970
 20
74.4715
 30
0.000000
  70
    32
  0
VERTEX
  8
0
  5
2FA3
 10
273.967
 20
74.4737
 30
0.000000
  70
    32
  0
VERTEX
  8
0
  5
2FA4
 10
273.964
 20
74.4759
 30
0.000000
  70
    32
  0
VERTEX
  8
0
  5
2FA5
 10
273.962
 20
74.4780
 30
0.000000
  70
    32
  0
VERTEX
  8
0
  5
2FA6
 10
273.959
 20
74.4802
 30
0.000000
  70
    32
  0
VERTEX
  8
0
  5
2FA7
 10
273.956
 20
74.4824
 30
0.000000
  70
    32
  0
VERTEX
  8
0
  5
2FA8
 10
273.953
 20
74.4846
 30
0.000000
  70
    32
  0
VERTEX
  8
0
  5
2FA9
 10
273.950
 20
74.4868
 30
0.000000
  70
    32
  0
VERTEX
  8
0
  5
2FAA
 10
273.947
 20
74.4889
 30
0.000000
  70
    32
  0
VERTEX
  8
0
  5
2FAB
 10
273.943
 20
74.4911
 30
0.000000
  70
    32
  0
VERTEX
  8
0
  5
2FAC
 10
273.940
 20
74.4933
 30
0.000000
  70
    32
  0
VERTEX
  8
0
  5
2FAD
 10
273.937
 20
74.4955
 30
0.000000
  70
    32
  0
VERTEX
  8
0
  5
2FAE
 10
273.934
 20
74.4976
 30
0.000000
  70
    32
  0
VERTEX
  8
0
  5
2FAF
 10
273.930
 20
74.4998
 30
0.000000
  70
    32
  0
VERTEX
  8
0
  5
2FB0
 10
273.927
 20
74.5020
 30
0.000000
  70
    32
  0
VERTEX
  8
0
  5
2FB1
 10
273.923
 20
74.5041
 30
0.000000
  70
    32
  0
VERTEX
  8
0
  5
2FB2
 10
273.919
 20
74.5063
 30
0.000000
  70
    32
  0
VERTEX
  8
0
  5
2FB3
 10
273.916
 20
74.5085
 30
0.000000
  70
    32
  0
VERTEX
  8
0
  5
2FB4
 10
273.912
 20
74.5106
 30
0.000000
  70
    32
  0
VERTEX
  8
0
  5
2FB5
 10
273.908
 20
74.5128
 30
0.000000
  70
    32
  0
VERTEX
  8
0
  5
2FB6
 10
273.904
 20
74.5150
 30
0.000000
  70
    32
  0
VERTEX
  8
0
  5
2FB7
 10
273.901
 20
74.5171
 30
0.000000
  70
    32
  0
VERTEX
  8
0
  5
2FB8
 10
273.897
 20
74.5193
 30
0.000000
  70
    32
  0
VERTEX
  8
0
  5
2FB9
 10
273.893
 20
74.5214
 30
0.000000
  70
    32
  0
VERTEX
  8
0
  5
2FBA
 10
273.889
 20
74.5236
 30
0.000000
  70
    32
  0
VERTEX
  8
0
  5
2FBB
 10
273.884
 20
74.5258
 30
0.000000
  70
    32
  0
VERTEX
  8
0
  5
2FBC
 10
273.880
 20
74.5279
 30
0.000000
  70
    32
  0
VERTEX
  8
0
  5
2FBD
 10
273.876
 20
74.5301
 30
0.000000
  70
    32
  0
VERTEX
  8
0
  5
2FBE
 10
273.872
 20
74.5322
 30
0.000000
  70
    32
  0
VERTEX
  8
0
  5
2FBF
 10
273.867
 20
74.5344
 30
0.000000
  70
    32
  0
VERTEX
  8
0
  5
2FC0
 10
273.863
 20
74.5365
 30
0.000000
  70
    32
  0
VERTEX
  8
0
  5
2FC1
 10
273.858
 20
74.5387
 30
0.000000
  70
    32
  0
VERTEX
  8
0
  5
2FC2
 10
273.854
 20
74.5408
 30
0.000000
  70
    32
  0
VERTEX
  8
0
  5
2FC3
 10
273.849
 20
74.5429
 30
0.000000
  70
    32
  0
VERTEX
  8
0
  5
2FC4
 10
273.844
 20
74.5451
 30
0.000000
  70
    32
  0
VERTEX
  8
0
  5
2FC5
 10
273.840
 20
74.5472
 30
0.000000
  70
    32
  0
VERTEX
  8
0
  5
2FC6
 10
273.835
 20
74.5494
 30
0.000000
  70
    32
  0
VERTEX
  8
0
  5
2FC7
 10
273.830
 20
74.5515
 30
0.000000
  70
    32
  0
VERTEX
  8
0
  5
2FC8
 10
273.825
 20
74.5536
 30
0.000000
  70
    32
  0
VERTEX
  8
0
  5
2FC9
 10
273.820
 20
74.5558
 30
0.000000
  70
    32
  0
VERTEX
  8
0
  5
2FCA
 10
273.815
 20
74.5579
 30
0.000000
  70
    32
  0
VERTEX
  8
0
  5
2FCB
 10
273.810
 20
74.5600
 30
0.000000
  70
    32
  0
VERTEX
  8
0
  5
2FCC
 10
273.805
 20
74.5622
 30
0.000000
  70
    32
  0
VERTEX
  8
0
  5
2FCD
 10
273.799
 20
74.5643
 30
0.000000
  70
    32
  0
VERTEX
  8
0
  5
2FCE
 10
273.794
 20
74.5664
 30
0.000000
  70
    32
  0
VERTEX
  8
0
  5
2FCF
 10
273.789
 20
74.5685
 30
0.000000
  70
    32
  0
VERTEX
  8
0
  5
2FD0
 10
273.783
 20
74.5707
 30
0.000000
  70
    32
  0
VERTEX
  8
0
  5
2FD1
 10
273.778
 20
74.5728
 30
0.000000
  70
    32
  0
VERTEX
  8
0
  5
2FD2
 10
273.772
 20
74.5749
 30
0.000000
  70
    32
  0
VERTEX
  8
0
  5
2FD3
 10
273.767
 20
74.5770
 30
0.000000
  70
    32
  0
VERTEX
  8
0
  5
2FD4
 10
273.761
 20
74.5791
 30
0.000000
  70
    32
  0
VERTEX
  8
0
  5
2FD5
 10
273.756
 20
74.5812
 30
0.000000
  70
    32
  0
VERTEX
  8
0
  5
2FD6
 10
273.750
 20
74.5834
 30
0.000000
  70
    32
  0
VERTEX
  8
0
  5
2FD7
 10
273.744
 20
74.5855
 30
0.000000
  70
    32
  0
VERTEX
  8
0
  5
2FD8
 10
273.738
 20
74.5876
 30
0.000000
  70
    32
  0
VERTEX
  8
0
  5
2FD9
 10
273.732
 20
74.5897
 30
0.000000
  70
    32
  0
VERTEX
  8
0
  5
2FDA
 10
273.726
 20
74.5918
 30
0.000000
  70
    32
  0
VERTEX
  8
0
  5
2FDB
 10
273.720
 20
74.5939
 30
0.000000
  70
    32
  0
VERTEX
  8
0
  5
2FDC
 10
273.714
 20
74.5960
 30
0.000000
  70
    32
  0
VERTEX
  8
0
  5
2FDD
 10
273.708
 20
74.5981
 30
0.000000
  70
    32
  0
VERTEX
  8
0
  5
2FDE
 10
273.702
 20
74.6002
 30
0.000000
  70
    32
  0
VERTEX
  8
0
  5
2FDF
 10
273.695
 20
74.6023
 30
0.000000
  70
    32
  0
VERTEX
  8
0
  5
2FE0
 10
273.689
 20
74.6043
 30
0.000000
  70
    32
  0
VERTEX
  8
0
  5
2FE1
 10
273.683
 20
74.6064
 30
0.000000
  70
    32
  0
VERTEX
  8
0
  5
2FE2
 10
273.676
 20
74.6085
 30
0.000000
  70
    32
  0
VERTEX
  8
0
  5
2FE3
 10
273.670
 20
74.6106
 30
0.000000
  70
    32
  0
VERTEX
  8
0
  5
2FE4
 10
273.663
 20
74.6127
 30
0.000000
  70
    32
  0
VERTEX
  8
0
  5
2FE5
 10
273.656
 20
74.6148
 30
0.000000
  70
    32
  0
VERTEX
  8
0
  5
2FE6
 10
273.650
 20
74.6168
 30
0.000000
  70
    32
  0
VERTEX
  8
0
  5
2FE7
 10
273.643
 20
74.6189
 30
0.000000
  70
    32
  0
VERTEX
  8
0
  5
2FE8
 10
273.636
 20
74.6210
 30
0.000000
  70
    32
  0
VERTEX
  8
0
  5
2FE9
 10
273.629
 20
74.6230
 30
0.000000
  70
    32
  0
VERTEX
  8
0
  5
2FEA
 10
273.622
 20
74.6251
 30
0.000000
  70
    32
  0
VERTEX
  8
0
  5
2FEB
 10
273.615
 20
74.6272
 30
0.000000
  70
    32
  0
VERTEX
  8
0
  5
2FEC
 10
273.608
 20
74.6292
 30
0.000000
  70
    32
  0
VERTEX
  8
0
  5
2FED
 10
273.601
 20
74.6313
 30
0.000000
  70
    32
  0
VERTEX
  8
0
  5
2FEE
 10
273.594
 20
74.6334
 30
0.000000
  70
    32
  0
VERTEX
  8
0
  5
2FEF
 10
273.587
 20
74.6354
 30
0.000000
  70
    32
  0
VERTEX
  8
0
  5
2FF0
 10
273.579
 20
74.6375
 30
0.000000
  70
    32
  0
VERTEX
  8
0
  5
2FF1
 10
273.572
 20
74.6395
 30
0.000000
  70
    32
  0
VERTEX
  8
0
  5
2FF2
 10
273.565
 20
74.6416
 30
0.000000
  70
    32
  0
VERTEX
  8
0
  5
2FF3
 10
273.557
 20
74.6436
 30
0.000000
  70
    32
  0
VERTEX
  8
0
  5
2FF4
 10
273.550
 20
74.6457
 30
0.000000
  70
    32
  0
VERTEX
  8
0
  5
2FF5
 10
273.542
 20
74.6477
 30
0.000000
  70
    32
  0
VERTEX
  8
0
  5
2FF6
 10
273.534
 20
74.6497
 30
0.000000
  70
    32
  0
VERTEX
  8
0
  5
2FF7
 10
273.527
 20
74.6518
 30
0.000000
  70
    32
  0
SEQEND
  8
0
  5
2FF8
  0
LINE
  5
28DA
  8
0
 10
278.52681319058638
 20
31.212203949994691
 30
0.0
 11
256.52681319058638
 21
31.212203949994691
 31
0.0
  0
LINE
  5
28DB
  8
0
 10
256.52681319058638
 20
31.212203949994691
 30
0.0
 11
256.5268131905857
 21
39.212203949994688
 31
0.0
  0
LINE
  5
28DC
  8
0
 10
256.59245907157242
 20
35.612203949994658
 30
0.0
 11
256.52681319058638
 21
35.612203949994658
 31
0.0
  0
POLYLINE
  5
28DD
  8
0
 66
     1
 10
0.0
 20
0.0
 30
0.0
 70
   128
  0
VERTEX
  5
2E9B
  8
0
 10
256.59245907157242
 20
35.612203949994658
 30
0.0
  0
VERTEX
  5
2E9C
  8
0
 10
256.68416521768933
 20
34.861492608014323
 30
0.0
  0
VERTEX
  5
2E9D
  8
0
 10
257.09246520233819
 20
33.896355561177131
 30
0.0
  0
VERTEX
  5
2E9E
  8
0
 10
257.82144257037061
 20
33.025707765980172
 30
0.0
  0
VERTEX
  5
2E9F
  8
0
 10
258.52018741178881
 20
32.496537519191889
 30
0.0
  0
VERTEX
  5
2EA0
  8
0
 10
259.3164805737826
 20
32.074505847066121
 30
0.0
  0
VERTEX
  5
2EA1
  8
0
 10
260.66249492387487
 20
31.622840676779621
 30
0.0
  0
VERTEX
  5
2EA2
  8
0
 10
262.09526358171411
 20
31.367297173493569
 30
0.0
  0
VERTEX
  5
2EA3
  8
0
 10
264.02450590842273
 20
31.23366988956624
 30
0.0
  0
VERTEX
  5
2EA4
  8
0
 10
265.96729403392101
 20
31.212203949994691
 30
0.0
  0
SEQEND
  5
2EA5
  8
0
  0
POLYLINE
  5
28DF
  8
0
 66
     1
 10
0.0
 20
0.0
 30
0.0
 70
   128
  0
VERTEX
  5
2EA6
  8
0
 10
269.08633234725198
 20
31.212203949994691
 30
0.0
  0
VERTEX
  5
2EA7
  8
0
 10
271.2323921934742
 20
31.24040669997979
 30
0.0
  0
VERTEX
  5
2EA8
  8
0
 10
273.37845203969641
 20
31.42429576581247
 30
0.0
  0
VERTEX
  5
2EA9
  8
0
 10
274.81076835676049
 20
31.736511499044148
 30
0.0
  0
VERTEX
  5
2EAA
  8
0
 10
276.20447844707411
 20
32.303806702219468
 30
0.0
  0
VERTEX
  5
2EAB
  8
0
 10
277.36778606000962
 20
33.154424816062999
 30
0.0
  0
VERTEX
  5
2EAC
  8
0
 10
277.831975634
 20
33.700566820707422
 30
0.0
  0
VERTEX
  5
2EAD
  8
0
 10
278.19622325402861
 20
34.347653902829933
 30
0.0
  0
VERTEX
  5
2EAE
  8
0
 10
278.45320693115201
 20
35.390067111144532
 30
0.0
  0
VERTEX
  5
2EAF
  8
0
 10
278.46116730960051
 20
35.612203949994658
 30
0.0
  0
SEQEND
  5
2EB0
  8
0
  0
LINE
  5
28E0
  8
0
 10
278.52681319058638
 20
35.612203949994658
 30
0.0
 11
278.46116730960051
 21
35.612203949994658
 31
0.0
  0
LINE
  5
28E1
  8
0
 10
278.52681319058638
 20
39.212203949994688
 30
0.0
 11
278.52681319058638
 21
31.212203949994691
 31
0.0
  0
LINE
  5
28E3
  8
0
 10
256.59245907157242
 20
39.212203949994688
 30
0.0
 11
256.59245907157242
 21
35.612203949994658
 31
0.0
  0
LINE
  5
28E4
  8
0
 10
278.52681319058638
 20
39.212203949994183
 30
0.0
 11
256.52681319058638
 21
39.212203949994183
 31
0.0
  0
LINE
  5
28E5
  8
0
 10
278.46116730960051
 20
35.612203949994658
 30
0.0
 11
278.46116730960051
 21
39.212203949994688
 31
0.0
  0
LINE
  5
28EA
  8
0
 10
272.27681319058638
 20
49.133771366486663
 30
0.0
 11
262.7768131905861
 21
49.133771366486663
 31
0.0
  0
ARC
  5
28EB
  8
0
 10
267.52681319058593
 20
39.212203949994183
 30
0.0
 40
8.6068286842488533
 50
0.000000000003453
 51
179.99999999999281
  0
LINE
  5
28EC
  8
0
 10
273.52681319058638
 20
138.13870394999461
 30
0.0
 11
261.52681319058638
 21
138.13870394999461
 31
0.0
  0
LINE
  5
28ED
  8
0
 10
272.45331319058641
 20
139.21220394999469
 30
0.0
 11
262.60031319058629
 21
139.21220394999469
 31
0.0
  0
LINE
  5
28EE
  8
0
 10
272.27681319058638
 20
72.047140440533667
 30
0.0
 11
271.5088639981555
 21
72.047140440533667
 31
0.0
  0
LINE
  5
28EF
  8
0
 10
263.5447623830176
 20
72.047140440533667
 30
0.0
 11
262.77681319058638
 21
72.047140440533667
 31
0.0
  0
LINE
  5
28F0
  8
0
 10
255.02681319058641
 20
58.212203949994681
 30
0.0
 11
280.02681319058638
 21
58.212203949994681
 31
0.0
  0
LINE
  5
28F1
  8
0
 10
255.02681319058641
 20
64.212203949994688
 30
0.0
 11
280.02681319058638
 21
64.212203949994688
 31
0.0
  0
LINE
  5
28F2
  8
0
 10
258.52681319058638
 20
71.212203949994674
 30
0.0
 11
276.52681319058638
 21
71.212203949994674
 31
0.0
  0
LINE
  5
28F4
  8
0
 10
271.12681319058652
 20
71.826563303939594
 30
0.0
 11
263.92681319058647
 21
71.826563303939594
 31
0.0
  0
LINE
  5
28F5
  8
0
 10
273.52681319058638
 20
122.2122039499947
 30
0.0
 11
261.52681319058638
 21
122.2122039499947
 31
0.0
  0
LINE
  5
28F6
  8
0
 10
262.10416345977609
 20
123.2122039499947
 30
0.0
 11
272.94946292139679
 21
123.2122039499947
 31
0.0
  0
LINE
  5
28F7
  8
0
 10
254.52681319058641
 20
96.712203949994688
 30
0.0
 11
261.52681319058638
 21
96.712203949994688
 31
0.0
  0
LINE
  5
28F8
  8
0
 10
273.52681319058638
 20
96.712203949994688
 30
0.0
 11
280.52681319058638
 21
96.712203949994688
 31
0.0
  0
LINE
  5
28F9
  8
0
 10
254.52681319058641
 20
99.712203949994702
 30
0.0
 11
261.52681319058638
 21
99.712203949994702
 31
0.0
  0
LINE
  5
28FA
  8
0
 10
273.52681319058638
 20
99.712203949994702
 30
0.0
 11
280.52681319058638
 21
99.712203949994702
 31
0.0
  0
POLYLINE
  5
28FB
  8
0
 66
     1
 10
0.0
 20
0.0
 30
0.0
 70
   128
  0
VERTEX
  5
2EB1
  8
0
 10
277.02681319058638
 20
111.57502303936801
 30
0.0
  0
VERTEX
  5
2EB2
  8
0
 10
274.5386821431689
 20
112.220023238268
 30
0.0
  0
VERTEX
  5
2EB3
  8
0
 10
273.52681319058638
 20
112.3496960332369
 30
0.0
  0
SEQEND
  5
2EB4
  8
0
  0
LINE
  5
28FC
  8
0
 10
277.02681319058638
 20
99.712203949994702
 30
0.0
 11
277.02681319058638
 21
112.42352881539981
 31
0.0
  0
LINE
  5
28FD
  8
0
 10
258.52681319058638
 20
112.7122039499946
 30
0.0
 11
261.52681319058638
 21
112.7122039499946
 31
0.0
  0
LINE
  5
28FE
  8
0
 10
273.52681319058638
 20
112.7122039499946
 30
0.0
 11
276.52681319058638
 21
112.7122039499946
 31
0.0
  0
POLYLINE
  5
2900
  8
0
 66
     1
 10
0.0
 20
0.0
 30
0.0
 70
   128
  0
VERTEX
  5
2EB5
  8
0
 10
261.52681319058638
 20
112.3147581841242
 30
0.0
  0
VERTEX
  5
2EB6
  8
0
 10
260.22943754698571
 20
112.1666329508391
 30
0.0
  0
VERTEX
  5
2EB7
  8
0
 10
258.02681319058638
 20
111.57502303936791
 30
0.0
  0
SEQEND
  5
2EB8
  8
0
  0
LINE
  5
2902
  8
0
 10
258.02681319058638
 20
99.712203949994702
 30
0.0
 11
258.02681319058638
 21
112.42352881539981
 31
0.0
  0
LINE
  5
2903
  8
0
 10
261.52681319058638
 20
95.712203949994688
 30
0.0
 11
254.52681319058641
 21
95.712203949994688
 31
0.0
  0
LINE
  5
2904
  8
0
 10
280.52681319058638
 20
95.712203949994688
 30
0.0
 11
273.52681319058638
 21
95.712203949994688
 31
0.0
  0
LINE
  5
2905
  8
0
 10
273.52681319058638
 20
96.212203949994674
 30
0.0
 11
280.02681319058638
 21
96.212203949994674
 31
0.0
  0
LINE
  5
2906
  8
0
 10
255.02681319058641
 20
96.212203949994674
 30
0.0
 11
261.52681319058638
 21
96.212203949994674
 31
0.0
  0
LINE
  5
2907
  8
0
 10
254.52681319058641
 20
92.712203949994645
 30
0.0
 11
261.52681319058638
 21
92.712203949994645
 31
0.0
  0
LINE
  5
2908
  8
0
 10
273.52681319058638
 20
92.712203949994645
 30
0.0
 11
280.52681319058638
 21
92.712203949994645
 31
0.0
  0
LINE
  5
2A7E
  8
3
 10
195.65181319058621
 20
73.21220394999466
 30
0.0
 11
195.6518131905863
 21
72.707022464453786
 31
0.0
  0
LINE
  5
2A7F
  8
3
 10
185.40181319058649
 20
73.21220394999466
 30
0.0
 11
185.40181319058649
 21
72.707022464453786
 31
0.0
  0
LINE
  5
2A80
  8
3
 10
166.65181319058641
 20
73.21220394999466
 30
0.0
 11
166.65181319058641
 21
72.69665949337201
 31
0.0
  0
LINE
  5
2A81
  8
3
 10
156.40181319058641
 20
73.21220394999466
 30
0.0
 11
156.40181319058641
 21
72.69665949337201
 31
0.0
  0
LINE
  5
2A94
  8
3
 10
40.651813190586438
 20
73.212203949994674
 30
0.0
 11
40.651813190586438
 21
72.696659493372024
 31
0.0
  0
LINE
  5
2A95
  8
3
 10
30.401813190586441
 20
73.212203949994674
 30
0.0
 11
30.401813190586441
 21
72.696659493372024
 31
0.0
  0
LINE
  5
2A96
  8
3
 10
272.65181319058649
 20
139.01370394999441
 30
0.0
 11
272.65181319058649
 21
92.212203949994702
 31
0.0
  0
LINE
  5
2A97
  8
3
 10
262.40181319058661
 20
139.013703949995
 30
0.0
 11
262.40181319058661
 21
92.212203949994702
 31
0.0
  0
LINE
  5
2A98
  8
3
 10
262.40181319058649
 20
78.212203949994588
 30
0.0
 11
262.40181319058661
 21
72.707022464453786
 31
0.0
  0
LINE
  5
2A99
  8
3
 10
272.65181319058541
 20
78.212203949994588
 30
0.0
 11
272.65181319058649
 21
72.707022464453786
 31
0.0
  0
ARC
  5
2C1E
  8
2
 10
161.52681319058649
 20
202.97480353614151
 30
0.0
 40
6.5
 50
270.0
 51
90.0
  0
LINE
  5
2C26
  8
2
 10
150.2684829413887
 20
209.47480353614151
 30
0.0
 11
201.52681319058649
 21
209.47480353614151
 31
0.0
  0
LINE
  5
2C27
  8
2
 10
150.26848294138861
 20
196.47480353614139
 30
0.0
 11
201.52681319058649
 21
196.47480353614151
 31
0.0
  0
LINE
  5
2C2D
  8
1
 10
121.5268131905864
 20
212.47480353614139
 30
0.0
 11
121.5268131905864
 21
193.47480353614139
 31
0.0
  0
LINE
  5
2C2E
  8
1
 10
161.52681319058641
 20
218.97480353614139
 30
0.0
 11
161.52681319058641
 21
186.97480353614139
 31
0.0
  0
LINE
  5
2C2F
  8
1
 10
190.52681319058621
 20
211.97480353614139
 30
0.0
 11
190.52681319058621
 21
193.97480353614139
 31
0.0
  0
LINE
  5
2C3A
  8
1
 10
267.52681319058632
 20
144.21220394999469
 30
0.0
 11
267.52681319058621
 21
26.212203949994691
 31
0.0
  0
LINE
  5
2C45
  8
2
 10
161.52681319058641
 20
78.212203949994674
 30
0.0
 11
201.52681319058641
 21
78.212203949994674
 31
0.0
  0
LINE
  5
2C46
  8
2
 10
168.02681319058641
 20
92.212203949994674
 30
0.0
 11
168.02681319058641
 21
78.212203949994674
 31
0.0
  0
LINE
  5
2C47
  8
2
 10
115.0268131905864
 20
92.212203949994674
 30
0.0
 11
115.0268131905864
 21
75.115897949994689
 31
0.0
  0
TEXT
  5
2DF5
  8
0
 62
     3
 10
0.0
 20
0.0
 30
0.0
 40
10.0
  1
BJ156-12100B1-T
  7
STANDARD1
  0
ENDSEC
  0
EOF
