  0
SECTION
  2
HEADER
  9
$ACADVER
  1
AC1009
  9
$INSBASE
 10
82.638099999999994
 20
103.82319099999999
 30
0.0
  9
$EXTMIN
 10
0.0
 20
-2.960436562073669
 30
0.0
  9
$EXTMAX
 10
270.44272299697923
 20
216.69748602329011
 30
0.0
  9
$LIMMIN
 10
0.0
 20
0.0
  9
$LIMMAX
 10
375.0
 20
270.0
  9
$ORTHOMODE
 70
     1
  9
$REGENMODE
 70
     1
  9
$FILLMODE
 70
     1
  9
$QTEXTMODE
 70
     0
  9
$MIRRTEXT
 70
     0
  9
$DRAGMODE
 70
     2
  9
$LTSCALE
 40
10.0
  9
$OSMODE
 70
  3071
  9
$ATTMODE
 70
     1
  9
$TEXTSIZE
 40
0.06
  9
$TRACEWID
 40
0.05
  9
$TEXTSTYLE
  7
STANDARD
  9
$CLAYER
  8
0
  9
$CELTYPE
  6
BYLAYER
  9
$CECOLOR
 62
   256
  9
$DIMSCALE
 40
1.0
  9
$DIMASZ
 40
3.0
  9
$DIMEXO
 40
2.0
  9
$DIMDLI
 40
10.0
  9
$DIMRND
 40
0.0
  9
$DIMDLE
 40
0.0
  9
$DIMEXE
 40
2.0
  9
$DIMTP
 40
0.0
  9
$DIMTM
 40
0.0
  9
$DIMTXT
 40
3.0
  9
$DIMCEN
 40
0.0
  9
$DIMTSZ
 40
0.0
  9
$DIMTOL
 70
     0
  9
$DIMLIM
 70
     0
  9
$DIMTIH
 70
     0
  9
$DIMTOH
 70
     0
  9
$DIMSE1
 70
     0
  9
$DIMSE2
 70
     0
  9
$DIMTAD
 70
     1
  9
$DIMZIN
 70
     0
  9
$DIMBLK
  1

  9
$DIMASO
 70
     0
  9
$DIMSHO
 70
     0
  9
$DIMPOST
  1

  9
$DIMAPOST
  1

  9
$DIMALT
 70
     0
  9
$DIMALTD
 70
     2
  9
$DIMALTF
 40
25.399999999999999
  9
$DIMLFAC
 40
1.0
  9
$DIMTOFL
 70
     1
  9
$DIMTVP
 40
1.6000000000000001
  9
$DIMTIX
 70
     1
  9
$DIMSOXD
 70
     0
  9
$DIMSAH
 70
     0
  9
$DIMBLK1
  1

  9
$DIMBLK2
  1

  9
$DIMSTYLE
  2
STANDARD
  9
$DIMCLRD
 70
     0
  9
$DIMCLRE
 70
     0
  9
$DIMCLRT
 70
     0
  9
$DIMTFAC
 40
1.0
  9
$DIMGAP
 40
0.09
  9
$LUNITS
 70
     2
  9
$LUPREC
 70
     4
  9
$SKETCHINC
 40
0.1
  9
$FILLETRAD
 40
0.0
  9
$AUNITS
 70
     0
  9
$AUPREC
 70
     4
  9
$MENU
  1
E:\r13\win\SUPPORT\ACAD
  9
$ELEVATION
 40
0.0
  9
$PELEVATION
 40
0.0
  9
$THICKNESS
 40
0.0
  9
$LIMCHECK
 70
     0
  9
$BLIPMODE
 70
     0
  9
$CHAMFERA
 40
0.0
  9
$CHAMFERB
 40
0.0
  9
$SKPOLY
 70
     0
  9
$TDCREATE
 40
2449840.348113426
  9
$TDUPDATE
 40
2456597.6475586691
  9
$TDINDWG
 40
0.0697322917
  9
$TDUSRTIMER
 40
0.0697322917
  9
$USRTIMER
 70
     1
  9
$ANGBASE
 50
0.0
  9
$ANGDIR
 70
     0
  9
$PDMODE
 70
     1
  9
$PDSIZE
 40
0.0
  9
$PLINEWID
 40
0.0
  9
$COORDS
 70
     1
  9
$SPLFRAME
 70
     0
  9
$SPLINETYPE
 70
     6
  9
$SPLINESEGS
 70
     8
  9
$ATTDIA
 70
     0
  9
$ATTREQ
 70
     1
  9
$HANDLING
 70
     1
  9
$HANDSEED
  5
2512
  9
$SURFTAB1
 70
     6
  9
$SURFTAB2
 70
     6
  9
$SURFTYPE
 70
     6
  9
$SURFU
 70
     6
  9
$SURFV
 70
     6
  9
$UCSNAME
  2

  9
$UCSORG
 10
0.0
 20
0.0
 30
0.0
  9
$UCSXDIR
 10
1.0
 20
0.0
 30
0.0
  9
$UCSYDIR
 10
0.0
 20
1.0
 30
0.0
  9
$PUCSNAME
  2

  9
$PUCSORG
 10
0.0
 20
0.0
 30
0.0
  9
$PUCSXDIR
 10
1.0
 20
0.0
 30
0.0
  9
$PUCSYDIR
 10
0.0
 20
1.0
 30
0.0
  9
$USERI1
 70
     3
  9
$USERI2
 70
     1
  9
$USERI3
 70
     0
  9
$USERI4
 70
     0
  9
$USERI5
 70
     0
  9
$USERR1
 40
1.0
  9
$USERR2
 40
3.0
  9
$USERR3
 40
3.0
  9
$USERR4
 40
3.0
  9
$USERR5
 40
10.0
  9
$WORLDVIEW
 70
     1
  9
$SHADEDGE
 70
     3
  9
$SHADEDIF
 70
    70
  9
$TILEMODE
 70
     1
  9
$MAXACTVP
 70
    16
  9
$PLIMCHECK
 70
     0
  9
$PEXTMIN
 10
1.0000000000000000E+020
 20
1.0000000000000000E+020
 30
1.0000000000000000E+020
  9
$PEXTMAX
 10
-1.0000000000000000E+020
 20
-1.0000000000000000E+020
 30
-1.0000000000000000E+020
  9
$PLIMMIN
 10
0.0
 20
0.0
  9
$PLIMMAX
 10
12.0
 20
9.0
  9
$UNITMODE
 70
     0
  9
$VISRETAIN
 70
     0
  9
$PLINEGEN
 70
     0
  9
$PSLTSCALE
 70
     0
  0
ENDSEC
  0
SECTION
  2
TABLES
  0
TABLE
  2
VPORT
 70
     1
  0
VPORT
  2
*ACTIVE
 70
     0
 10
0.0
 20
0.0
 11
1.0
 21
1.0
 12
195.0581083320873
 22
133.5127261426681
 13
0.0
 23
0.0
 14
5.0
 24
5.0
 15
10.0
 25
10.0
 16
0.0
 26
0.0
 36
1.0
 17
0.0
 27
0.0
 37
0.0
 40
275.42274993631997
 41
1.831871345029239
 42
50.0
 43
0.0
 44
0.0
 50
0.0
 51
0.0
 71
     0
 72
   100
 73
     1
 74
     0
 75
     0
 76
     0
 77
     0
 78
     0
  0
ENDTAB
  0
TABLE
  2
LTYPE
 70
     4
  0
LTYPE
  2
CONTINUOUS
 70
     0
  3
Solid Line
 72
    65
 73
     0
 40
0.0
  0
LTYPE
  2
CENTER
 70
     0
  3
____ _ ____ _ ____ _ ____ _ ____ _ ____ _ ____
 72
    65
 73
     4
 40
2.0
 49
1.25
 49
-0.25
 49
0.25
 49
-0.25
  0
LTYPE
  2
HIDDEN
 70
     0
  3
__ __ __ __ __ __ __ __ __ __ __ __ __ __ __ __
 72
    65
 73
     2
 40
0.375
 49
0.25
 49
-0.125
  0
LTYPE
  2
PHANTOM2
 70
     0
  3
___ _ _ ___ _ _ ___ _ _ ___ _ _
 72
    65
 73
     6
 40
1.25
 49
0.625
 49
-0.125
 49
0.125
 49
-0.125
 49
0.125
 49
-0.125
  0
ENDTAB
  0
TABLE
  2
LAYER
 70
     5
  0
LAYER
  2
0
 70
     0
 62
     7
  6
CONTINUOUS
  0
LAYER
  2
1
 70
     0
 62
     1
  6
CENTER
  0
LAYER
  2
2
 70
     0
 62
     2
  6
HIDDEN
  0
LAYER
  2
3
 70
     0
 62
     3
  6
CONTINUOUS
  0
LAYER
  2
DEFPOINTS
 70
     0
 62
     7
  6
CONTINUOUS
  0
ENDTAB
  0
TABLE
  2
STYLE
 70
     2
  0
STYLE
  2
STANDARD
 70
     0
 40
0.0
 41
1.0
 50
0.0
 71
     0
 42
0.06
  3
TXT
  4
BIGFONT
  0
STYLE
  2
STANDARD1
 70
     0
 40
0.0
 41
1.0
 50
0.0
 71
     0
 42
3.0
  3
txt
  4

  0
ENDTAB
  0
TABLE
  2
VIEW
 70
     0
  0
ENDTAB
  0
TABLE
  2
UCS
 70
     0
  0
ENDTAB
  0
TABLE
  2
APPID
 70
     3
  0
APPID
  2
ACAD
 70
     0
  0
APPID
  2
ACAD_MLEADERVER
 70
     0
  0
APPID
  2
ACAD_NAV_VCDISPLAY
 70
     0
  0
ENDTAB
  0
TABLE
  2
DIMSTYLE
 70
     1
  0
DIMSTYLE
  2
STANDARD
 70
     0
  3

  4

  5

  6

  7

 40
1.0
 41
0.18
 42
0.0625
 43
0.38
 44
0.18
 45
0.0
 46
0.0
 47
0.0
 48
0.0
140
0.18
141
0.09
142
0.0
143
25.399999999999999
144
1.0
145
0.0
146
1.0
147
0.09
 71
     0
 72
     0
 73
     1
 74
     1
 75
     0
 76
     0
 77
     0
 78
     0
170
     0
171
     2
172
     0
173
     0
174
     0
175
     0
176
     0
177
     0
178
     0
  0
ENDTAB
  0
ENDSEC
  0
SECTION
  2
BLOCKS
  0
BLOCK
  8
0
  2
$MODEL_SPACE
 70
     0
 10
0.0
 20
0.0
 30
0.0
  3
$MODEL_SPACE
  1

  0
ENDBLK
  5
223
  8
0
  0
BLOCK
 67
     1
  8
0
  2
$PAPER_SPACE
 70
     0
 10
0.0
 20
0.0
 30
0.0
  3
$PAPER_SPACE
  1

  0
ENDBLK
  5
221
 67
     1
  8
0
  0
ENDSEC
  0
SECTION
  2
ENTITIES
  0
ARC
  5
1600
  8
0
 10
153.44272299697931
 20
37.533582089316702
 30
0.0
 40
11.000000000000419
 50
115.58300197739879
 51
128.51556905247739
  0
ARC
  5
1601
  8
0
 10
153.44272299697931
 20
37.533582089316702
 30
0.0
 40
11.00000000000038
 50
51.484430947522647
 51
64.41699802260122
  0
LINE
  5
1602
  8
0
 10
159.4427229969792
 20
108.03358208931709
 30
0.0
 11
159.4427229969792
 21
136.4600820893171
 31
0.0
  0
LINE
  5
1603
  8
0
 10
147.44272299697931
 20
136.4600820893171
 30
0.0
 11
147.44272299697931
 21
108.03358208931709
 31
0.0
  0
LINE
  5
1604
  8
0
 10
148.02007326616899
 20
71.53358208931715
 30
0.0
 11
148.6927229969792
 21
70.368518579856158
 31
0.0
  0
LINE
  5
1605
  8
0
 10
158.1927229969792
 20
70.368518579856158
 30
0.0
 11
158.86537272778969
 21
71.53358208931715
 31
0.0
  0
LINE
  5
1606
  8
0
 10
159.4427229969792
 20
136.4600820893171
 30
0.0
 11
158.3692229969792
 21
137.53358208931721
 31
0.0
  0
LINE
  5
1607
  8
0
 10
148.5162229969792
 20
137.53358208931721
 30
0.0
 11
147.44272299697931
 21
136.4600820893171
 31
0.0
  0
LINE
  5
1608
  8
0
 10
158.1927229969792
 20
47.455149505809167
 30
0.0
 11
158.1927229969792
 21
70.368518579856158
 31
0.0
  0
LINE
  5
1609
  8
0
 10
148.6927229969792
 20
70.368518579856158
 30
0.0
 11
148.6927229969792
 21
47.455149505809167
 31
0.0
  0
LINE
  5
160A
  8
0
 10
164.9427229969792
 20
62.533582089317179
 30
0.0
 11
164.9427229969792
 21
56.53358208931715
 31
0.0
  0
LINE
  5
160B
  8
0
 10
189.9427229969792
 20
56.53358208931715
 30
0.0
 11
189.9427229969792
 21
62.533582089317179
 31
0.0
  0
LINE
  5
160C
  8
0
 10
168.4427229969792
 20
69.533582089317164
 30
0.0
 11
168.4427229969792
 21
62.533582089317179
 31
0.0
  0
LINE
  5
160D
  8
0
 10
186.4427229969792
 20
62.533582089317179
 30
0.0
 11
186.4427229969792
 21
69.533582089317164
 31
0.0
  0
LINE
  5
160E
  8
0
 10
183.4427229969792
 20
120.53358208931709
 30
0.0
 11
182.86537272778969
 21
121.53358208931709
 31
0.0
  0
LINE
  5
160F
  8
0
 10
172.02007326616899
 20
121.53358208931709
 30
0.0
 11
171.4427229969792
 21
120.53358208931709
 31
0.0
  0
LINE
  5
1610
  8
0
 10
171.4427229969792
 20
120.53358208931709
 30
0.0
 11
171.4427229969792
 21
87.533582089317136
 31
0.0
  0
LINE
  5
1611
  8
0
 10
183.4427229969792
 20
87.53358208931715
 30
0.0
 11
183.4427229969792
 21
120.53358208931709
 31
0.0
  0
LINE
  5
1612
  8
0
 10
171.4427229969792
 20
71.533582089317179
 30
0.0
 11
173.84272299697929
 21
70.147941443262084
 31
0.0
  0
LINE
  5
1613
  8
0
 10
181.04272299697931
 20
70.147941443262084
 30
0.0
 11
183.4427229969792
 21
71.533582089317179
 31
0.0
  0
LINE
  5
1614
  8
0
 10
181.04272299697931
 20
69.533582089317164
 30
0.0
 11
181.04272299697931
 21
70.147941443262084
 31
0.0
  0
LINE
  5
1615
  8
0
 10
173.84272299697929
 20
70.147941443262084
 30
0.0
 11
173.84272299697929
 21
69.533582089317164
 31
0.0
  0
POLYLINE
  5
1616
  8
0
 66
     1
 10
0.0
 20
0.0
 30
0.0
 70
   128
  0
VERTEX
  5
2374
  8
0
 10
140.44272299697931
 20
92.033582089317164
 30
0.0
  0
VERTEX
  5
2375
  8
0
 10
141.10257204323341
 20
91.726112149987287
 30
0.0
  0
VERTEX
  5
2376
  8
0
 10
141.53839654266829
 20
91.53358208931715
 30
0.0
  0
SEQEND
  5
2377
  8
0
  0
POLYLINE
  5
1617
  8
0
 66
     1
 10
0.0
 20
0.0
 30
0.0
 70
   128
  0
VERTEX
  5
2378
  8
0
 10
165.3470494512903
 20
91.53358208931715
 30
0.0
  0
VERTEX
  5
2379
  8
0
 10
165.78287395072519
 20
91.726112149987287
 30
0.0
  0
VERTEX
  5
237A
  8
0
 10
166.4427229969792
 20
92.033582089317164
 30
0.0
  0
SEQEND
  5
237B
  8
0
  0
LINE
  5
1618
  8
0
 10
140.44272299697931
 20
95.033582089317179
 30
0.0
 11
140.44272299697931
 21
92.033582089317164
 31
0.0
  0
LINE
  5
1619
  8
0
 10
166.4427229969792
 20
92.033582089317164
 30
0.0
 11
166.4427229969792
 21
95.033582089317179
 31
0.0
  0
LINE
  5
161A
  8
0
 10
164.4123781115822
 20
106.8964011786904
 30
0.0
 11
162.4427229969792
 21
108.03358208931709
 31
0.0
  0
LINE
  5
161B
  8
0
 10
144.44272299697931
 20
108.03358208931709
 30
0.0
 11
142.4730678823764
 21
106.8964011786904
 31
0.0
  0
LINE
  5
161C
  8
0
 10
140.44272299697931
 20
88.033582089317122
 30
0.0
 11
140.9427229969792
 21
87.53358208931715
 31
0.0
  0
LINE
  5
161D
  8
0
 10
165.9427229969792
 20
87.53358208931715
 30
0.0
 11
166.4427229969792
 21
88.033582089317122
 31
0.0
  0
LINE
  5
161E
  8
0
 10
166.4427229969792
 20
88.033582089317122
 30
0.0
 11
166.4427229969792
 21
91.033582089317136
 31
0.0
  0
LINE
  5
161F
  8
0
 10
140.44272299697931
 20
91.033582089317136
 30
0.0
 11
140.44272299697931
 21
88.033582089317122
 31
0.0
  0
LINE
  5
1620
  8
0
 10
166.4427229969792
 20
91.033582089317136
 30
0.0
 11
165.9427229969792
 21
91.53358208931715
 31
0.0
  0
LINE
  5
1621
  8
0
 10
140.94272299697931
 20
91.53358208931715
 30
0.0
 11
140.44272299697931
 21
91.033582089317136
 31
0.0
  0
LINE
  5
1623
  8
0
 10
142.44272299697931
 20
29.53358208931715
 30
0.0
 11
142.44272299697931
 21
37.533582089317122
 31
0.0
  0
LINE
  5
1624
  8
0
 10
142.50836887796521
 20
33.933582089317163
 30
0.0
 11
142.44272299697931
 21
33.933582089317163
 31
0.0
  0
POLYLINE
  5
1625
  8
0
 66
     1
 10
0.0
 20
0.0
 30
0.0
 70
   128
  0
VERTEX
  5
237C
  8
0
 10
142.50836887796521
 20
33.933582089317163
 30
0.0
  0
VERTEX
  5
237D
  8
0
 10
142.60007502408209
 20
33.182870747336842
 30
0.0
  0
VERTEX
  5
237E
  8
0
 10
143.00837500873101
 20
32.21773370049965
 30
0.0
  0
VERTEX
  5
237F
  8
0
 10
143.73735237676351
 20
31.347085905302691
 30
0.0
  0
VERTEX
  5
2380
  8
0
 10
144.4360972181816
 20
30.81791565851438
 30
0.0
  0
VERTEX
  5
2381
  8
0
 10
145.2323903801755
 20
30.395883986388611
 30
0.0
  0
VERTEX
  5
2382
  8
0
 10
146.57840473026769
 20
29.944218816102111
 30
0.0
  0
VERTEX
  5
2383
  8
0
 10
148.0111733881069
 20
29.688675312816059
 30
0.0
  0
VERTEX
  5
2384
  8
0
 10
149.9404157148154
 20
29.555048028888731
 30
0.0
  0
VERTEX
  5
2385
  8
0
 10
151.88320384031371
 20
29.53358208931715
 30
0.0
  0
SEQEND
  5
2386
  8
0
  0
POLYLINE
  5
1627
  8
0
 66
     1
 10
0.0
 20
0.0
 30
0.0
 70
   128
  0
VERTEX
  5
2387
  8
0
 10
155.0022421536448
 20
29.53358208931715
 30
0.0
  0
VERTEX
  5
2388
  8
0
 10
157.14830199986699
 20
29.561784839302248
 30
0.0
  0
VERTEX
  5
2389
  8
0
 10
159.2943618460892
 20
29.745673905134971
 30
0.0
  0
VERTEX
  5
238A
  8
0
 10
160.7266781631532
 20
30.05788963836665
 30
0.0
  0
VERTEX
  5
238B
  8
0
 10
162.12038825346701
 20
30.625184841541941
 30
0.0
  0
VERTEX
  5
238C
  8
0
 10
163.28369586640241
 20
31.475802955385461
 30
0.0
  0
VERTEX
  5
238D
  8
0
 10
163.74788544039291
 20
32.021944960029941
 30
0.0
  0
VERTEX
  5
238E
  8
0
 10
164.11213306042129
 20
32.669032042152388
 30
0.0
  0
VERTEX
  5
238F
  8
0
 10
164.36911673754491
 20
33.711445250467023
 30
0.0
  0
VERTEX
  5
2390
  8
0
 10
164.37707711599339
 20
33.933582089317163
 30
0.0
  0
SEQEND
  5
2391
  8
0
  0
LINE
  5
1628
  8
0
 10
164.4427229969792
 20
33.933582089317163
 30
0.0
 11
164.37707711599339
 21
33.933582089317163
 31
0.0
  0
LINE
  5
1629
  8
0
 10
164.4427229969792
 20
37.53358208931715
 30
0.0
 11
164.4427229969792
 21
29.53358208931715
 31
0.0
  0
LINE
  5
162A
  8
0
 10
158.1927229969794
 20
47.455149505809167
 30
0.0
 11
148.6927229969792
 21
47.455149505809167
 31
0.0
  0
LINE
  5
162B
  8
0
 10
146.59272299697929
 20
37.53358208931715
 30
0.0
 11
146.59272299697929
 21
46.140410773565549
 31
0.0
  0
LINE
  5
162C
  8
0
 10
160.29272299697931
 20
46.140410773565549
 30
0.0
 11
160.29272299697891
 21
37.53358208931715
 31
0.0
  0
LINE
  5
162D
  8
0
 10
142.50836887796521
 20
37.53358208931715
 30
0.0
 11
142.50836887796521
 21
33.933582089317163
 31
0.0
  0
LINE
  5
1630
  8
0
 10
164.37707711599339
 20
33.933582089317163
 30
0.0
 11
164.37707711599339
 21
37.53358208931715
 31
0.0
  0
LINE
  5
1634
  8
0
 10
142.44272299697931
 20
29.533582089317122
 30
0.0
 11
164.4427229969792
 21
29.53358208931715
 31
0.0
  0
LINE
  5
1635
  8
0
 10
164.37707711599339
 20
37.53358208931715
 30
0.0
 11
142.4427229969794
 21
37.53358208931715
 31
0.0
  0
LINE
  5
1636
  8
0
 10
159.4427229969792
 20
136.4600820893171
 30
0.0
 11
147.44272299697931
 21
136.4600820893171
 31
0.0
  0
LINE
  5
1637
  8
0
 10
158.1927229969792
 20
70.368518579856158
 30
0.0
 11
148.6927229969792
 21
70.368518579856158
 31
0.0
  0
LINE
  5
1638
  8
0
 10
158.3692229969792
 20
137.53358208931721
 30
0.0
 11
148.5162229969792
 21
137.53358208931721
 31
0.0
  0
LINE
  5
163A
  8
0
 10
164.9427229969792
 20
62.533582089317179
 30
0.0
 11
189.9427229969792
 21
62.533582089317122
 31
0.0
  0
LINE
  5
163C
  8
0
 10
164.9427229969792
 20
56.53358208931715
 30
0.0
 11
189.9427229969792
 21
56.533582089317122
 31
0.0
  0
LINE
  5
163E
  8
0
 10
168.4427229969792
 20
69.533582089317164
 30
0.0
 11
186.4427229969792
 21
69.53358208931715
 31
0.0
  0
LINE
  5
163F
  8
0
 10
172.02007326616899
 20
121.53358208931709
 30
0.0
 11
182.86537272778969
 21
121.53358208931709
 31
0.0
  0
LINE
  5
1640
  8
0
 10
183.4427229969792
 20
120.53358208931709
 30
0.0
 11
171.4427229969792
 21
120.53358208931709
 31
0.0
  0
LINE
  5
1641
  8
0
 10
181.04272299697931
 20
70.147941443262084
 30
0.0
 11
173.84272299697929
 21
70.147941443262084
 31
0.0
  0
LINE
  5
1643
  8
0
 10
140.44272299697931
 20
92.033582089317164
 30
0.0
 11
166.4427229969792
 21
92.033582089317164
 31
0.0
  0
LINE
  5
1645
  8
0
 10
140.44272299697931
 20
95.033582089317179
 30
0.0
 11
166.4427229969792
 21
95.033582089317179
 31
0.0
  0
LINE
  5
1646
  8
0
 10
147.95789543967791
 20
95.033582089317179
 30
0.0
 11
147.95789543967791
 21
106.8964011786904
 31
0.0
  0
ARC
  5
1647
  8
0
 10
153.4427229969792
 20
88.974329800920202
 30
0.0
 40
18.742571216437341
 50
72.983919892827771
 51
107.0160801071721
  0
LINE
  5
1648
  8
0
 10
158.9275505542808
 20
95.033582089317179
 30
0.0
 11
158.9275505542808
 21
106.8964011786904
 31
0.0
  0
LINE
  5
164A
  8
0
 10
144.44272299697931
 20
108.03358208931709
 30
0.0
 11
162.4427229969792
 21
108.03358208931709
 31
0.0
  0
ARC
  5
164B
  8
0
 10
161.66996433293161
 20
102.7532121816666
 30
0.0
 40
4.968586156885288
 50
56.499069126498377
 51
123.5009308735047
  0
ARC
  5
164C
  8
0
 10
145.21548166102721
 20
102.7532121816663
 30
0.0
 40
4.9685861568856211
 50
56.499069126498839
 51
123.5009308735014
  0
LINE
  5
164D
  8
0
 10
142.4730678823764
 20
95.033582089317179
 30
0.0
 11
142.4730678823764
 21
106.8964011786904
 31
0.0
  0
LINE
  5
164E
  8
0
 10
164.4123781115822
 20
95.033582089317179
 30
0.0
 11
164.4123781115822
 21
106.8964011786904
 31
0.0
  0
LINE
  5
164F
  8
0
 10
140.44272299697931
 20
88.033582089317122
 30
0.0
 11
166.4427229969792
 21
88.033582089317122
 31
0.0
  0
LINE
  5
1650
  8
0
 10
166.4427229969792
 20
91.033582089317136
 30
0.0
 11
140.44272299697931
 21
91.033582089317136
 31
0.0
  0
LINE
  5
1651
  8
0
 10
140.94272299697931
 20
91.53358208931715
 30
0.0
 11
165.9427229969792
 21
91.53358208931715
 31
0.0
  0
LINE
  5
1652
  8
0
 10
188.4427229969792
 20
87.53358208931715
 30
0.0
 11
188.4427229969792
 21
71.53358208931715
 31
0.0
  0
LINE
  5
1653
  8
0
 10
121.04272299697929
 20
73.511606236223116
 30
0.0
 11
139.04272299697931
 21
71.53358208931715
 31
0.0
  0
ARC
  5
1654
  8
0
 10
114.4427229969792
 20
83.533582089317136
 30
0.0
 40
12.000000000000011
 50
240.0000000000002
 51
303.36701296923252
  0
LINE
  5
1655
  8
0
 10
108.4427229969792
 20
87.53358208931715
 30
0.0
 11
108.4427229969792
 21
73.141277243903886
 31
0.0
  0
LINE
  5
1656
  8
0
 10
188.4427229969792
 20
71.53358208931715
 30
0.0
 11
139.04272299697931
 21
71.53358208931715
 31
0.0
  0
LINE
  5
1657
  8
0
 10
108.4427229969792
 20
87.53358208931715
 30
0.0
 11
188.4427229969792
 21
87.53358208931715
 31
0.0
  0
LINE
  5
1658
  8
1
 10
128.44272299697931
 20
90.53358208931715
 30
0.0
 11
128.44272299697931
 21
69.680359094493525
 31
0.0
  0
LINE
  5
1670
  8
3
 10
158.56772299697931
 20
137.33508208931721
 30
0.0
 11
158.5677229969794
 21
108.03358208931709
 31
0.0
  0
LINE
  5
1671
  8
3
 10
148.31772299697931
 20
137.33508208931721
 30
0.0
 11
148.3177229969794
 21
108.03358208931709
 31
0.0
  0
LINE
  5
1672
  8
3
 10
182.56772299697931
 20
121.53358208931709
 30
0.0
 11
182.56772299697931
 21
87.53358208931715
 31
0.0
  0
LINE
  5
1673
  8
3
 10
172.31772299697931
 20
121.53358208931709
 30
0.0
 11
172.31772299697931
 21
87.53358208931715
 31
0.0
  0
LINE
  5
1675
  8
1
 10
153.44272299697931
 20
142.53358208931721
 30
0.0
 11
153.44272299697931
 21
24.533582089317122
 31
0.0
  0
LINE
  5
1679
  8
1
 10
177.44272299697931
 20
51.533582089317122
 30
0.0
 11
177.4427229969794
 21
126.53358208931709
 31
0.0
  0
CIRCLE
  5
16D2
  8
0
 10
153.44272299697931
 20
200.69748602328991
 30
0.0
 40
6.0
  0
CIRCLE
  5
16D5
  8
0
 10
177.4427229969792
 20
200.69748602329
 30
0.0
 40
6.0
  0
LINE
  5
16D6
  8
0
 10
179.17477380454821
 20
203.69748602329
 30
0.0
 11
175.71067218941039
 21
203.69748602329
 31
0.0
  0
LINE
  5
16D7
  8
0
 10
173.97862138184149
 20
200.69748602329
 30
0.0
 11
175.71067218941039
 21
197.69748602329
 31
0.0
  0
LINE
  5
16D8
  8
0
 10
175.71067218941039
 20
197.69748602329
 30
0.0
 11
179.17477380454821
 21
197.69748602329
 31
0.0
  0
LINE
  5
16D9
  8
0
 10
179.17477380454821
 20
197.69748602329
 30
0.0
 11
180.90682461211711
 21
200.69748602329
 31
0.0
  0
LINE
  5
16DA
  8
0
 10
180.90682461211711
 20
200.69748602329
 30
0.0
 11
179.17477380454821
 21
203.69748602329
 31
0.0
  0
LINE
  5
16DB
  8
0
 10
175.71067218941039
 20
203.69748602329
 30
0.0
 11
173.97862138184149
 21
200.69748602329
 31
0.0
  0
ARC
  5
16DC
  8
0
 10
177.4427229969792
 20
200.69748602329031
 30
0.0
 40
12.50000000000002
 50
331.64236342367252
 51
28.357636576328211
  0
CIRCLE
  5
16DD
  8
0
 10
153.44272299697931
 20
200.69748602328991
 30
0.0
 40
8.9999999999999432
  0
LINE
  5
16DF
  8
0
 10
142.4730678823764
 20
200.69748602329
 30
0.0
 11
147.9578954396778
 21
210.19748602328991
 31
0.0
  0
LINE
  5
16E0
  8
0
 10
147.9578954396778
 20
210.19748602328991
 30
0.0
 11
158.92755055428071
 21
210.19748602328991
 31
0.0
  0
LINE
  5
16E1
  8
0
 10
158.92755055428071
 20
210.19748602328991
 30
0.0
 11
164.4123781115822
 21
200.69748602328991
 31
0.0
  0
LINE
  5
16E2
  8
0
 10
164.4123781115822
 20
200.69748602328991
 30
0.0
 11
158.9275505542808
 21
191.19748602328991
 31
0.0
  0
LINE
  5
16E3
  8
0
 10
158.9275505542808
 20
191.19748602328991
 30
0.0
 11
147.95789543967791
 21
191.19748602328991
 31
0.0
  0
LINE
  5
16E4
  8
0
 10
147.95789543967791
 20
191.19748602328991
 30
0.0
 11
142.4730678823764
 21
200.69748602329
 31
0.0
  0
CIRCLE
  5
16E5
  8
0
 10
153.44272299697931
 20
200.69748602329
 30
0.0
 40
13.0
  0
LINE
  5
16E6
  8
0
 10
108.4427229969792
 20
216.69748602329011
 30
0.0
 11
188.4427229969792
 21
216.69748602329011
 31
0.0
  0
LINE
  5
16E7
  8
0
 10
188.4427229969792
 20
184.69748602329
 30
0.0
 11
188.4427229969792
 21
216.69748602329011
 31
0.0
  0
LINE
  5
16E8
  8
0
 10
108.4427229969792
 20
184.69748602329
 30
0.0
 11
188.4427229969792
 21
184.69748602329
 31
0.0
  0
LINE
  5
16E9
  8
0
 10
108.4427229969792
 20
184.69748602329
 30
0.0
 11
108.4427229969792
 21
216.69748602329011
 31
0.0
  0
LINE
  5
16EA
  8
0
 10
128.4427229969792
 20
207.19748602329
 30
0.0
 11
142.1843927477816
 21
207.19748602329
 31
0.0
  0
ARC
  5
16EB
  8
0
 10
128.4427229969792
 20
200.69748602329
 30
0.0
 40
6.5
 50
90.0
 51
270.0
  0
LINE
  5
16EC
  8
0
 10
142.18439274778149
 20
194.19748602329
 30
0.0
 11
128.4427229969792
 21
194.19748602329
 31
0.0
  0
CIRCLE
  5
16F5
  8
3
 10
153.44272299697931
 20
200.69748602328991
 30
0.0
 40
5.125
  0
CIRCLE
  5
16F6
  8
3
 10
177.44272299697931
 20
200.69748602329011
 30
0.0
 40
5.125
  0
LINE
  5
16F7
  8
1
 10
103.4427229969792
 20
200.69748602329011
 30
0.0
 11
194.9427229969792
 21
200.69748602329011
 31
0.0
  0
ARC
  5
16F8
  8
0
 10
42.442722996979462
 20
37.533582089316667
 30
0.0
 40
11.00000000000041
 50
115.58300197739899
 51
179.9999999999973
  0
ARC
  5
16F9
  8
0
 10
42.442722996979462
 20
37.533582089316667
 30
0.0
 40
11.00000000000024
 50
0.0000000000026462
 51
64.416998022601305
  0
LINE
  5
16FA
  8
0
 10
37.020073266168772
 20
71.53358208931715
 30
0.0
 11
37.692722996979121
 21
70.368518579856158
 31
0.0
  0
LINE
  5
16FB
  8
0
 10
47.192722996979107
 20
70.368518579856158
 30
0.0
 11
47.865372727789463
 21
71.53358208931715
 31
0.0
  0
LINE
  5
16FC
  8
0
 10
48.442722996979107
 20
108.03358208931709
 30
0.0
 11
48.442722996979107
 21
136.4600820893171
 31
0.0
  0
LINE
  5
16FD
  8
0
 10
36.442722996979121
 20
136.4600820893171
 30
0.0
 11
36.442722996979121
 21
108.03358208931709
 31
0.0
  0
LINE
  5
16FE
  8
0
 10
48.442722996979107
 20
136.4600820893171
 30
0.0
 11
47.369222996979147
 21
137.53358208931721
 31
0.0
  0
LINE
  5
16FF
  8
0
 10
37.516222996979081
 20
137.53358208931721
 30
0.0
 11
36.442722996979121
 21
136.4600820893171
 31
0.0
  0
LINE
  5
1700
  8
0
 10
47.192722996979107
 20
47.455149505809139
 30
0.0
 11
47.192722996979107
 21
70.368518579856158
 31
0.0
  0
LINE
  5
1701
  8
0
 10
37.692722996979121
 20
70.368518579856158
 30
0.0
 11
37.692722996979121
 21
47.455149505809139
 31
0.0
  0
LINE
  5
1702
  8
0
 10
29.94272299697889
 20
62.533582089317179
 30
0.0
 11
29.94272299697889
 21
56.53358208931715
 31
0.0
  0
LINE
  5
1703
  8
0
 10
54.942722996978887
 20
56.53358208931715
 30
0.0
 11
54.942722996978887
 21
62.533582089317179
 31
0.0
  0
LINE
  5
1704
  8
0
 10
33.442722996978887
 20
69.533582089317164
 30
0.0
 11
33.442722996978887
 21
62.533582089317179
 31
0.0
  0
LINE
  5
1705
  8
0
 10
51.44272299697888
 20
62.533582089317179
 30
0.0
 11
51.44272299697888
 21
69.533582089317164
 31
0.0
  0
LINE
  5
1706
  8
0
 10
36.442722996978887
 20
71.53358208931715
 30
0.0
 11
37.308748400763761
 21
71.033582089316951
 31
0.0
  0
LINE
  5
1707
  8
0
 10
47.576697593194687
 20
71.033582089317349
 30
0.0
 11
48.44272299697888
 21
71.53358208931715
 31
0.0
  0
POLYLINE
  5
1708
  8
0
 66
     1
 10
0.0
 20
0.0
 30
0.0
 70
   128
  0
VERTEX
  5
2392
  8
0
 10
54.347049451290097
 20
91.533582089317179
 30
0.0
  0
VERTEX
  5
2393
  8
0
 10
54.782873950724927
 20
91.72611214998733
 30
0.0
  0
VERTEX
  5
2394
  8
0
 10
55.442722996979121
 20
92.033582089317164
 30
0.0
  0
SEQEND
  5
2395
  8
0
  0
POLYLINE
  5
1709
  8
0
 66
     1
 10
0.0
 20
0.0
 30
0.0
 70
   128
  0
VERTEX
  5
2396
  8
0
 10
29.442722996979121
 20
92.033582089317164
 30
0.0
  0
VERTEX
  5
2397
  8
0
 10
30.102572043233181
 20
91.72611214998733
 30
0.0
  0
VERTEX
  5
2398
  8
0
 10
30.538396542668131
 20
91.533582089317179
 30
0.0
  0
SEQEND
  5
2399
  8
0
  0
LINE
  5
170A
  8
0
 10
29.442722996979121
 20
95.033582089317179
 30
0.0
 11
29.442722996979121
 21
92.033582089317164
 31
0.0
  0
LINE
  5
170B
  8
0
 10
55.442722996979121
 20
92.033582089317164
 30
0.0
 11
55.442722996979121
 21
95.033582089317179
 31
0.0
  0
LINE
  5
170C
  8
0
 10
51.942722996979107
 20
107.7449069547223
 30
0.0
 11
51.442722996979107
 21
108.03358208931709
 31
0.0
  0
LINE
  5
170D
  8
0
 10
33.442722996979107
 20
108.03358208931709
 30
0.0
 11
32.942722996979121
 21
107.7449069547223
 31
0.0
  0
LINE
  5
170E
  8
0
 10
55.442722996979121
 20
91.033582089317179
 30
0.0
 11
54.942722996979107
 21
91.533582089317179
 31
0.0
  0
LINE
  5
170F
  8
0
 10
29.942722996979111
 20
91.533582089317179
 30
0.0
 11
29.442722996979121
 21
91.033582089317179
 31
0.0
  0
LINE
  5
1710
  8
0
 10
55.442722996979121
 20
88.03358208931715
 30
0.0
 11
55.442722996979121
 21
91.033582089317179
 31
0.0
  0
LINE
  5
1711
  8
0
 10
29.442722996979121
 20
91.033582089317179
 30
0.0
 11
29.442722996979121
 21
88.03358208931715
 31
0.0
  0
LINE
  5
1712
  8
0
 10
29.442722996979121
 20
88.03358208931715
 30
0.0
 11
29.942722996979111
 21
87.53358208931715
 31
0.0
  0
LINE
  5
1713
  8
0
 10
54.942722996979107
 20
87.53358208931715
 30
0.0
 11
55.442722996979121
 21
88.03358208931715
 31
0.0
  0
LINE
  5
1714
  8
0
 10
26.442722996979231
 20
71.53358208931715
 30
0.0
 11
58.442722996979228
 21
71.53358208931715
 31
0.0
  0
LINE
  5
1715
  8
0
 10
31.50836887796504
 20
33.933582089317163
 30
0.0
 11
31.442722996979121
 21
33.933582089317163
 31
0.0
  0
POLYLINE
  5
1716
  8
0
 66
     1
 10
0.0
 20
0.0
 30
0.0
 70
   128
  0
VERTEX
  5
239A
  8
0
 10
31.50836887796504
 20
33.933582089317163
 30
0.0
  0
VERTEX
  5
239B
  8
0
 10
31.600075024081889
 20
33.182870747336807
 30
0.0
  0
VERTEX
  5
239C
  8
0
 10
32.008375008730923
 20
32.217733700499622
 30
0.0
  0
VERTEX
  5
239D
  8
0
 10
32.737352376763397
 20
31.347085905302659
 30
0.0
  0
VERTEX
  5
239E
  8
0
 10
33.43609721818143
 20
30.81791565851438
 30
0.0
  0
VERTEX
  5
239F
  8
0
 10
34.232390380175389
 20
30.395883986388579
 30
0.0
  0
VERTEX
  5
23A0
  8
0
 10
35.578404730267607
 20
29.944218816102111
 30
0.0
  0
VERTEX
  5
23A1
  8
0
 10
37.01117338810684
 20
29.688675312816059
 30
0.0
  0
VERTEX
  5
23A2
  8
0
 10
38.940415714815352
 20
29.555048028888731
 30
0.0
  0
VERTEX
  5
23A3
  8
0
 10
40.88320384031362
 20
29.533582089317179
 30
0.0
  0
SEQEND
  5
23A4
  8
0
  0
LINE
  5
1717
  8
0
 10
53.442722996979107
 20
29.533582089317179
 30
0.0
 11
31.442722996979121
 21
29.533582089317179
 31
0.0
  0
LINE
  5
1718
  8
0
 10
31.442722996979121
 20
29.533582089317179
 30
0.0
 11
31.442722996979061
 21
37.533582089317179
 31
0.0
  0
POLYLINE
  5
171A
  8
0
 66
     1
 10
0.0
 20
0.0
 30
0.0
 70
   128
  0
VERTEX
  5
23A5
  8
0
 10
44.002242153644708
 20
29.533582089317179
 30
0.0
  0
VERTEX
  5
23A6
  8
0
 10
46.148301999866931
 20
29.56178483930228
 30
0.0
  0
VERTEX
  5
23A7
  8
0
 10
48.294361846089153
 20
29.745673905134971
 30
0.0
  0
VERTEX
  5
23A8
  8
0
 10
49.72667816315311
 20
30.05788963836665
 30
0.0
  0
VERTEX
  5
23A9
  8
0
 10
51.120388253466899
 20
30.625184841541941
 30
0.0
  0
VERTEX
  5
23AA
  8
0
 10
52.283695866402347
 20
31.47580295538549
 30
0.0
  0
VERTEX
  5
23AB
  8
0
 10
52.747885440392793
 20
32.021944960029913
 30
0.0
  0
VERTEX
  5
23AC
  8
0
 10
53.112133060421229
 20
32.669032042152388
 30
0.0
  0
VERTEX
  5
23AD
  8
0
 10
53.3691167375448
 20
33.711445250467023
 30
0.0
  0
VERTEX
  5
23AE
  8
0
 10
53.377077115993188
 20
33.933582089317163
 30
0.0
  0
SEQEND
  5
23AF
  8
0
  0
LINE
  5
171B
  8
0
 10
53.442722996979107
 20
33.933582089317163
 30
0.0
 11
53.377077115993188
 21
33.933582089317163
 31
0.0
  0
LINE
  5
171E
  8
0
 10
31.50836887796504
 20
37.533582089317179
 30
0.0
 11
31.50836887796504
 21
33.933582089317163
 31
0.0
  0
LINE
  5
171F
  8
0
 10
53.442722996979683
 20
37.533582089316667
 30
0.0
 11
31.442722996979121
 21
37.533582089316667
 31
0.0
  0
LINE
  5
1720
  8
0
 10
53.377077115993188
 20
33.933582089317163
 30
0.0
 11
53.377077115993188
 21
37.533582089317179
 31
0.0
  0
LINE
  5
1724
  8
0
 10
53.442722996979107
 20
37.533582089317179
 30
0.0
 11
53.442722996979107
 21
29.533582089317179
 31
0.0
  0
LINE
  5
1725
  8
0
 10
47.192722996979107
 20
47.455149505809139
 30
0.0
 11
37.692722996979121
 21
47.455149505809139
 31
0.0
  0
ARC
  5
1727
  8
0
 10
42.442722996979562
 20
37.533582089316667
 30
0.0
 40
8.6068286842488533
 50
0.0000000000034604
 51
179.9999999999965
  0
LINE
  5
1728
  8
0
 10
42.442722996979107
 20
70.368518579856158
 30
0.0
 11
37.692722996979121
 21
70.368518579856158
 31
0.0
  0
LINE
  5
1729
  8
0
 10
47.192722996979107
 20
70.368518579856158
 30
0.0
 11
42.442722996979107
 21
70.368518579856158
 31
0.0
  0
LINE
  5
172B
  8
0
 10
48.442722996979107
 20
136.4600820893171
 30
0.0
 11
36.442722996979121
 21
136.4600820893171
 31
0.0
  0
LINE
  5
172D
  8
0
 10
47.369222996979147
 20
137.53358208931721
 30
0.0
 11
37.516222996979202
 21
137.53358208931721
 31
0.0
  0
LINE
  5
172E
  8
0
 10
29.94272299697889
 20
56.53358208931715
 30
0.0
 11
37.692722996979121
 21
56.53358208931715
 31
0.0
  0
LINE
  5
172F
  8
0
 10
47.192722996979107
 20
56.53358208931715
 30
0.0
 11
54.942722996978887
 21
56.53358208931715
 31
0.0
  0
LINE
  5
1730
  8
0
 10
29.94272299697889
 20
62.533582089317179
 30
0.0
 11
37.692722996979121
 21
62.533582089317179
 31
0.0
  0
LINE
  5
1731
  8
0
 10
47.192722996979107
 20
62.533582089317179
 30
0.0
 11
54.942722996978887
 21
62.533582089317179
 31
0.0
  0
LINE
  5
1732
  8
0
 10
33.442722996978887
 20
69.533582089317164
 30
0.0
 11
37.692722996979121
 21
69.533582089317164
 31
0.0
  0
LINE
  5
1733
  8
0
 10
47.192722996979107
 20
69.533582089317164
 30
0.0
 11
51.44272299697888
 21
69.533582089317164
 31
0.0
  0
LINE
  5
1734
  8
0
 10
29.442722996979121
 20
92.033582089317164
 30
0.0
 11
55.442722996979121
 21
92.033582089317164
 31
0.0
  0
LINE
  5
1735
  8
0
 10
29.442722996979121
 20
95.033582089317179
 30
0.0
 11
55.442722996979121
 21
95.033582089317179
 31
0.0
  0
LINE
  5
1736
  8
0
 10
33.442722996979107
 20
108.03358208931709
 30
0.0
 11
51.442722996979107
 21
108.03358208931709
 31
0.0
  0
ARC
  5
1737
  8
0
 10
37.692722996979121
 20
93.773335898502751
 30
0.0
 40
13.95626534385427
 50
70.101865707357135
 51
109.89813429264279
  0
ARC
  5
173A
  8
0
 10
47.192722996979107
 20
93.773335898502864
 30
0.0
 40
13.95626534385419
 50
70.101865707357135
 51
109.89813429264279
  0
LINE
  5
173B
  8
0
 10
32.942722996979121
 20
95.033582089317179
 30
0.0
 11
32.942722996979121
 21
107.7449069547223
 31
0.0
  0
LINE
  5
173C
  8
0
 10
42.442722996979107
 20
95.033582089317179
 30
0.0
 11
42.442722996979107
 21
106.8964011786904
 31
0.0
  0
LINE
  5
173D
  8
0
 10
51.942722996979107
 20
95.033582089317179
 30
0.0
 11
51.942722996979107
 21
107.7449069547223
 31
0.0
  0
LINE
  5
173E
  8
0
 10
55.442722996979121
 20
91.033582089317179
 30
0.0
 11
29.442722996979121
 21
91.033582089317179
 31
0.0
  0
LINE
  5
173F
  8
0
 10
29.942722996979111
 20
91.533582089317179
 30
0.0
 11
54.942722996979107
 21
91.533582089317179
 31
0.0
  0
LINE
  5
1741
  8
0
 10
29.442722996979121
 20
88.03358208931715
 30
0.0
 11
55.442722996979121
 21
88.03358208931715
 31
0.0
  0
LINE
  5
1743
  8
0
 10
58.442722996979228
 20
73.141277243903914
 30
0.0
 11
26.442722996979231
 21
73.141277243903914
 31
0.0
  0
LINE
  5
1745
  8
0
 10
26.442722996979231
 20
87.53358208931715
 30
0.0
 11
26.442722996979288
 21
71.533582089317179
 31
0.0
  0
LINE
  5
1746
  8
0
 10
58.442722996979228
 20
87.53358208931715
 30
0.0
 11
58.442722996979228
 21
71.533582089317179
 31
0.0
  0
LINE
  5
1747
  8
0
 10
58.442722996979228
 20
87.53358208931715
 30
0.0
 11
26.442722996979231
 21
87.53358208931715
 31
0.0
  0
LINE
  5
174D
  8
3
 10
47.567722996979001
 20
137.33508208931741
 30
0.0
 11
47.567722996978773
 21
108.03358208931709
 31
0.0
  0
LINE
  5
174E
  8
3
 10
37.31772299697883
 20
137.3350820893169
 30
0.0
 11
37.317722996978887
 21
108.03358208931709
 31
0.0
  0
LINE
  5
174F
  8
1
 10
42.442722996979107
 20
142.53358208931721
 30
0.0
 11
42.442722996979107
 21
24.533582089317179
 31
0.0
  0
ARC
  5
17A2
  8
0
 10
254.4427229969788
 20
37.533582089316667
 30
0.0
 40
11.00000000000021
 50
115.5830019773986
 51
179.9999999999973
  0
ARC
  5
17A3
  8
0
 10
254.4427229969788
 20
37.533582089316667
 30
0.0
 40
11.00000000000043
 50
0.0000000000026462
 51
64.416998022600964
  0
LINE
  5
17A4
  8
0
 10
260.44272299697923
 20
136.4600820893171
 30
0.0
 11
259.36922299697932
 21
137.53358208931721
 31
0.0
  0
LINE
  5
17A5
  8
0
 10
249.5162229969792
 20
137.53358208931721
 30
0.0
 11
248.4427229969792
 21
136.4600820893171
 31
0.0
  0
LINE
  5
17A6
  8
0
 10
249.30874840076379
 20
71.033582089317207
 30
0.0
 11
249.6927229969792
 21
70.368518579856158
 31
0.0
  0
LINE
  5
17A7
  8
0
 10
259.19272299697923
 20
70.368518579856158
 30
0.0
 11
259.57669759319469
 21
71.033582089317093
 31
0.0
  0
LINE
  5
17A8
  8
0
 10
260.44272299697923
 20
120.53358208931731
 30
0.0
 11
260.44272299697923
 21
136.4600820893171
 31
0.0
  0
LINE
  5
17A9
  8
0
 10
248.4427229969792
 20
136.4600820893171
 30
0.0
 11
248.4427229969792
 21
120.53358208931699
 31
0.0
  0
LINE
  5
17AA
  8
0
 10
259.19272299697923
 20
47.455149505809139
 30
0.0
 11
259.19272299697923
 21
56.53358208931715
 31
0.0
  0
LINE
  5
17AB
  8
0
 10
259.19272299697923
 20
69.533582089317164
 30
0.0
 11
259.19272299697923
 21
70.368518579856158
 31
0.0
  0
LINE
  5
17AC
  8
0
 10
249.6927229969792
 20
70.368518579856158
 30
0.0
 11
249.6927229969792
 21
69.533582089317164
 31
0.0
  0
LINE
  5
17AD
  8
0
 10
249.6927229969792
 20
56.53358208931715
 30
0.0
 11
249.6927229969792
 21
47.455149505809139
 31
0.0
  0
LINE
  5
17AE
  8
0
 10
241.9427229969794
 20
62.533582089317179
 30
0.0
 11
241.9427229969794
 21
56.53358208931715
 31
0.0
  0
LINE
  5
17AF
  8
0
 10
266.9427229969794
 20
56.53358208931715
 30
0.0
 11
266.9427229969794
 21
62.533582089317179
 31
0.0
  0
LINE
  5
17B0
  8
0
 10
245.44272299697951
 20
69.533582089317164
 30
0.0
 11
245.44272299697951
 21
62.533582089317179
 31
0.0
  0
LINE
  5
17B1
  8
0
 10
263.4427229969794
 20
62.533582089317179
 30
0.0
 11
263.4427229969794
 21
69.533582089317164
 31
0.0
  0
LINE
  5
17B2
  8
0
 10
260.44272299697951
 20
120.53358208931709
 30
0.0
 11
259.86537272778969
 21
121.53358208931709
 31
0.0
  0
LINE
  5
17B3
  8
0
 10
249.02007326616899
 20
121.53358208931709
 30
0.0
 11
248.4427229969794
 21
120.53358208931709
 31
0.0
  0
LINE
  5
17B4
  8
0
 10
248.4427229969794
 20
71.53358208931715
 30
0.0
 11
250.84272299697929
 21
70.147941443262084
 31
0.0
  0
LINE
  5
17B5
  8
0
 10
258.04272299697942
 20
70.147941443262084
 30
0.0
 11
260.44272299697951
 21
71.53358208931715
 31
0.0
  0
LINE
  5
17B6
  8
0
 10
248.4427229969794
 20
120.53358208931709
 30
0.0
 11
248.4427229969794
 21
87.53358208931715
 31
0.0
  0
LINE
  5
17B7
  8
0
 10
248.4427229969794
 20
76.53358208931715
 30
0.0
 11
248.4427229969794
 21
71.53358208931715
 31
0.0
  0
LINE
  5
17B8
  8
0
 10
260.44272299697951
 20
71.53358208931715
 30
0.0
 11
260.44272299697951
 21
76.53358208931715
 31
0.0
  0
LINE
  5
17B9
  8
0
 10
260.44272299697951
 20
87.53358208931715
 30
0.0
 11
260.44272299697951
 21
120.53358208931709
 31
0.0
  0
LINE
  5
17BA
  8
0
 10
258.04272299697942
 20
69.533582089317164
 30
0.0
 11
258.04272299697942
 21
70.147941443262084
 31
0.0
  0
LINE
  5
17BB
  8
0
 10
250.84272299697929
 20
70.147941443262084
 30
0.0
 11
250.84272299697929
 21
69.533582089317164
 31
0.0
  0
LINE
  5
17BC
  8
0
 10
241.4427229969792
 20
95.033582089317179
 30
0.0
 11
241.4427229969792
 21
92.033582089317164
 31
0.0
  0
LINE
  5
17BD
  8
0
 10
267.44272299697923
 20
92.033582089317164
 30
0.0
 11
267.44272299697923
 21
95.033582089317179
 31
0.0
  0
POLYLINE
  5
17BE
  8
0
 66
     1
 10
0.0
 20
0.0
 30
0.0
 70
   128
  0
VERTEX
  5
23B0
  8
0
 10
266.34704945129027
 20
91.533582089317179
 30
0.0
  0
VERTEX
  5
23B1
  8
0
 10
266.7828739507251
 20
91.726112149987287
 30
0.0
  0
VERTEX
  5
23B2
  8
0
 10
267.44272299697923
 20
92.033582089317164
 30
0.0
  0
SEQEND
  5
23B3
  8
0
  0
POLYLINE
  5
17BF
  8
0
 66
     1
 10
0.0
 20
0.0
 30
0.0
 70
   128
  0
VERTEX
  5
23B4
  8
0
 10
241.4427229969792
 20
92.033582089317164
 30
0.0
  0
VERTEX
  5
23B5
  8
0
 10
242.10257204323349
 20
91.72611214998733
 30
0.0
  0
VERTEX
  5
23B6
  8
0
 10
242.53839654266829
 20
91.533582089317179
 30
0.0
  0
SEQEND
  5
23B7
  8
0
  0
LINE
  5
17C0
  8
0
 10
263.94272299697923
 20
107.7449069547223
 30
0.0
 11
263.44272299697923
 21
108.03358208931709
 31
0.0
  0
LINE
  5
17C1
  8
0
 10
245.4427229969792
 20
108.03358208931709
 30
0.0
 11
244.9427229969792
 21
107.7449069547223
 31
0.0
  0
LINE
  5
17C2
  8
0
 10
267.44272299697923
 20
88.033582089317122
 30
0.0
 11
267.44272299697923
 21
91.033582089317179
 31
0.0
  0
LINE
  5
17C3
  8
0
 10
241.4427229969792
 20
91.033582089317179
 30
0.0
 11
241.4427229969792
 21
88.033582089317122
 31
0.0
  0
LINE
  5
17C4
  8
0
 10
267.44272299697923
 20
91.033582089317179
 30
0.0
 11
266.94272299697923
 21
91.533582089317179
 31
0.0
  0
LINE
  5
17C5
  8
0
 10
241.9427229969792
 20
91.533582089317179
 30
0.0
 11
241.4427229969792
 21
91.033582089317179
 31
0.0
  0
LINE
  5
17C6
  8
0
 10
241.4427229969792
 20
88.033582089317122
 30
0.0
 11
241.9427229969792
 21
87.53358208931715
 31
0.0
  0
LINE
  5
17C7
  8
0
 10
266.94272299697923
 20
87.53358208931715
 30
0.0
 11
267.44272299697923
 21
88.033582089317122
 31
0.0
  0
LINE
  5
17CC
  8
0
 10
243.50836887796521
 20
33.933582089317163
 30
0.0
 11
243.4427229969792
 21
33.933582089317163
 31
0.0
  0
POLYLINE
  5
17CD
  8
0
 66
     1
 10
0.0
 20
0.0
 30
0.0
 70
   128
  0
VERTEX
  5
23B8
  8
0
 10
243.50836887796521
 20
33.933582089317163
 30
0.0
  0
VERTEX
  5
23B9
  8
0
 10
243.60007502408209
 20
33.182870747336807
 30
0.0
  0
VERTEX
  5
23BA
  8
0
 10
244.00837500873101
 20
32.217733700499622
 30
0.0
  0
VERTEX
  5
23BB
  8
0
 10
244.73735237676351
 20
31.347085905302659
 30
0.0
  0
VERTEX
  5
23BC
  8
0
 10
245.43609721818169
 20
30.81791565851438
 30
0.0
  0
VERTEX
  5
23BD
  8
0
 10
246.2323903801755
 20
30.395883986388579
 30
0.0
  0
VERTEX
  5
23BE
  8
0
 10
247.57840473026769
 20
29.944218816102111
 30
0.0
  0
VERTEX
  5
23BF
  8
0
 10
249.0111733881069
 20
29.688675312816059
 30
0.0
  0
VERTEX
  5
23C0
  8
0
 10
250.9404157148156
 20
29.555048028888731
 30
0.0
  0
VERTEX
  5
23C1
  8
0
 10
252.8832038403136
 20
29.533582089317179
 30
0.0
  0
SEQEND
  5
23C2
  8
0
  0
POLYLINE
  5
17CF
  8
0
 66
     1
 10
0.0
 20
0.0
 30
0.0
 70
   128
  0
VERTEX
  5
23C3
  8
0
 10
256.00224215364477
 20
29.533582089317179
 30
0.0
  0
VERTEX
  5
23C4
  8
0
 10
258.1483019998671
 20
29.56178483930228
 30
0.0
  0
VERTEX
  5
23C5
  8
0
 10
260.2943618460892
 20
29.745673905134971
 30
0.0
  0
VERTEX
  5
23C6
  8
0
 10
261.72667816315339
 20
30.05788963836665
 30
0.0
  0
VERTEX
  5
23C7
  8
0
 10
263.1203882534669
 20
30.625184841541941
 30
0.0
  0
VERTEX
  5
23C8
  8
0
 10
264.28369586640252
 20
31.47580295538549
 30
0.0
  0
VERTEX
  5
23C9
  8
0
 10
264.74788544039302
 20
32.021944960029913
 30
0.0
  0
VERTEX
  5
23CA
  8
0
 10
265.1121330604214
 20
32.669032042152388
 30
0.0
  0
VERTEX
  5
23CB
  8
0
 10
265.3691167375448
 20
33.711445250467023
 30
0.0
  0
VERTEX
  5
23CC
  8
0
 10
265.37707711599342
 20
33.933582089317163
 30
0.0
  0
SEQEND
  5
23CD
  8
0
  0
LINE
  5
17D0
  8
0
 10
265.44272299697923
 20
33.933582089317163
 30
0.0
 11
265.37707711599342
 21
33.933582089317163
 31
0.0
  0
LINE
  5
17D2
  8
0
 10
243.44272299697909
 20
29.53358208931715
 30
0.0
 11
265.44272299697923
 21
29.533582089317179
 31
0.0
  0
LINE
  5
17D3
  8
0
 10
243.50836887796521
 20
37.533582089317179
 30
0.0
 11
243.50836887796521
 21
33.933582089317163
 31
0.0
  0
LINE
  5
17D4
  8
0
 10
265.44272299697923
 20
37.533582089317179
 30
0.0
 11
243.44272299697951
 21
37.533582089317179
 31
0.0
  0
LINE
  5
17D5
  8
0
 10
265.37707711599342
 20
33.933582089317163
 30
0.0
 11
265.37707711599342
 21
37.533582089317179
 31
0.0
  0
LINE
  5
17D7
  8
0
 10
265.44272299697923
 20
37.533582089317179
 30
0.0
 11
265.44272299697923
 21
29.533582089317179
 31
0.0
  0
LINE
  5
17D9
  8
0
 10
243.4427229969792
 20
29.53358208931715
 30
0.0
 11
243.4427229969792
 21
37.533582089317179
 31
0.0
  0
LINE
  5
17DA
  8
0
 10
259.19272299697923
 20
47.455149505809139
 30
0.0
 11
249.6927229969792
 21
47.455149505809139
 31
0.0
  0
ARC
  5
17DB
  8
0
 10
254.4427229969788
 20
37.533582089316667
 30
0.0
 40
8.6068286842488533
 50
0.0000000000034604
 51
179.99999999999261
  0
LINE
  5
17DC
  8
0
 10
260.44272299697923
 20
136.4600820893171
 30
0.0
 11
248.4427229969792
 21
136.4600820893171
 31
0.0
  0
LINE
  5
17DD
  8
0
 10
259.36922299697932
 20
137.53358208931721
 30
0.0
 11
249.5162229969792
 21
137.53358208931721
 31
0.0
  0
LINE
  5
17DE
  8
0
 10
259.19272299697923
 20
70.368518579856158
 30
0.0
 11
258.42477380454829
 21
70.368518579856158
 31
0.0
  0
LINE
  5
17DF
  8
0
 10
250.46067218941039
 20
70.368518579856158
 30
0.0
 11
249.6927229969792
 21
70.368518579856158
 31
0.0
  0
LINE
  5
17E0
  8
0
 10
241.9427229969794
 20
62.533582089317179
 30
0.0
 11
266.9427229969794
 21
62.533582089317179
 31
0.0
  0
LINE
  5
17E1
  8
0
 10
241.9427229969794
 20
56.53358208931715
 30
0.0
 11
266.9427229969794
 21
56.53358208931715
 31
0.0
  0
LINE
  5
17E2
  8
0
 10
245.44272299697951
 20
69.533582089317164
 30
0.0
 11
263.4427229969794
 21
69.533582089317164
 31
0.0
  0
LINE
  5
17E3
  8
0
 10
249.02007326616899
 20
121.53358208931709
 30
0.0
 11
259.86537272778969
 21
121.53358208931709
 31
0.0
  0
LINE
  5
17E4
  8
0
 10
260.44272299697951
 20
120.53358208931709
 30
0.0
 11
248.4427229969794
 21
120.53358208931709
 31
0.0
  0
LINE
  5
17E6
  8
0
 10
258.04272299697942
 20
70.147941443262084
 30
0.0
 11
250.84272299697929
 21
70.147941443262084
 31
0.0
  0
LINE
  5
17E7
  8
0
 10
241.4427229969792
 20
95.033582089317179
 30
0.0
 11
248.4427229969792
 21
95.033582089317179
 31
0.0
  0
LINE
  5
17E8
  8
0
 10
260.44272299697923
 20
95.033582089317179
 30
0.0
 11
267.44272299697923
 21
95.033582089317179
 31
0.0
  0
LINE
  5
17E9
  8
0
 10
241.4427229969792
 20
92.033582089317164
 30
0.0
 11
248.4427229969794
 21
92.033582089317164
 31
0.0
  0
LINE
  5
17EA
  8
0
 10
260.44272299697951
 20
92.033582089317164
 30
0.0
 11
267.44272299697923
 21
92.033582089317164
 31
0.0
  0
LINE
  5
17EB
  8
0
 10
245.4427229969792
 20
108.03358208931709
 30
0.0
 11
248.4427229969792
 21
108.03358208931709
 31
0.0
  0
LINE
  5
17EC
  8
0
 10
260.44272299697923
 20
108.03358208931709
 30
0.0
 11
263.44272299697923
 21
108.03358208931709
 31
0.0
  0
POLYLINE
  5
17EE
  8
0
 66
     1
 10
0.0
 20
0.0
 30
0.0
 70
   128
  0
VERTEX
  5
23CE
  8
0
 10
263.94272299697923
 20
106.8964011786904
 30
0.0
  0
VERTEX
  5
23CF
  8
0
 10
261.45459194956169
 20
107.5414013775905
 30
0.0
  0
VERTEX
  5
23D0
  8
0
 10
260.44272299697951
 20
107.6710741725594
 30
0.0
  0
SEQEND
  5
23D1
  8
0
  0
POLYLINE
  5
17EF
  8
0
 66
     1
 10
0.0
 20
0.0
 30
0.0
 70
   128
  0
VERTEX
  5
23D2
  8
0
 10
248.4427229969794
 20
107.63613632344671
 30
0.0
  0
VERTEX
  5
23D3
  8
0
 10
247.14534735337861
 20
107.48801109016161
 30
0.0
  0
VERTEX
  5
23D4
  8
0
 10
244.9427229969792
 20
106.8964011786904
 30
0.0
  0
SEQEND
  5
23D5
  8
0
  0
LINE
  5
17F1
  8
0
 10
263.94272299697923
 20
95.033582089317179
 30
0.0
 11
263.94272299697923
 21
107.7449069547223
 31
0.0
  0
LINE
  5
17F2
  8
0
 10
244.9427229969792
 20
95.033582089317179
 30
0.0
 11
244.9427229969792
 21
107.7449069547223
 31
0.0
  0
LINE
  5
17F3
  8
0
 10
248.4427229969794
 20
91.033582089317179
 30
0.0
 11
241.4427229969792
 21
91.033582089317179
 31
0.0
  0
LINE
  5
17F4
  8
0
 10
267.44272299697923
 20
91.033582089317179
 30
0.0
 11
260.44272299697951
 21
91.033582089317179
 31
0.0
  0
LINE
  5
17F5
  8
0
 10
241.4427229969792
 20
88.033582089317122
 30
0.0
 11
248.4427229969794
 21
88.033582089317122
 31
0.0
  0
LINE
  5
17F6
  8
0
 10
260.44272299697951
 20
88.033582089317122
 30
0.0
 11
267.44272299697923
 21
88.033582089317122
 31
0.0
  0
LINE
  5
17F7
  8
0
 10
260.44272299697923
 20
91.533582089317179
 30
0.0
 11
266.94272299697923
 21
91.533582089317179
 31
0.0
  0
LINE
  5
17F8
  8
0
 10
241.9427229969792
 20
91.533582089317179
 30
0.0
 11
248.4427229969792
 21
91.533582089317179
 31
0.0
  0
LINE
  5
17F9
  8
0
 10
238.4427229969792
 20
87.53358208931715
 30
0.0
 11
238.4427229969792
 21
71.53358208931715
 31
0.0
  0
LINE
  5
17FA
  8
0
 10
238.4427229969792
 20
87.53358208931715
 30
0.0
 11
270.44272299697923
 21
87.53358208931715
 31
0.0
  0
LINE
  5
17FB
  8
0
 10
270.44272299697923
 20
87.53358208931715
 30
0.0
 11
270.44272299697923
 21
71.53358208931715
 31
0.0
  0
LINE
  5
17FD
  8
0
 10
260.94272299697923
 20
71.533582089317179
 30
0.0
 11
260.94272299697923
 21
76.53358208931715
 31
0.0
  0
LINE
  5
17FE
  8
0
 10
247.9427229969792
 20
76.53358208931715
 30
0.0
 11
260.94272299697923
 21
76.53358208931715
 31
0.0
  0
LINE
  5
17FF
  8
0
 10
247.9427229969792
 20
71.533582089317179
 30
0.0
 11
247.9427229969792
 21
76.53358208931715
 31
0.0
  0
LINE
  5
1800
  8
0
 10
238.4427229969792
 20
71.53358208931715
 30
0.0
 11
270.44272299697923
 21
71.53358208931715
 31
0.0
  0
POLYLINE
  5
1801
  8
0
 10
248.44272299697931
 20
72.973144107343131
 30
0.0
 66
     1
 70
     8
  0
VERTEX
  8
0
  5
240E
 10
248.443
 20
72.9731
 30
0.000000
  70
    32
  0
VERTEX
  8
0
  5
240F
 10
248.435
 20
72.9711
 30
0.000000
  70
    32
  0
VERTEX
  8
0
  5
2410
 10
248.427
 20
72.9691
 30
0.000000
  70
    32
  0
VERTEX
  8
0
  5
2411
 10
248.420
 20
72.9670
 30
0.000000
  70
    32
  0
VERTEX
  8
0
  5
2412
 10
248.412
 20
72.9650
 30
0.000000
  70
    32
  0
VERTEX
  8
0
  5
2413
 10
248.405
 20
72.9629
 30
0.000000
  70
    32
  0
VERTEX
  8
0
  5
2414
 10
248.397
 20
72.9609
 30
0.000000
  70
    32
  0
VERTEX
  8
0
  5
2415
 10
248.390
 20
72.9588
 30
0.000000
  70
    32
  0
VERTEX
  8
0
  5
2416
 10
248.383
 20
72.9568
 30
0.000000
  70
    32
  0
VERTEX
  8
0
  5
2417
 10
248.376
 20
72.9547
 30
0.000000
  70
    32
  0
VERTEX
  8
0
  5
2418
 10
248.368
 20
72.9527
 30
0.000000
  70
    32
  0
VERTEX
  8
0
  5
2419
 10
248.361
 20
72.9506
 30
0.000000
  70
    32
  0
VERTEX
  8
0
  5
241A
 10
248.354
 20
72.9486
 30
0.000000
  70
    32
  0
VERTEX
  8
0
  5
241B
 10
248.347
 20
72.9465
 30
0.000000
  70
    32
  0
VERTEX
  8
0
  5
241C
 10
248.340
 20
72.9444
 30
0.000000
  70
    32
  0
VERTEX
  8
0
  5
241D
 10
248.334
 20
72.9424
 30
0.000000
  70
    32
  0
VERTEX
  8
0
  5
241E
 10
248.327
 20
72.9403
 30
0.000000
  70
    32
  0
VERTEX
  8
0
  5
241F
 10
248.320
 20
72.9382
 30
0.000000
  70
    32
  0
VERTEX
  8
0
  5
2420
 10
248.313
 20
72.9361
 30
0.000000
  70
    32
  0
VERTEX
  8
0
  5
2421
 10
248.307
 20
72.9341
 30
0.000000
  70
    32
  0
VERTEX
  8
0
  5
2422
 10
248.300
 20
72.9320
 30
0.000000
  70
    32
  0
VERTEX
  8
0
  5
2423
 10
248.293
 20
72.9299
 30
0.000000
  70
    32
  0
VERTEX
  8
0
  5
2424
 10
248.287
 20
72.9278
 30
0.000000
  70
    32
  0
VERTEX
  8
0
  5
2425
 10
248.281
 20
72.9257
 30
0.000000
  70
    32
  0
VERTEX
  8
0
  5
2426
 10
248.274
 20
72.9236
 30
0.000000
  70
    32
  0
VERTEX
  8
0
  5
2427
 10
248.268
 20
72.9215
 30
0.000000
  70
    32
  0
VERTEX
  8
0
  5
2428
 10
248.262
 20
72.9194
 30
0.000000
  70
    32
  0
VERTEX
  8
0
  5
2429
 10
248.256
 20
72.9173
 30
0.000000
  70
    32
  0
VERTEX
  8
0
  5
242A
 10
248.249
 20
72.9152
 30
0.000000
  70
    32
  0
VERTEX
  8
0
  5
242B
 10
248.243
 20
72.9131
 30
0.000000
  70
    32
  0
VERTEX
  8
0
  5
242C
 10
248.237
 20
72.9110
 30
0.000000
  70
    32
  0
VERTEX
  8
0
  5
242D
 10
248.231
 20
72.9089
 30
0.000000
  70
    32
  0
VERTEX
  8
0
  5
242E
 10
248.226
 20
72.9068
 30
0.000000
  70
    32
  0
VERTEX
  8
0
  5
242F
 10
248.220
 20
72.9047
 30
0.000000
  70
    32
  0
VERTEX
  8
0
  5
2430
 10
248.214
 20
72.9026
 30
0.000000
  70
    32
  0
VERTEX
  8
0
  5
2431
 10
248.208
 20
72.9005
 30
0.000000
  70
    32
  0
VERTEX
  8
0
  5
2432
 10
248.203
 20
72.8984
 30
0.000000
  70
    32
  0
VERTEX
  8
0
  5
2433
 10
248.197
 20
72.8963
 30
0.000000
  70
    32
  0
VERTEX
  8
0
  5
2434
 10
248.192
 20
72.8942
 30
0.000000
  70
    32
  0
VERTEX
  8
0
  5
2435
 10
248.186
 20
72.8920
 30
0.000000
  70
    32
  0
VERTEX
  8
0
  5
2436
 10
248.181
 20
72.8899
 30
0.000000
  70
    32
  0
VERTEX
  8
0
  5
2437
 10
248.175
 20
72.8878
 30
0.000000
  70
    32
  0
VERTEX
  8
0
  5
2438
 10
248.170
 20
72.8857
 30
0.000000
  70
    32
  0
VERTEX
  8
0
  5
2439
 10
248.165
 20
72.8835
 30
0.000000
  70
    32
  0
VERTEX
  8
0
  5
243A
 10
248.160
 20
72.8814
 30
0.000000
  70
    32
  0
VERTEX
  8
0
  5
243B
 10
248.155
 20
72.8793
 30
0.000000
  70
    32
  0
VERTEX
  8
0
  5
243C
 10
248.150
 20
72.8772
 30
0.000000
  70
    32
  0
VERTEX
  8
0
  5
243D
 10
248.145
 20
72.8750
 30
0.000000
  70
    32
  0
VERTEX
  8
0
  5
243E
 10
248.140
 20
72.8729
 30
0.000000
  70
    32
  0
VERTEX
  8
0
  5
243F
 10
248.135
 20
72.8707
 30
0.000000
  70
    32
  0
VERTEX
  8
0
  5
2440
 10
248.130
 20
72.8686
 30
0.000000
  70
    32
  0
VERTEX
  8
0
  5
2441
 10
248.125
 20
72.8665
 30
0.000000
  70
    32
  0
VERTEX
  8
0
  5
2442
 10
248.120
 20
72.8643
 30
0.000000
  70
    32
  0
VERTEX
  8
0
  5
2443
 10
248.116
 20
72.8622
 30
0.000000
  70
    32
  0
VERTEX
  8
0
  5
2444
 10
248.111
 20
72.8600
 30
0.000000
  70
    32
  0
VERTEX
  8
0
  5
2445
 10
248.107
 20
72.8579
 30
0.000000
  70
    32
  0
VERTEX
  8
0
  5
2446
 10
248.102
 20
72.8557
 30
0.000000
  70
    32
  0
VERTEX
  8
0
  5
2447
 10
248.098
 20
72.8536
 30
0.000000
  70
    32
  0
VERTEX
  8
0
  5
2448
 10
248.094
 20
72.8514
 30
0.000000
  70
    32
  0
VERTEX
  8
0
  5
2449
 10
248.089
 20
72.8493
 30
0.000000
  70
    32
  0
VERTEX
  8
0
  5
244A
 10
248.085
 20
72.8471
 30
0.000000
  70
    32
  0
VERTEX
  8
0
  5
244B
 10
248.081
 20
72.8450
 30
0.000000
  70
    32
  0
VERTEX
  8
0
  5
244C
 10
248.077
 20
72.8428
 30
0.000000
  70
    32
  0
VERTEX
  8
0
  5
244D
 10
248.073
 20
72.8407
 30
0.000000
  70
    32
  0
VERTEX
  8
0
  5
244E
 10
248.069
 20
72.8385
 30
0.000000
  70
    32
  0
VERTEX
  8
0
  5
244F
 10
248.065
 20
72.8363
 30
0.000000
  70
    32
  0
VERTEX
  8
0
  5
2450
 10
248.061
 20
72.8342
 30
0.000000
  70
    32
  0
VERTEX
  8
0
  5
2451
 10
248.057
 20
72.8320
 30
0.000000
  70
    32
  0
VERTEX
  8
0
  5
2452
 10
248.054
 20
72.8299
 30
0.000000
  70
    32
  0
VERTEX
  8
0
  5
2453
 10
248.050
 20
72.8277
 30
0.000000
  70
    32
  0
VERTEX
  8
0
  5
2454
 10
248.046
 20
72.8255
 30
0.000000
  70
    32
  0
VERTEX
  8
0
  5
2455
 10
248.043
 20
72.8233
 30
0.000000
  70
    32
  0
VERTEX
  8
0
  5
2456
 10
248.039
 20
72.8212
 30
0.000000
  70
    32
  0
VERTEX
  8
0
  5
2457
 10
248.036
 20
72.8190
 30
0.000000
  70
    32
  0
VERTEX
  8
0
  5
2458
 10
248.033
 20
72.8168
 30
0.000000
  70
    32
  0
VERTEX
  8
0
  5
2459
 10
248.029
 20
72.8147
 30
0.000000
  70
    32
  0
VERTEX
  8
0
  5
245A
 10
248.026
 20
72.8125
 30
0.000000
  70
    32
  0
VERTEX
  8
0
  5
245B
 10
248.023
 20
72.8103
 30
0.000000
  70
    32
  0
VERTEX
  8
0
  5
245C
 10
248.020
 20
72.8081
 30
0.000000
  70
    32
  0
VERTEX
  8
0
  5
245D
 10
248.017
 20
72.8060
 30
0.000000
  70
    32
  0
VERTEX
  8
0
  5
245E
 10
248.014
 20
72.8038
 30
0.000000
  70
    32
  0
VERTEX
  8
0
  5
245F
 10
248.011
 20
72.8016
 30
0.000000
  70
    32
  0
VERTEX
  8
0
  5
2460
 10
248.008
 20
72.7994
 30
0.000000
  70
    32
  0
VERTEX
  8
0
  5
2461
 10
248.005
 20
72.7972
 30
0.000000
  70
    32
  0
VERTEX
  8
0
  5
2462
 10
248.002
 20
72.7951
 30
0.000000
  70
    32
  0
VERTEX
  8
0
  5
2463
 10
248.000
 20
72.7929
 30
0.000000
  70
    32
  0
VERTEX
  8
0
  5
2464
 10
247.997
 20
72.7907
 30
0.000000
  70
    32
  0
VERTEX
  8
0
  5
2465
 10
247.995
 20
72.7885
 30
0.000000
  70
    32
  0
VERTEX
  8
0
  5
2466
 10
247.992
 20
72.7863
 30
0.000000
  70
    32
  0
VERTEX
  8
0
  5
2467
 10
247.990
 20
72.7841
 30
0.000000
  70
    32
  0
VERTEX
  8
0
  5
2468
 10
247.987
 20
72.7819
 30
0.000000
  70
    32
  0
VERTEX
  8
0
  5
2469
 10
247.985
 20
72.7798
 30
0.000000
  70
    32
  0
VERTEX
  8
0
  5
246A
 10
247.983
 20
72.7776
 30
0.000000
  70
    32
  0
VERTEX
  8
0
  5
246B
 10
247.981
 20
72.7754
 30
0.000000
  70
    32
  0
VERTEX
  8
0
  5
246C
 10
247.978
 20
72.7732
 30
0.000000
  70
    32
  0
VERTEX
  8
0
  5
246D
 10
247.976
 20
72.7710
 30
0.000000
  70
    32
  0
VERTEX
  8
0
  5
246E
 10
247.974
 20
72.7688
 30
0.000000
  70
    32
  0
VERTEX
  8
0
  5
246F
 10
247.972
 20
72.7666
 30
0.000000
  70
    32
  0
VERTEX
  8
0
  5
2470
 10
247.971
 20
72.7644
 30
0.000000
  70
    32
  0
VERTEX
  8
0
  5
2471
 10
247.969
 20
72.7622
 30
0.000000
  70
    32
  0
VERTEX
  8
0
  5
2472
 10
247.967
 20
72.7600
 30
0.000000
  70
    32
  0
VERTEX
  8
0
  5
2473
 10
247.965
 20
72.7578
 30
0.000000
  70
    32
  0
VERTEX
  8
0
  5
2474
 10
247.964
 20
72.7556
 30
0.000000
  70
    32
  0
VERTEX
  8
0
  5
2475
 10
247.962
 20
72.7534
 30
0.000000
  70
    32
  0
VERTEX
  8
0
  5
2476
 10
247.961
 20
72.7512
 30
0.000000
  70
    32
  0
VERTEX
  8
0
  5
2477
 10
247.959
 20
72.7490
 30
0.000000
  70
    32
  0
VERTEX
  8
0
  5
2478
 10
247.958
 20
72.7468
 30
0.000000
  70
    32
  0
VERTEX
  8
0
  5
2479
 10
247.956
 20
72.7447
 30
0.000000
  70
    32
  0
VERTEX
  8
0
  5
247A
 10
247.955
 20
72.7425
 30
0.000000
  70
    32
  0
VERTEX
  8
0
  5
247B
 10
247.954
 20
72.7403
 30
0.000000
  70
    32
  0
VERTEX
  8
0
  5
247C
 10
247.953
 20
72.7381
 30
0.000000
  70
    32
  0
VERTEX
  8
0
  5
247D
 10
247.952
 20
72.7359
 30
0.000000
  70
    32
  0
VERTEX
  8
0
  5
247E
 10
247.951
 20
72.7337
 30
0.000000
  70
    32
  0
VERTEX
  8
0
  5
247F
 10
247.950
 20
72.7315
 30
0.000000
  70
    32
  0
VERTEX
  8
0
  5
2480
 10
247.949
 20
72.7293
 30
0.000000
  70
    32
  0
VERTEX
  8
0
  5
2481
 10
247.948
 20
72.7271
 30
0.000000
  70
    32
  0
VERTEX
  8
0
  5
2482
 10
247.947
 20
72.7248
 30
0.000000
  70
    32
  0
VERTEX
  8
0
  5
2483
 10
247.946
 20
72.7226
 30
0.000000
  70
    32
  0
VERTEX
  8
0
  5
2484
 10
247.946
 20
72.7204
 30
0.000000
  70
    32
  0
VERTEX
  8
0
  5
2485
 10
247.945
 20
72.7182
 30
0.000000
  70
    32
  0
VERTEX
  8
0
  5
2486
 10
247.945
 20
72.7160
 30
0.000000
  70
    32
  0
VERTEX
  8
0
  5
2487
 10
247.944
 20
72.7138
 30
0.000000
  70
    32
  0
VERTEX
  8
0
  5
2488
 10
247.944
 20
72.7116
 30
0.000000
  70
    32
  0
VERTEX
  8
0
  5
2489
 10
247.943
 20
72.7094
 30
0.000000
  70
    32
  0
VERTEX
  8
0
  5
248A
 10
247.943
 20
72.7072
 30
0.000000
  70
    32
  0
VERTEX
  8
0
  5
248B
 10
247.943
 20
72.7050
 30
0.000000
  70
    32
  0
VERTEX
  8
0
  5
248C
 10
247.943
 20
72.7028
 30
0.000000
  70
    32
  0
VERTEX
  8
0
  5
248D
 10
247.943
 20
72.7006
 30
0.000000
  70
    32
  0
VERTEX
  8
0
  5
248E
 10
247.943
 20
72.6984
 30
0.000000
  70
    32
  0
SEQEND
  8
0
  5
248F
  0
POLYLINE
  5
1802
  8
0
 10
260.9427229969794
 20
72.698418531383993
 30
0.0
 66
     1
 70
     8
  0
VERTEX
  8
0
  5
2490
 10
260.943
 20
72.6984
 30
0.000000
  70
    32
  0
VERTEX
  8
0
  5
2491
 10
260.943
 20
72.7006
 30
0.000000
  70
    32
  0
VERTEX
  8
0
  5
2492
 10
260.943
 20
72.7028
 30
0.000000
  70
    32
  0
VERTEX
  8
0
  5
2493
 10
260.942
 20
72.7050
 30
0.000000
  70
    32
  0
VERTEX
  8
0
  5
2494
 10
260.942
 20
72.7072
 30
0.000000
  70
    32
  0
VERTEX
  8
0
  5
2495
 10
260.942
 20
72.7094
 30
0.000000
  70
    32
  0
VERTEX
  8
0
  5
2496
 10
260.942
 20
72.7116
 30
0.000000
  70
    32
  0
VERTEX
  8
0
  5
2497
 10
260.941
 20
72.7138
 30
0.000000
  70
    32
  0
VERTEX
  8
0
  5
2498
 10
260.941
 20
72.7160
 30
0.000000
  70
    32
  0
VERTEX
  8
0
  5
2499
 10
260.940
 20
72.7182
 30
0.000000
  70
    32
  0
VERTEX
  8
0
  5
249A
 10
260.940
 20
72.7204
 30
0.000000
  70
    32
  0
VERTEX
  8
0
  5
249B
 10
260.939
 20
72.7226
 30
0.000000
  70
    32
  0
VERTEX
  8
0
  5
249C
 10
260.938
 20
72.7248
 30
0.000000
  70
    32
  0
VERTEX
  8
0
  5
249D
 10
260.937
 20
72.7271
 30
0.000000
  70
    32
  0
VERTEX
  8
0
  5
249E
 10
260.937
 20
72.7293
 30
0.000000
  70
    32
  0
VERTEX
  8
0
  5
249F
 10
260.936
 20
72.7315
 30
0.000000
  70
    32
  0
VERTEX
  8
0
  5
24A0
 10
260.935
 20
72.7337
 30
0.000000
  70
    32
  0
VERTEX
  8
0
  5
24A1
 10
260.934
 20
72.7359
 30
0.000000
  70
    32
  0
VERTEX
  8
0
  5
24A2
 10
260.933
 20
72.7381
 30
0.000000
  70
    32
  0
VERTEX
  8
0
  5
24A3
 10
260.932
 20
72.7403
 30
0.000000
  70
    32
  0
VERTEX
  8
0
  5
24A4
 10
260.930
 20
72.7425
 30
0.000000
  70
    32
  0
VERTEX
  8
0
  5
24A5
 10
260.929
 20
72.7447
 30
0.000000
  70
    32
  0
VERTEX
  8
0
  5
24A6
 10
260.928
 20
72.7468
 30
0.000000
  70
    32
  0
VERTEX
  8
0
  5
24A7
 10
260.926
 20
72.7490
 30
0.000000
  70
    32
  0
VERTEX
  8
0
  5
24A8
 10
260.925
 20
72.7512
 30
0.000000
  70
    32
  0
VERTEX
  8
0
  5
24A9
 10
260.923
 20
72.7534
 30
0.000000
  70
    32
  0
VERTEX
  8
0
  5
24AA
 10
260.922
 20
72.7556
 30
0.000000
  70
    32
  0
VERTEX
  8
0
  5
24AB
 10
260.920
 20
72.7578
 30
0.000000
  70
    32
  0
VERTEX
  8
0
  5
24AC
 10
260.918
 20
72.7600
 30
0.000000
  70
    32
  0
VERTEX
  8
0
  5
24AD
 10
260.917
 20
72.7622
 30
0.000000
  70
    32
  0
VERTEX
  8
0
  5
24AE
 10
260.915
 20
72.7644
 30
0.000000
  70
    32
  0
VERTEX
  8
0
  5
24AF
 10
260.913
 20
72.7666
 30
0.000000
  70
    32
  0
VERTEX
  8
0
  5
24B0
 10
260.911
 20
72.7688
 30
0.000000
  70
    32
  0
VERTEX
  8
0
  5
24B1
 10
260.909
 20
72.7710
 30
0.000000
  70
    32
  0
VERTEX
  8
0
  5
24B2
 10
260.907
 20
72.7732
 30
0.000000
  70
    32
  0
VERTEX
  8
0
  5
24B3
 10
260.905
 20
72.7754
 30
0.000000
  70
    32
  0
VERTEX
  8
0
  5
24B4
 10
260.903
 20
72.7776
 30
0.000000
  70
    32
  0
VERTEX
  8
0
  5
24B5
 10
260.900
 20
72.7798
 30
0.000000
  70
    32
  0
VERTEX
  8
0
  5
24B6
 10
260.898
 20
72.7819
 30
0.000000
  70
    32
  0
VERTEX
  8
0
  5
24B7
 10
260.896
 20
72.7841
 30
0.000000
  70
    32
  0
VERTEX
  8
0
  5
24B8
 10
260.893
 20
72.7863
 30
0.000000
  70
    32
  0
VERTEX
  8
0
  5
24B9
 10
260.891
 20
72.7885
 30
0.000000
  70
    32
  0
VERTEX
  8
0
  5
24BA
 10
260.888
 20
72.7907
 30
0.000000
  70
    32
  0
VERTEX
  8
0
  5
24BB
 10
260.886
 20
72.7929
 30
0.000000
  70
    32
  0
VERTEX
  8
0
  5
24BC
 10
260.883
 20
72.7951
 30
0.000000
  70
    32
  0
VERTEX
  8
0
  5
24BD
 10
260.880
 20
72.7972
 30
0.000000
  70
    32
  0
VERTEX
  8
0
  5
24BE
 10
260.877
 20
72.7994
 30
0.000000
  70
    32
  0
VERTEX
  8
0
  5
24BF
 10
260.875
 20
72.8016
 30
0.000000
  70
    32
  0
VERTEX
  8
0
  5
24C0
 10
260.872
 20
72.8038
 30
0.000000
  70
    32
  0
VERTEX
  8
0
  5
24C1
 10
260.869
 20
72.8060
 30
0.000000
  70
    32
  0
VERTEX
  8
0
  5
24C2
 10
260.866
 20
72.8081
 30
0.000000
  70
    32
  0
VERTEX
  8
0
  5
24C3
 10
260.862
 20
72.8103
 30
0.000000
  70
    32
  0
VERTEX
  8
0
  5
24C4
 10
260.859
 20
72.8125
 30
0.000000
  70
    32
  0
VERTEX
  8
0
  5
24C5
 10
260.856
 20
72.8147
 30
0.000000
  70
    32
  0
VERTEX
  8
0
  5
24C6
 10
260.853
 20
72.8168
 30
0.000000
  70
    32
  0
VERTEX
  8
0
  5
24C7
 10
260.849
 20
72.8190
 30
0.000000
  70
    32
  0
VERTEX
  8
0
  5
24C8
 10
260.846
 20
72.8212
 30
0.000000
  70
    32
  0
VERTEX
  8
0
  5
24C9
 10
260.843
 20
72.8233
 30
0.000000
  70
    32
  0
VERTEX
  8
0
  5
24CA
 10
260.839
 20
72.8255
 30
0.000000
  70
    32
  0
VERTEX
  8
0
  5
24CB
 10
260.835
 20
72.8277
 30
0.000000
  70
    32
  0
VERTEX
  8
0
  5
24CC
 10
260.832
 20
72.8299
 30
0.000000
  70
    32
  0
VERTEX
  8
0
  5
24CD
 10
260.828
 20
72.8320
 30
0.000000
  70
    32
  0
VERTEX
  8
0
  5
24CE
 10
260.824
 20
72.8342
 30
0.000000
  70
    32
  0
VERTEX
  8
0
  5
24CF
 10
260.820
 20
72.8363
 30
0.000000
  70
    32
  0
VERTEX
  8
0
  5
24D0
 10
260.816
 20
72.8385
 30
0.000000
  70
    32
  0
VERTEX
  8
0
  5
24D1
 10
260.813
 20
72.8407
 30
0.000000
  70
    32
  0
VERTEX
  8
0
  5
24D2
 10
260.809
 20
72.8428
 30
0.000000
  70
    32
  0
VERTEX
  8
0
  5
24D3
 10
260.804
 20
72.8450
 30
0.000000
  70
    32
  0
VERTEX
  8
0
  5
24D4
 10
260.800
 20
72.8471
 30
0.000000
  70
    32
  0
VERTEX
  8
0
  5
24D5
 10
260.796
 20
72.8493
 30
0.000000
  70
    32
  0
VERTEX
  8
0
  5
24D6
 10
260.792
 20
72.8514
 30
0.000000
  70
    32
  0
VERTEX
  8
0
  5
24D7
 10
260.787
 20
72.8536
 30
0.000000
  70
    32
  0
VERTEX
  8
0
  5
24D8
 10
260.783
 20
72.8557
 30
0.000000
  70
    32
  0
VERTEX
  8
0
  5
24D9
 10
260.779
 20
72.8579
 30
0.000000
  70
    32
  0
VERTEX
  8
0
  5
24DA
 10
260.774
 20
72.8600
 30
0.000000
  70
    32
  0
VERTEX
  8
0
  5
24DB
 10
260.770
 20
72.8622
 30
0.000000
  70
    32
  0
VERTEX
  8
0
  5
24DC
 10
260.765
 20
72.8643
 30
0.000000
  70
    32
  0
VERTEX
  8
0
  5
24DD
 10
260.760
 20
72.8665
 30
0.000000
  70
    32
  0
VERTEX
  8
0
  5
24DE
 10
260.756
 20
72.8686
 30
0.000000
  70
    32
  0
VERTEX
  8
0
  5
24DF
 10
260.751
 20
72.8707
 30
0.000000
  70
    32
  0
VERTEX
  8
0
  5
24E0
 10
260.746
 20
72.8729
 30
0.000000
  70
    32
  0
VERTEX
  8
0
  5
24E1
 10
260.741
 20
72.8750
 30
0.000000
  70
    32
  0
VERTEX
  8
0
  5
24E2
 10
260.736
 20
72.8772
 30
0.000000
  70
    32
  0
VERTEX
  8
0
  5
24E3
 10
260.731
 20
72.8793
 30
0.000000
  70
    32
  0
VERTEX
  8
0
  5
24E4
 10
260.726
 20
72.8814
 30
0.000000
  70
    32
  0
VERTEX
  8
0
  5
24E5
 10
260.721
 20
72.8835
 30
0.000000
  70
    32
  0
VERTEX
  8
0
  5
24E6
 10
260.715
 20
72.8857
 30
0.000000
  70
    32
  0
VERTEX
  8
0
  5
24E7
 10
260.710
 20
72.8878
 30
0.000000
  70
    32
  0
VERTEX
  8
0
  5
24E8
 10
260.705
 20
72.8899
 30
0.000000
  70
    32
  0
VERTEX
  8
0
  5
24E9
 10
260.699
 20
72.8920
 30
0.000000
  70
    32
  0
VERTEX
  8
0
  5
24EA
 10
260.694
 20
72.8942
 30
0.000000
  70
    32
  0
VERTEX
  8
0
  5
24EB
 10
260.688
 20
72.8963
 30
0.000000
  70
    32
  0
VERTEX
  8
0
  5
24EC
 10
260.683
 20
72.8984
 30
0.000000
  70
    32
  0
VERTEX
  8
0
  5
24ED
 10
260.677
 20
72.9005
 30
0.000000
  70
    32
  0
VERTEX
  8
0
  5
24EE
 10
260.671
 20
72.9026
 30
0.000000
  70
    32
  0
VERTEX
  8
0
  5
24EF
 10
260.666
 20
72.9047
 30
0.000000
  70
    32
  0
VERTEX
  8
0
  5
24F0
 10
260.660
 20
72.9068
 30
0.000000
  70
    32
  0
VERTEX
  8
0
  5
24F1
 10
260.654
 20
72.9089
 30
0.000000
  70
    32
  0
VERTEX
  8
0
  5
24F2
 10
260.648
 20
72.9110
 30
0.000000
  70
    32
  0
VERTEX
  8
0
  5
24F3
 10
260.642
 20
72.9131
 30
0.000000
  70
    32
  0
VERTEX
  8
0
  5
24F4
 10
260.636
 20
72.9152
 30
0.000000
  70
    32
  0
VERTEX
  8
0
  5
24F5
 10
260.630
 20
72.9173
 30
0.000000
  70
    32
  0
VERTEX
  8
0
  5
24F6
 10
260.624
 20
72.9194
 30
0.000000
  70
    32
  0
VERTEX
  8
0
  5
24F7
 10
260.617
 20
72.9215
 30
0.000000
  70
    32
  0
VERTEX
  8
0
  5
24F8
 10
260.611
 20
72.9236
 30
0.000000
  70
    32
  0
VERTEX
  8
0
  5
24F9
 10
260.605
 20
72.9257
 30
0.000000
  70
    32
  0
VERTEX
  8
0
  5
24FA
 10
260.598
 20
72.9278
 30
0.000000
  70
    32
  0
VERTEX
  8
0
  5
24FB
 10
260.592
 20
72.9299
 30
0.000000
  70
    32
  0
VERTEX
  8
0
  5
24FC
 10
260.585
 20
72.9320
 30
0.000000
  70
    32
  0
VERTEX
  8
0
  5
24FD
 10
260.579
 20
72.9341
 30
0.000000
  70
    32
  0
VERTEX
  8
0
  5
24FE
 10
260.572
 20
72.9361
 30
0.000000
  70
    32
  0
VERTEX
  8
0
  5
24FF
 10
260.566
 20
72.9382
 30
0.000000
  70
    32
  0
VERTEX
  8
0
  5
2500
 10
260.559
 20
72.9403
 30
0.000000
  70
    32
  0
VERTEX
  8
0
  5
2501
 10
260.552
 20
72.9424
 30
0.000000
  70
    32
  0
VERTEX
  8
0
  5
2502
 10
260.545
 20
72.9444
 30
0.000000
  70
    32
  0
VERTEX
  8
0
  5
2503
 10
260.538
 20
72.9465
 30
0.000000
  70
    32
  0
VERTEX
  8
0
  5
2504
 10
260.531
 20
72.9486
 30
0.000000
  70
    32
  0
VERTEX
  8
0
  5
2505
 10
260.524
 20
72.9506
 30
0.000000
  70
    32
  0
VERTEX
  8
0
  5
2506
 10
260.517
 20
72.9527
 30
0.000000
  70
    32
  0
VERTEX
  8
0
  5
2507
 10
260.510
 20
72.9547
 30
0.000000
  70
    32
  0
VERTEX
  8
0
  5
2508
 10
260.503
 20
72.9568
 30
0.000000
  70
    32
  0
VERTEX
  8
0
  5
2509
 10
260.495
 20
72.9588
 30
0.000000
  70
    32
  0
VERTEX
  8
0
  5
250A
 10
260.488
 20
72.9609
 30
0.000000
  70
    32
  0
VERTEX
  8
0
  5
250B
 10
260.481
 20
72.9629
 30
0.000000
  70
    32
  0
VERTEX
  8
0
  5
250C
 10
260.473
 20
72.9650
 30
0.000000
  70
    32
  0
VERTEX
  8
0
  5
250D
 10
260.466
 20
72.9670
 30
0.000000
  70
    32
  0
VERTEX
  8
0
  5
250E
 10
260.458
 20
72.9691
 30
0.000000
  70
    32
  0
VERTEX
  8
0
  5
250F
 10
260.450
 20
72.9711
 30
0.000000
  70
    32
  0
VERTEX
  8
0
  5
2510
 10
260.443
 20
72.9731
 30
0.000000
  70
    32
  0
SEQEND
  8
0
  5
2511
  0
LINE
  5
2012
  8
2
 10
142.18439274778149
 20
207.19748602329
 30
0.0
 11
188.4427229969792
 21
207.19748602329
 31
0.0
  0
LINE
  5
2013
  8
2
 10
142.18439274778149
 20
194.19748602329
 30
0.0
 11
188.4427229969792
 21
194.19748602329
 31
0.0
  0
ARC
  5
2014
  8
2
 10
153.4427229969792
 20
200.69748602329011
 30
0.0
 40
6.5
 50
270.0
 51
90.0
  0
LINE
  5
2017
  8
1
 10
128.4427229969792
 20
191.19748602329
 30
0.0
 11
128.4427229969792
 21
210.19748602329
 31
0.0
  0
LINE
  5
2018
  8
1
 10
153.44272299697931
 20
184.69748602328991
 30
0.0
 11
153.44272299697931
 21
216.69748602329
 31
0.0
  0
LINE
  5
2019
  8
1
 10
177.4427229969792
 20
191.69748602329
 30
0.0
 11
177.4427229969792
 21
209.69748602329
 31
0.0
  0
LINE
  5
2025
  8
3
 10
182.56772299697931
 20
71.533582089317122
 30
0.0
 11
182.56772299697931
 21
71.028400603776277
 31
0.0
  0
LINE
  5
2026
  8
3
 10
172.31772299697931
 20
71.533582089317122
 30
0.0
 11
172.31772299697931
 21
71.028400603776277
 31
0.0
  0
LINE
  5
2027
  8
3
 10
158.56772299697931
 20
71.53358208931715
 30
0.0
 11
158.56772299697931
 21
71.018037632694444
 31
0.0
  0
LINE
  5
2028
  8
3
 10
148.31772299697931
 20
71.53358208931715
 30
0.0
 11
148.31772299697931
 21
71.018037632694444
 31
0.0
  0
LINE
  5
2032
  8
3
 10
47.56772299697888
 20
71.533582089317179
 30
0.0
 11
47.56772299697888
 21
71.028400603776277
 31
0.0
  0
LINE
  5
2033
  8
3
 10
37.317722996978887
 20
71.533582089317179
 30
0.0
 11
37.317722996978887
 21
71.028400603776277
 31
0.0
  0
LINE
  5
203E
  8
3
 10
259.56772299697923
 20
76.533582089317179
 30
0.0
 11
259.56772299697923
 21
71.028400603776277
 31
0.0
  0
LINE
  5
203F
  8
3
 10
249.31772299697909
 20
76.533582089317179
 30
0.0
 11
249.3177229969792
 21
71.028400603776277
 31
0.0
  0
LINE
  5
2040
  8
3
 10
259.5677229969794
 20
137.33508208931701
 30
0.0
 11
259.56772299697923
 21
87.53358208931715
 31
0.0
  0
LINE
  5
2041
  8
3
 10
249.3177229969794
 20
137.33508208931721
 30
0.0
 11
249.3177229969792
 21
87.53358208931715
 31
0.0
  0
LINE
  5
204C
  8
2
 10
153.4427229969792
 20
76.53358208931715
 30
0.0
 11
188.4427229969792
 21
76.53358208931715
 31
0.0
  0
LINE
  5
204D
  8
2
 10
159.9427229969792
 20
87.53358208931715
 30
0.0
 11
159.9427229969792
 21
76.53358208931715
 31
0.0
  0
LINE
  5
204E
  8
2
 10
121.9427229969792
 20
87.53358208931715
 30
0.0
 11
121.9427229969792
 21
73.437276089317123
 31
0.0
  0
LINE
  5
205E
  8
1
 10
254.44272299697909
 20
142.53358208931721
 30
0.0
 11
254.44272299697909
 21
24.533582089317179
 31
0.0
  0
TEXT
  5
231D
  8
0
 62
     3
 10
0.0
 20
0.0
 30
0.0
 40
10.0
  1
BJ156-12080B1-T
  7
STANDARD1
  0
ENDSEC
  0
EOF
