  0
SECTION
  2
HEADER
  9
$ACADVER
  1
AC1009
  9
$INSBASE
 10
0.0
 20
0.0
 30
0.0
  9
$EXTMIN
 10
0.0
 20
-2.960436562073669
 30
0.0
  9
$EXTMAX
 10
286.89785599999999
 20
181.00842299999999
 30
0.0
  9
$LIMMIN
 10
0.0
 20
0.0
  9
$LIMMAX
 10
375.0
 20
270.0
  9
$ORTHOMODE
 70
     1
  9
$REGENMODE
 70
     1
  9
$FILLMODE
 70
     1
  9
$QTEXTMODE
 70
     0
  9
$MIRRTEXT
 70
     0
  9
$DRAGMODE
 70
     2
  9
$LTSCALE
 40
10.0
  9
$OSMODE
 70
  3071
  9
$ATTMODE
 70
     1
  9
$TEXTSIZE
 40
0.2
  9
$TRACEWID
 40
0.05
  9
$TEXTSTYLE
  7
STANDARD
  9
$CLAYER
  8
0
  9
$CELTYPE
  6
BYLAYER
  9
$CECOLOR
 62
   256
  9
$DIMSCALE
 40
1.0
  9
$DIMASZ
 40
3.0
  9
$DIMEXO
 40
2.0
  9
$DIMDLI
 40
0.38
  9
$DIMRND
 40
0.0
  9
$DIMDLE
 40
0.0
  9
$DIMEXE
 40
2.0
  9
$DIMTP
 40
0.0
  9
$DIMTM
 40
0.0
  9
$DIMTXT
 40
3.0
  9
$DIMCEN
 40
0.0
  9
$DIMTSZ
 40
0.0
  9
$DIMTOL
 70
     0
  9
$DIMLIM
 70
     0
  9
$DIMTIH
 70
     0
  9
$DIMTOH
 70
     0
  9
$DIMSE1
 70
     0
  9
$DIMSE2
 70
     0
  9
$DIMTAD
 70
     1
  9
$DIMZIN
 70
     0
  9
$DIMBLK
  1

  9
$DIMASO
 70
     0
  9
$DIMSHO
 70
     0
  9
$DIMPOST
  1

  9
$DIMAPOST
  1

  9
$DIMALT
 70
     0
  9
$DIMALTD
 70
     2
  9
$DIMALTF
 40
25.399999999999999
  9
$DIMLFAC
 40
1.0
  9
$DIMTOFL
 70
     1
  9
$DIMTVP
 40
1.6000000000000001
  9
$DIMTIX
 70
     1
  9
$DIMSOXD
 70
     0
  9
$DIMSAH
 70
     0
  9
$DIMBLK1
  1

  9
$DIMBLK2
  1

  9
$DIMSTYLE
  2
STANDARD
  9
$DIMCLRD
 70
     0
  9
$DIMCLRE
 70
     0
  9
$DIMCLRT
 70
     0
  9
$DIMTFAC
 40
1.0
  9
$DIMGAP
 40
0.09
  9
$LUNITS
 70
     2
  9
$LUPREC
 70
     4
  9
$SKETCHINC
 40
0.1
  9
$FILLETRAD
 40
0.0
  9
$AUNITS
 70
     0
  9
$AUPREC
 70
     4
  9
$MENU
  1
E:\r13\win\SUPPORT\ACAD
  9
$ELEVATION
 40
0.0
  9
$PELEVATION
 40
0.0
  9
$THICKNESS
 40
0.0
  9
$LIMCHECK
 70
     0
  9
$BLIPMODE
 70
     0
  9
$CHAMFERA
 40
0.0
  9
$CHAMFERB
 40
0.0
  9
$SKPOLY
 70
     0
  9
$TDCREATE
 40
2449840.3448263891
  9
$TDUPDATE
 40
2456597.6466141199
  9
$TDINDWG
 40
0.0000964236
  9
$TDUSRTIMER
 40
0.0000964236
  9
$USRTIMER
 70
     1
  9
$ANGBASE
 50
0.0
  9
$ANGDIR
 70
     0
  9
$PDMODE
 70
     0
  9
$PDSIZE
 40
0.0
  9
$PLINEWID
 40
0.0
  9
$COORDS
 70
     1
  9
$SPLFRAME
 70
     0
  9
$SPLINETYPE
 70
     6
  9
$SPLINESEGS
 70
     8
  9
$ATTDIA
 70
     0
  9
$ATTREQ
 70
     1
  9
$HANDLING
 70
     1
  9
$HANDSEED
  5
26A
  9
$SURFTAB1
 70
     6
  9
$SURFTAB2
 70
     6
  9
$SURFTYPE
 70
     6
  9
$SURFU
 70
     6
  9
$SURFV
 70
     6
  9
$UCSNAME
  2

  9
$UCSORG
 10
0.0
 20
0.0
 30
0.0
  9
$UCSXDIR
 10
1.0
 20
0.0
 30
0.0
  9
$UCSYDIR
 10
0.0
 20
1.0
 30
0.0
  9
$PUCSNAME
  2

  9
$PUCSORG
 10
0.0
 20
0.0
 30
0.0
  9
$PUCSXDIR
 10
1.0
 20
0.0
 30
0.0
  9
$PUCSYDIR
 10
0.0
 20
1.0
 30
0.0
  9
$USERI1
 70
     3
  9
$USERI2
 70
     1
  9
$USERI3
 70
     0
  9
$USERI4
 70
     0
  9
$USERI5
 70
     0
  9
$USERR1
 40
1.0
  9
$USERR2
 40
3.0
  9
$USERR3
 40
3.0
  9
$USERR4
 40
3.0
  9
$USERR5
 40
10.0
  9
$WORLDVIEW
 70
     1
  9
$SHADEDGE
 70
     3
  9
$SHADEDIF
 70
    70
  9
$TILEMODE
 70
     1
  9
$MAXACTVP
 70
    16
  9
$PLIMCHECK
 70
     0
  9
$PEXTMIN
 10
1.0000000000000000E+020
 20
1.0000000000000000E+020
 30
1.0000000000000000E+020
  9
$PEXTMAX
 10
-1.0000000000000000E+020
 20
-1.0000000000000000E+020
 30
-1.0000000000000000E+020
  9
$PLIMMIN
 10
0.0
 20
0.0
  9
$PLIMMAX
 10
12.0
 20
9.0
  9
$UNITMODE
 70
     0
  9
$VISRETAIN
 70
     0
  9
$PLINEGEN
 70
     0
  9
$PSLTSCALE
 70
     0
  0
ENDSEC
  0
SECTION
  2
TABLES
  0
TABLE
  2
VPORT
 70
     1
  0
VPORT
  2
*ACTIVE
 70
     0
 10
0.0
 20
0.0
 11
1.0
 21
1.0
 12
195.0581083320873
 22
133.5127261426681
 13
0.0
 23
0.0
 14
5.0
 24
5.0
 15
10.0
 25
10.0
 16
0.0
 26
0.0
 36
1.0
 17
0.0
 27
0.0
 37
0.0
 40
275.42274993631997
 41
1.831871345029239
 42
50.0
 43
0.0
 44
0.0
 50
0.0
 51
0.0
 71
     0
 72
   100
 73
     1
 74
     0
 75
     0
 76
     0
 77
     0
 78
     2
  0
ENDTAB
  0
TABLE
  2
LTYPE
 70
     4
  0
LTYPE
  2
CONTINUOUS
 70
     0
  3
Solid Line
 72
    65
 73
     0
 40
0.0
  0
LTYPE
  2
CENTER
 70
     0
  3
____ _ ____ _ ____ _ ____ _ ____ _ ____ _ ____
 72
    65
 73
     4
 40
2.0
 49
1.25
 49
-0.25
 49
0.25
 49
-0.25
  0
LTYPE
  2
HIDDEN
 70
     0
  3
__ __ __ __ __ __ __ __ __ __ __ __ __ __ __ __
 72
    65
 73
     2
 40
0.375
 49
0.25
 49
-0.125
  0
LTYPE
  2
PHANTOM2
 70
     0
  3
___ _ _ ___ _ _ ___ _ _ ___ _ _
 72
    65
 73
     6
 40
1.25
 49
0.625
 49
-0.125
 49
0.125
 49
-0.125
 49
0.125
 49
-0.125
  0
ENDTAB
  0
TABLE
  2
LAYER
 70
     6
  0
LAYER
  2
0
 70
     0
 62
     7
  6
CONTINUOUS
  0
LAYER
  2
1
 70
     0
 62
     1
  6
CENTER
  0
LAYER
  2
11
 70
     0
 62
     3
  6
CONTINUOUS
  0
LAYER
  2
2
 70
     0
 62
     2
  6
HIDDEN
  0
LAYER
  2
4
 70
     0
 62
     4
  6
CONTINUOUS
  0
LAYER
  2
3
 70
     0
 62
     3
  6
CONTINUOUS
  0
ENDTAB
  0
TABLE
  2
STYLE
 70
     2
  0
STYLE
  2
STANDARD
 70
     0
 40
0.0
 41
1.0
 50
0.0
 71
     0
 42
0.2
  3
TXT
  4
BIGFONT
  0
STYLE
  2
STANDARD1
 70
     0
 40
0.0
 41
1.0
 50
0.0
 71
     0
 42
3.0
  3
txt
  4

  0
ENDTAB
  0
TABLE
  2
VIEW
 70
     1
  0
VIEW
  2
ALL
 70
     0
 40
270.0
 10
220.99159700000001
 20
135.0
 41
0.0
 11
0.0
 21
0.0
 31
1.0
 12
0.0
 22
0.0
 32
0.0
 42
0.0
 43
0.0
 44
0.0
 50
0.0
 71
     0
  0
ENDTAB
  0
TABLE
  2
UCS
 70
     0
  0
ENDTAB
  0
TABLE
  2
APPID
 70
     3
  0
APPID
  2
ACAD
 70
     0
  0
APPID
  2
ACAD_MLEADERVER
 70
     0
  0
APPID
  2
ACAD_NAV_VCDISPLAY
 70
     0
  0
ENDTAB
  0
TABLE
  2
DIMSTYLE
 70
     1
  0
DIMSTYLE
  2
STANDARD
 70
     0
  3

  4

  5

  6

  7

 40
1.0
 41
0.18
 42
0.0625
 43
0.38
 44
0.18
 45
0.0
 46
0.0
 47
0.0
 48
0.0
140
0.18
141
0.09
142
0.0
143
25.399999999999999
144
1.0
145
0.0
146
1.0
147
0.09
 71
     0
 72
     0
 73
     1
 74
     1
 75
     0
 76
     0
 77
     0
 78
     0
170
     0
171
     2
172
     0
173
     0
174
     0
175
     0
176
     0
177
     0
178
     0
  0
ENDTAB
  0
ENDSEC
  0
SECTION
  2
BLOCKS
  0
BLOCK
  8
0
  2
$MODEL_SPACE
 70
     0
 10
0.0
 20
0.0
 30
0.0
  3
$MODEL_SPACE
  1

  0
ENDBLK
  5
11A
  8
0
  0
BLOCK
 67
     1
  8
0
  2
$PAPER_SPACE
 70
     0
 10
0.0
 20
0.0
 30
0.0
  3
$PAPER_SPACE
  1

  0
ENDBLK
  5
118
 67
     1
  8
0
  0
BLOCK
  8
0
  2
STDGX5
 70
     0
 10
0.0
 20
0.0
 30
0.0
  3
STDGX5
  1

  0
ENDBLK
  5
39
  8
0
  0
ENDSEC
  0
SECTION
  2
ENTITIES
  0
INSERT
  5
43
  8
0
  2
STDGX5
 10
47.484513
 20
54.162982999999997
 30
0.0
  0
INSERT
  5
44
  8
4
  2
STDGX5
 10
47.484513
 20
54.162982999999997
 30
0.0
  0
INSERT
  5
45
  8
11
  2
STDGX5
 10
47.484513
 20
54.162982999999997
 30
0.0
  0
INSERT
  5
46
  8
0
  2
STDGX5
 10
64.611215999999999
 20
69.493814999999998
 30
0.0
  0
INSERT
  5
47
  8
4
  2
STDGX5
 10
64.611215999999999
 20
69.493814999999998
 30
0.0
  0
INSERT
  5
48
  8
11
  2
STDGX5
 10
64.611215999999999
 20
69.493814999999998
 30
0.0
  0
INSERT
  5
49
  8
0
  2
STDGX5
 10
234.606799
 20
191.333079
 30
0.0
 41
0.1
 42
0.1
 43
0.1
  0
INSERT
  5
4A
  8
4
  2
STDGX5
 10
234.606799
 20
191.333079
 30
0.0
 41
0.1
 42
0.1
 43
0.1
  0
INSERT
  5
4B
  8
11
  2
STDGX5
 10
234.606799
 20
191.333079
 30
0.0
 41
0.1
 42
0.1
 43
0.1
  0
INSERT
  5
4C
  8
0
  2
STDGX5
 10
59.649229000000012
 20
52.820729000000007
 30
0.0
  0
INSERT
  5
4D
  8
4
  2
STDGX5
 10
59.649229000000012
 20
52.820729000000007
 30
0.0
  0
INSERT
  5
4E
  8
11
  2
STDGX5
 10
59.649229000000012
 20
52.820729000000007
 30
0.0
  0
INSERT
  5
4F
  8
4
  2
STDGX5
 10
59.649229000000012
 20
52.820729000000007
 30
0.0
  0
INSERT
  5
50
  8
0
  2
STDGX5
 10
55.588033999999993
 20
58.674046999999987
 30
0.0
  0
INSERT
  5
51
  8
4
  2
STDGX5
 10
55.588033999999993
 20
58.674046999999987
 30
0.0
  0
INSERT
  5
52
  8
11
  2
STDGX5
 10
55.588033999999993
 20
58.674046999999987
 30
0.0
  0
INSERT
  5
53
  8
4
  2
STDGX5
 10
55.588033999999993
 20
58.674046999999987
 30
0.0
  0
INSERT
  5
54
  8
0
  2
STDGX5
 10
61.908842000000007
 20
64.536698999999999
 30
0.0
  0
INSERT
  5
55
  8
4
  2
STDGX5
 10
61.908842000000007
 20
64.536698999999999
 30
0.0
  0
INSERT
  5
56
  8
11
  2
STDGX5
 10
61.908842000000007
 20
64.536698999999999
 30
0.0
  0
INSERT
  5
57
  8
0
  2
STDGX5
 10
59.649229000000012
 20
67.243975000000006
 30
0.0
  0
INSERT
  5
58
  8
4
  2
STDGX5
 10
59.649229000000012
 20
67.243975000000006
 30
0.0
  0
INSERT
  5
59
  8
11
  2
STDGX5
 10
59.649229000000012
 20
67.243975000000006
 30
0.0
  0
INSERT
  5
5A
  8
0
  2
STDGX5
 10
73.176366999999999
 20
52.363292999999999
 30
0.0
  0
INSERT
  5
5B
  8
4
  2
STDGX5
 10
73.176366999999999
 20
52.363292999999999
 30
0.0
  0
INSERT
  5
5C
  8
11
  2
STDGX5
 10
73.176366999999999
 20
52.363292999999999
 30
0.0
  0
INSERT
  5
5D
  8
0
  2
STDGX5
 10
81.298756999999995
 20
130.35151099999999
 30
0.0
  0
INSERT
  5
5E
  8
4
  2
STDGX5
 10
81.298756999999995
 20
130.35151099999999
 30
0.0
  0
INSERT
  5
5F
  8
11
  2
STDGX5
 10
81.298756999999995
 20
130.35151099999999
 30
0.0
  0
INSERT
  5
60
  8
0
  2
STDGX5
 10
80.407669999999996
 20
67.232018000000011
 30
0.0
  0
INSERT
  5
61
  8
4
  2
STDGX5
 10
80.407669999999996
 20
67.232018000000011
 30
0.0
  0
INSERT
  5
62
  8
11
  2
STDGX5
 10
80.407669999999996
 20
67.232018000000011
 30
0.0
  0
INSERT
  5
63
  8
0
  2
STDGX5
 10
74.078281000000004
 20
59.123384999999999
 30
0.0
  0
INSERT
  5
64
  8
4
  2
STDGX5
 10
74.078281000000004
 20
59.123384999999999
 30
0.0
  0
INSERT
  5
65
  8
11
  2
STDGX5
 10
74.078281000000004
 20
59.123384999999999
 30
0.0
  0
INSERT
  5
66
  8
0
  2
STDGX5
 10
77.689999
 20
144.76732899999999
 30
0.0
  0
INSERT
  5
67
  8
4
  2
STDGX5
 10
77.689999
 20
144.76732899999999
 30
0.0
  0
INSERT
  5
68
  8
11
  2
STDGX5
 10
77.689999
 20
144.76732899999999
 30
0.0
  0
INSERT
  5
69
  8
0
  2
STDGX5
 10
87.617611999999994
 20
56.865784999999988
 30
0.0
  0
INSERT
  5
6A
  8
11
  2
STDGX5
 10
87.617611999999994
 20
56.865784999999988
 30
0.0
  0
INSERT
  5
6B
  8
0
  2
STDGX5
 10
78.601815000000002
 20
135.74968899999999
 30
0.0
  0
INSERT
  5
6C
  8
11
  2
STDGX5
 10
78.601815000000002
 20
135.74968899999999
 30
0.0
  0
INSERT
  5
6D
  8
0
  2
STDGX5
 10
61.917873999999991
 20
72.645861999999994
 30
0.0
  0
INSERT
  5
6E
  8
11
  2
STDGX5
 10
61.917873999999991
 20
72.645861999999994
 30
0.0
  0
LINE
  5
6F
  8
2
 10
157.89785599999999
 20
127.50842299999999
 30
0.0
 11
157.89785599999999
 21
112.983548
 31
0.0
  0
LINE
  5
70
  8
2
 10
200.897854
 20
127.50842299999999
 30
0.0
 11
200.897854
 21
116.50842299999999
 31
0.0
  0
LINE
  5
71
  8
1
 10
162.39785599999999
 20
130.50842299999999
 30
0.0
 11
162.39785599999999
 21
108.50842299999999
 31
0.0
  0
LINE
  5
72
  8
1
 10
196.397854
 20
130.50842299999999
 30
0.0
 11
196.397854
 21
108.50842299999999
 31
0.0
  0
LINE
  5
73
  8
1
 10
196.397854
 20
179.00842299999999
 30
0.0
 11
196.397854
 21
164.00842299999999
 31
0.0
  0
LINE
  5
74
  8
1
 10
162.39785599999999
 20
179.00842299999999
 30
0.0
 11
162.39785599999999
 21
164.00842299999999
 31
0.0
  0
LINE
  5
75
  8
0
 10
227.39785599999999
 20
112.00842299999999
 30
0.0
 11
226.89785599999999
 21
111.50842299999999
 31
0.0
  0
LINE
  5
76
  8
0
 10
226.89785599999999
 20
127.50842299999999
 30
0.0
 11
227.39785599999999
 21
127.00842299999999
 31
0.0
  0
LINE
  5
77
  8
0
 10
147.89785599999999
 20
127.50842299999999
 30
0.0
 11
147.39785599999999
 21
127.00842299999999
 31
0.0
  0
ARC
  5
78
  8
0
 10
152.39785599999999
 20
121.50842299999999
 30
0.0
 40
10.0
 50
240.0
 51
301.78833100000003
  0
ARC
  5
79
  8
0
 10
196.397854
 20
171.50842299999999
 30
0.0
 40
4.5
 50
270.00001099999997
 51
90.000011000000001
  0
ARC
  5
7A
  8
0
 10
162.39785599999999
 20
171.50842299999999
 30
0.0
 40
4.5
 50
89.999988999999985
 51
269.99998900000003
  0
LINE
  5
7B
  8
0
 10
147.39785599999999
 20
162.50842299999999
 30
0.0
 11
147.89785599999999
 21
162.00842299999999
 31
0.0
  0
LINE
  5
7C
  8
0
 10
227.39785599999999
 20
162.50842299999999
 30
0.0
 11
226.89785599999999
 21
162.00842299999999
 31
0.0
  0
LINE
  5
7D
  8
0
 10
226.89785599999999
 20
181.00842299999999
 30
0.0
 11
227.39785599999999
 21
180.50842299999999
 31
0.0
  0
LINE
  5
7E
  8
0
 10
147.89785599999999
 20
181.00842299999999
 30
0.0
 11
147.39785599999999
 21
180.50842299999999
 31
0.0
  0
LINE
  5
7F
  8
0
 10
147.89785599999999
 20
162.00842299999999
 30
0.0
 11
226.89785599999999
 21
162.00842299999999
 31
0.0
  0
LINE
  5
80
  8
0
 10
147.89785599999999
 20
181.00842299999999
 30
0.0
 11
226.89785599999999
 21
181.00842299999999
 31
0.0
  0
LINE
  5
81
  8
0
 10
162.39785599999999
 20
167.00842299999999
 30
0.0
 11
196.397854
 21
167.00842299999999
 31
0.0
  0
LINE
  5
82
  8
0
 10
162.39785599999999
 20
176.00842299999999
 30
0.0
 11
196.397854
 21
176.00842299999999
 31
0.0
  0
LINE
  5
83
  8
1
 10
142.39785599999999
 20
171.50842299999999
 30
0.0
 11
232.39785599999999
 21
171.50842299999999
 31
0.0
  0
LINE
  5
84
  8
0
 10
227.39785599999999
 20
127.00842299999999
 30
0.0
 11
227.39785599999999
 21
112.00842299999999
 31
0.0
  0
LINE
  5
85
  8
0
 10
147.39785599999999
 20
127.00842299999999
 30
0.0
 11
147.39785599999999
 21
112.848169
 31
0.0
  0
LINE
  5
86
  8
0
 10
171.665683
 20
111.50842299999999
 30
0.0
 11
226.89785599999999
 21
111.50842299999999
 31
0.0
  0
LINE
  5
87
  8
0
 10
147.89785599999999
 20
127.50842299999999
 30
0.0
 11
226.89785599999999
 21
127.50842299999999
 31
0.0
  0
LINE
  5
88
  8
0
 10
227.39785599999999
 20
180.50842299999999
 30
0.0
 11
227.39785599999999
 21
162.50842299999999
 31
0.0
  0
LINE
  5
89
  8
0
 10
147.39785599999999
 20
180.50842299999999
 30
0.0
 11
147.39785599999999
 21
162.50842299999999
 31
0.0
  0
CIRCLE
  5
8A
  8
0
 10
219.39785599999999
 20
171.50842299999999
 30
0.0
 40
3.375
  0
CIRCLE
  5
8B
  8
3
 10
219.39785599999999
 20
171.50842299999999
 30
0.0
 40
4.0
  0
LINE
  5
8C
  8
1
 10
219.39785599999999
 20
165.50842299999999
 30
0.0
 11
219.39785599999999
 21
177.50842299999999
 31
0.0
  0
LINE
  5
8D
  8
2
 10
157.665683
 20
162.00842299999999
 30
0.0
 11
157.665683
 21
181.00842299999999
 31
0.0
  0
LINE
  5
8E
  8
2
 10
172.39785599999999
 20
162.00842299999999
 30
0.0
 11
172.39785599999999
 21
167.00842299999999
 31
0.0
  0
LINE
  5
8F
  8
2
 10
172.39785599999999
 20
176.00842299999999
 30
0.0
 11
172.39785599999999
 21
181.00842299999999
 31
0.0
  0
LINE
  5
90
  8
1
 10
219.39785599999999
 20
130.50842299999999
 30
0.0
 11
219.39785599999999
 21
108.50842299999999
 31
0.0
  0
LINE
  5
91
  8
2
 10
215.39785599999999
 20
126.933423
 30
0.0
 11
215.39785599999999
 21
116.50842299999999
 31
0.0
  0
LINE
  5
92
  8
2
 10
216.02285599999999
 20
126.308423
 30
0.0
 11
216.02285599999999
 21
116.50842299999999
 31
0.0
  0
LINE
  5
93
  8
2
 10
196.397854
 20
176.00842299999999
 30
0.0
 11
227.39785599999999
 21
176.00842299999999
 31
0.0
  0
LINE
  5
94
  8
2
 10
196.397854
 20
167.00842299999999
 30
0.0
 11
227.39785599999999
 21
167.00842299999999
 31
0.0
  0
LINE
  5
95
  8
2
 10
196.397854
 20
116.50842299999999
 30
0.0
 11
227.39785599999999
 21
116.50842299999999
 31
0.0
  0
LINE
  5
96
  8
2
 10
214.822856
 20
127.50842299999999
 30
0.0
 11
216.02285599999999
 21
126.308423
 31
0.0
  0
LINE
  5
97
  8
2
 10
223.97285600000001
 20
127.50842299999999
 30
0.0
 11
222.77285599999999
 21
126.308423
 31
0.0
  0
LINE
  5
98
  8
2
 10
222.77285599999999
 20
126.308423
 30
0.0
 11
222.77285599999999
 21
116.50842299999999
 31
0.0
  0
LINE
  5
99
  8
2
 10
223.39785599999999
 20
126.933423
 30
0.0
 11
223.39785599999999
 21
116.50842299999999
 31
0.0
  0
LINE
  5
9A
  8
2
 10
216.02285599999999
 20
126.308423
 30
0.0
 11
222.77285599999999
 21
126.308423
 31
0.0
  0
POLYLINE
  5
9B
  8
0
 66
     1
 10
0.0
 20
0.0
 30
0.0
 70
     1
  0
VERTEX
  5
9C
  8
0
 10
267.89785599999999
 20
126.607398
 30
0.0
  0
VERTEX
  5
9D
  8
0
 10
267.89785599999999
 20
111.607398
 30
0.0
  0
VERTEX
  5
9E
  8
0
 10
268.39785599999999
 20
111.107398
 30
0.0
  0
VERTEX
  5
9F
  8
0
 10
286.39785599999999
 20
111.107398
 30
0.0
  0
VERTEX
  5
A0
  8
0
 10
286.89785599999999
 20
111.607398
 30
0.0
  0
VERTEX
  5
A1
  8
0
 10
286.89785599999999
 20
126.607398
 30
0.0
  0
VERTEX
  5
A2
  8
0
 10
286.39785599999999
 20
127.107398
 30
0.0
  0
VERTEX
  5
A3
  8
0
 10
268.39785599999999
 20
127.107398
 30
0.0
  0
SEQEND
  5
A4
  8
0
  0
LINE
  5
A5
  8
1
 10
277.39785599999999
 20
132.10739799999999
 30
0.0
 11
277.39785599999999
 21
106.107398
 31
0.0
  0
LINE
  5
A6
  8
0
 10
272.89785599999999
 20
111.107398
 30
0.0
 11
272.89785599999999
 21
116.107398
 31
0.0
  0
LINE
  5
A7
  8
0
 10
272.89785599999999
 20
116.107398
 30
0.0
 11
281.89785599999999
 21
116.107398
 31
0.0
  0
LINE
  5
A8
  8
0
 10
281.89785599999999
 20
116.107398
 30
0.0
 11
281.89785599999999
 21
111.107398
 31
0.0
  0
LINE
  5
A9
  8
0
 10
171.665683
 20
111.50842299999999
 30
0.0
 11
157.665683
 21
113.00842299999999
 31
0.0
  0
LINE
  5
AA
  8
1
 10
97.397856000000004
 20
132.10739799999999
 30
0.0
 11
97.397856000000004
 21
106.107398
 31
0.0
  0
POLYLINE
  5
AB
  8
0
 66
     1
 10
0.0
 20
0.0
 30
0.0
 70
     1
  0
VERTEX
  5
AC
  8
0
 10
106.897856
 20
126.607398
 30
0.0
  0
VERTEX
  5
AD
  8
0
 10
106.897856
 20
111.607398
 30
0.0
  0
VERTEX
  5
AE
  8
0
 10
106.397856
 20
111.107398
 30
0.0
  0
VERTEX
  5
AF
  8
0
 10
88.397856000000004
 20
111.107398
 30
0.0
  0
VERTEX
  5
B0
  8
0
 10
87.897856000000004
 20
111.607398
 30
0.0
  0
VERTEX
  5
B1
  8
0
 10
87.897856000000004
 20
126.607398
 30
0.0
  0
VERTEX
  5
B2
  8
0
 10
88.397856000000004
 20
127.107398
 30
0.0
  0
VERTEX
  5
B3
  8
0
 10
106.397856
 20
127.107398
 30
0.0
  0
SEQEND
  5
B4
  8
0
  0
LINE
  5
B5
  8
0
 10
106.897856
 20
112.848169
 30
0.0
 11
87.897856000000004
 21
112.848169
 31
0.0
  0
TEXT
  5
1D9
  8
0
 62
     3
 10
0.0
 20
0.0
 30
0.0
 40
10.0
  1
BJ156-08080
  7
STANDARD1
  0
ENDSEC
  0
EOF
