  0
SECTION
  2
HEADER
  9
$ACADVER
  1
AC1009
  9
$INSBASE
 10
82.638099999999994
 20
103.82319099999999
 30
0.0
  9
$EXTMIN
 10
0.0
 20
-2.960436562073669
 30
0.0
  9
$EXTMAX
 10
431.15781884434261
 20
322.6955073707328
 30
0.0
  9
$LIMMIN
 10
0.0
 20
0.0
  9
$LIMMAX
 10
375.0
 20
270.0
  9
$ORTHOMODE
 70
     1
  9
$REGENMODE
 70
     1
  9
$FILLMODE
 70
     1
  9
$QTEXTMODE
 70
     0
  9
$MIRRTEXT
 70
     0
  9
$DRAGMODE
 70
     2
  9
$LTSCALE
 40
10.0
  9
$OSMODE
 70
  3071
  9
$ATTMODE
 70
     1
  9
$TEXTSIZE
 40
0.06
  9
$TRACEWID
 40
0.05
  9
$TEXTSTYLE
  7
STANDARD
  9
$CLAYER
  8
0
  9
$CELTYPE
  6
BYLAYER
  9
$CECOLOR
 62
   256
  9
$DIMSCALE
 40
1.0
  9
$DIMASZ
 40
3.0
  9
$DIMEXO
 40
2.0
  9
$DIMDLI
 40
10.0
  9
$DIMRND
 40
0.0
  9
$DIMDLE
 40
0.0
  9
$DIMEXE
 40
2.0
  9
$DIMTP
 40
0.0
  9
$DIMTM
 40
0.0
  9
$DIMTXT
 40
3.0
  9
$DIMCEN
 40
0.0
  9
$DIMTSZ
 40
0.0
  9
$DIMTOL
 70
     0
  9
$DIMLIM
 70
     0
  9
$DIMTIH
 70
     0
  9
$DIMTOH
 70
     0
  9
$DIMSE1
 70
     0
  9
$DIMSE2
 70
     0
  9
$DIMTAD
 70
     1
  9
$DIMZIN
 70
     0
  9
$DIMBLK
  1

  9
$DIMASO
 70
     0
  9
$DIMSHO
 70
     0
  9
$DIMPOST
  1

  9
$DIMAPOST
  1

  9
$DIMALT
 70
     0
  9
$DIMALTD
 70
     2
  9
$DIMALTF
 40
25.399999999999999
  9
$DIMLFAC
 40
1.0
  9
$DIMTOFL
 70
     1
  9
$DIMTVP
 40
1.6000000000000001
  9
$DIMTIX
 70
     1
  9
$DIMSOXD
 70
     0
  9
$DIMSAH
 70
     0
  9
$DIMBLK1
  1

  9
$DIMBLK2
  1

  9
$DIMSTYLE
  2
STANDARD
  9
$DIMCLRD
 70
     0
  9
$DIMCLRE
 70
     0
  9
$DIMCLRT
 70
     0
  9
$DIMTFAC
 40
1.0
  9
$DIMGAP
 40
0.09
  9
$LUNITS
 70
     2
  9
$LUPREC
 70
     4
  9
$SKETCHINC
 40
0.1
  9
$FILLETRAD
 40
0.0
  9
$AUNITS
 70
     0
  9
$AUPREC
 70
     4
  9
$MENU
  1
E:\r13\win\SUPPORT\ACAD
  9
$ELEVATION
 40
0.0
  9
$PELEVATION
 40
0.0
  9
$THICKNESS
 40
0.0
  9
$LIMCHECK
 70
     0
  9
$BLIPMODE
 70
     0
  9
$CHAMFERA
 40
0.0
  9
$CHAMFERB
 40
0.0
  9
$SKPOLY
 70
     0
  9
$TDCREATE
 40
2449840.348113426
  9
$TDUPDATE
 40
2456597.6396670612
  9
$TDINDWG
 40
0.6299091088
  9
$TDUSRTIMER
 40
0.6299091088
  9
$USRTIMER
 70
     1
  9
$ANGBASE
 50
0.0
  9
$ANGDIR
 70
     0
  9
$PDMODE
 70
     1
  9
$PDSIZE
 40
0.0
  9
$PLINEWID
 40
0.0
  9
$COORDS
 70
     1
  9
$SPLFRAME
 70
     0
  9
$SPLINETYPE
 70
     6
  9
$SPLINESEGS
 70
     8
  9
$ATTDIA
 70
     0
  9
$ATTREQ
 70
     1
  9
$HANDLING
 70
     1
  9
$HANDSEED
  5
6A8B
  9
$SURFTAB1
 70
     6
  9
$SURFTAB2
 70
     6
  9
$SURFTYPE
 70
     6
  9
$SURFU
 70
     6
  9
$SURFV
 70
     6
  9
$UCSNAME
  2

  9
$UCSORG
 10
0.0
 20
0.0
 30
0.0
  9
$UCSXDIR
 10
1.0
 20
0.0
 30
0.0
  9
$UCSYDIR
 10
0.0
 20
1.0
 30
0.0
  9
$PUCSNAME
  2

  9
$PUCSORG
 10
0.0
 20
0.0
 30
0.0
  9
$PUCSXDIR
 10
1.0
 20
0.0
 30
0.0
  9
$PUCSYDIR
 10
0.0
 20
1.0
 30
0.0
  9
$USERI1
 70
     3
  9
$USERI2
 70
     1
  9
$USERI3
 70
     0
  9
$USERI4
 70
     0
  9
$USERI5
 70
     0
  9
$USERR1
 40
1.0
  9
$USERR2
 40
3.0
  9
$USERR3
 40
3.0
  9
$USERR4
 40
3.0
  9
$USERR5
 40
10.0
  9
$WORLDVIEW
 70
     1
  9
$SHADEDGE
 70
     3
  9
$SHADEDIF
 70
    70
  9
$TILEMODE
 70
     1
  9
$MAXACTVP
 70
    16
  9
$PLIMCHECK
 70
     0
  9
$PEXTMIN
 10
1.0000000000000000E+020
 20
1.0000000000000000E+020
 30
1.0000000000000000E+020
  9
$PEXTMAX
 10
-1.0000000000000000E+020
 20
-1.0000000000000000E+020
 30
-1.0000000000000000E+020
  9
$PLIMMIN
 10
0.0
 20
0.0
  9
$PLIMMAX
 10
12.0
 20
9.0
  9
$UNITMODE
 70
     0
  9
$VISRETAIN
 70
     0
  9
$PLINEGEN
 70
     0
  9
$PSLTSCALE
 70
     0
  0
ENDSEC
  0
SECTION
  2
TABLES
  0
TABLE
  2
VPORT
 70
     1
  0
VPORT
  2
*ACTIVE
 70
     0
 10
0.0
 20
0.0
 11
1.0
 21
1.0
 12
224.60286249689281
 22
159.87057163146471
 13
0.0
 23
0.0
 14
5.0
 24
5.0
 15
10.0
 25
10.0
 16
0.0
 26
0.0
 36
1.0
 17
0.0
 27
0.0
 37
0.0
 40
328.59037205913262
 41
1.831871345029239
 42
50.0
 43
0.0
 44
0.0
 50
0.0
 51
0.0
 71
     0
 72
   100
 73
     1
 74
     0
 75
     0
 76
     0
 77
     0
 78
     0
  0
ENDTAB
  0
TABLE
  2
LTYPE
 70
     4
  0
LTYPE
  2
CONTINUOUS
 70
     0
  3
Solid Line
 72
    65
 73
     0
 40
0.0
  0
LTYPE
  2
CENTER
 70
     0
  3
____ _ ____ _ ____ _ ____ _ ____ _ ____ _ ____
 72
    65
 73
     4
 40
2.0
 49
1.25
 49
-0.25
 49
0.25
 49
-0.25
  0
LTYPE
  2
HIDDEN
 70
     0
  3
__ __ __ __ __ __ __ __ __ __ __ __ __ __ __ __
 72
    65
 73
     2
 40
0.375
 49
0.25
 49
-0.125
  0
LTYPE
  2
PHANTOM2
 70
     0
  3
___ _ _ ___ _ _ ___ _ _ ___ _ _
 72
    65
 73
     6
 40
1.25
 49
0.625
 49
-0.125
 49
0.125
 49
-0.125
 49
0.125
 49
-0.125
  0
ENDTAB
  0
TABLE
  2
LAYER
 70
     5
  0
LAYER
  2
0
 70
     0
 62
     7
  6
CONTINUOUS
  0
LAYER
  2
1
 70
     0
 62
     1
  6
CENTER
  0
LAYER
  2
2
 70
     0
 62
     2
  6
HIDDEN
  0
LAYER
  2
3
 70
     0
 62
     3
  6
CONTINUOUS
  0
LAYER
  2
DEFPOINTS
 70
     0
 62
     7
  6
CONTINUOUS
  0
ENDTAB
  0
TABLE
  2
STYLE
 70
     2
  0
STYLE
  2
STANDARD
 70
     0
 40
0.0
 41
1.0
 50
0.0
 71
     0
 42
0.06
  3
TXT
  4
BIGFONT
  0
STYLE
  2
STANDARD1
 70
     0
 40
0.0
 41
1.0
 50
0.0
 71
     0
 42
3.0
  3
txt
  4

  0
ENDTAB
  0
TABLE
  2
VIEW
 70
     0
  0
ENDTAB
  0
TABLE
  2
UCS
 70
     0
  0
ENDTAB
  0
TABLE
  2
APPID
 70
     3
  0
APPID
  2
ACAD
 70
     0
  0
APPID
  2
ACAD_MLEADERVER
 70
     0
  0
APPID
  2
ACAD_NAV_VCDISPLAY
 70
     0
  0
ENDTAB
  0
TABLE
  2
DIMSTYLE
 70
     1
  0
DIMSTYLE
  2
STANDARD
 70
     0
  3

  4

  5

  6

  7

 40
1.0
 41
0.18
 42
0.0625
 43
0.38
 44
0.18
 45
0.0
 46
0.0
 47
0.0
 48
0.0
140
0.18
141
0.09
142
0.0
143
25.399999999999999
144
1.0
145
0.0
146
1.0
147
0.09
 71
     0
 72
     0
 73
     1
 74
     1
 75
     0
 76
     0
 77
     0
 78
     0
170
     0
171
     2
172
     0
173
     0
174
     0
175
     0
176
     0
177
     0
178
     0
  0
ENDTAB
  0
ENDSEC
  0
SECTION
  2
BLOCKS
  0
BLOCK
  8
0
  2
$MODEL_SPACE
 70
     0
 10
0.0
 20
0.0
 30
0.0
  3
$MODEL_SPACE
  1

  0
ENDBLK
  5
223
  8
0
  0
BLOCK
 67
     1
  8
0
  2
$PAPER_SPACE
 70
     0
 10
0.0
 20
0.0
 30
0.0
  3
$PAPER_SPACE
  1

  0
ENDBLK
  5
221
 67
     1
  8
0
  0
ENDSEC
  0
SECTION
  2
ENTITIES
  0
ARC
  5
6142
  8
0
 10
248.15781854631939
 20
44.695507981679043
 30
0.0
 40
13.99999999999851
 50
50.791603809977907
 51
61.174550839588669
  0
ARC
  5
6143
  8
0
 10
248.15781854631939
 20
44.695507981679043
 30
0.0
 40
13.9999999999984
 50
118.8254491604111
 51
129.20839619002189
  0
LINE
  5
6147
  8
0
 10
256.15781854631939
 20
140.69550798167791
 30
0.0
 11
256.15781854631939
 21
203.4685079816777
 31
0.0
  0
LINE
  5
6148
  8
0
 10
240.1578185463195
 20
203.4685079816777
 30
0.0
 11
240.1578185463195
 21
140.69550798167791
 31
0.0
  0
LINE
  5
614A
  8
0
 10
256.15781854631939
 20
203.4685079816777
 30
0.0
 11
254.93081854631939
 21
204.69550798167779
 31
0.0
  0
LINE
  5
614B
  8
0
 10
241.38481854631951
 20
204.69550798167779
 30
0.0
 11
240.1578185463195
 21
203.4685079816777
 31
0.0
  0
LINE
  5
614C
  8
0
 10
254.9078185463195
 20
56.960804553713949
 30
0.0
 11
254.9078185463195
 21
88.695507981677906
 31
0.0
  0
LINE
  5
614D
  8
0
 10
241.4078185463195
 20
88.695507981677906
 30
0.0
 11
241.4078185463195
 21
56.960804553713949
 31
0.0
  0
LINE
  5
614E
  8
0
 10
287.1578185463195
 20
75.695507981677906
 30
0.0
 11
287.1578185463195
 21
68.695507981677906
 31
0.0
  0
LINE
  5
614F
  8
0
 10
319.1578185463195
 20
68.695507981677906
 30
0.0
 11
319.1578185463195
 21
75.695507981677906
 31
0.0
  0
LINE
  5
6150
  8
0
 10
292.1578185463195
 20
83.695507981677906
 30
0.0
 11
292.1578185463195
 21
75.695507981677906
 31
0.0
  0
LINE
  5
6151
  8
0
 10
314.1578185463195
 20
75.695507981677906
 30
0.0
 11
314.1578185463195
 21
83.695507981677906
 31
0.0
  0
LINE
  5
6152
  8
0
 10
311.1578185463195
 20
172.59550798167791
 30
0.0
 11
309.25256265799362
 21
173.69550798167791
 31
0.0
  0
LINE
  5
6153
  8
0
 10
297.06307443464539
 20
173.69550798167791
 30
0.0
 11
295.1578185463195
 21
172.59550798167791
 31
0.0
  0
LINE
  5
6154
  8
0
 10
295.1578185463195
 20
172.59550798167791
 30
0.0
 11
295.1578185463195
 21
113.69550798167791
 31
0.0
  0
LINE
  5
6155
  8
0
 10
295.1578185463195
 20
88.695507981677963
 30
0.0
 11
295.1578185463195
 21
85.695507981677906
 31
0.0
  0
LINE
  5
6156
  8
0
 10
311.1578185463195
 20
85.695507981677906
 30
0.0
 11
311.1578185463195
 21
88.695507981677963
 31
0.0
  0
LINE
  5
6157
  8
0
 10
311.1578185463195
 20
113.69550798167791
 30
0.0
 11
311.1578185463195
 21
172.59550798167791
 31
0.0
  0
LINE
  5
6158
  8
0
 10
295.1578185463195
 20
85.695507981677906
 30
0.0
 11
297.6578185463195
 21
84.252132308703878
 31
0.0
  0
LINE
  5
6159
  8
0
 10
308.6578185463195
 20
84.252132308703878
 30
0.0
 11
311.1578185463195
 21
85.695507981677906
 31
0.0
  0
LINE
  5
615A
  8
0
 10
308.6578185463195
 20
83.695507981677906
 30
0.0
 11
308.6578185463195
 21
84.252132308703878
 31
0.0
  0
LINE
  5
615B
  8
0
 10
297.6578185463195
 20
84.252132308703878
 30
0.0
 11
297.6578185463195
 21
83.695507981677906
 31
0.0
  0
LINE
  5
615C
  8
0
 10
232.1578185463195
 20
122.69550798167791
 30
0.0
 11
232.1578185463195
 21
119.295507981678
 31
0.0
  0
LINE
  5
615D
  8
0
 10
264.1578185463195
 20
119.295507981678
 30
0.0
 11
264.1578185463195
 21
122.69550798167791
 31
0.0
  0
POLYLINE
  5
615E
  8
0
 66
     1
 10
0.0
 20
0.0
 30
0.0
 70
   128
  0
VERTEX
  5
69DA
  8
0
 10
232.1578185463195
 20
119.295507981678
 30
0.0
  0
VERTEX
  5
69DB
  8
0
 10
232.95843495024349
 20
118.89684446525639
 30
0.0
  0
VERTEX
  5
69DC
  8
0
 10
233.38333100187501
 20
118.69550798167791
 30
0.0
  0
SEQEND
  5
69DD
  8
0
  0
POLYLINE
  5
615F
  8
0
 66
     1
 10
0.0
 20
0.0
 30
0.0
 70
   128
  0
VERTEX
  5
69DE
  8
0
 10
262.93230609076409
 20
118.69550798167791
 30
0.0
  0
VERTEX
  5
69DF
  8
0
 10
263.35720214239558
 20
118.89684446525639
 30
0.0
  0
VERTEX
  5
69E0
  8
0
 10
264.1578185463195
 20
119.295507981678
 30
0.0
  0
SEQEND
  5
69E1
  8
0
  0
LINE
  5
6160
  8
0
 10
262.01422500687067
 20
139.33503607735861
 30
0.0
 11
259.6578185463195
 21
140.69550798167791
 31
0.0
  0
LINE
  5
6161
  8
0
 10
236.6578185463195
 20
140.69550798167791
 30
0.0
 11
234.30141208576839
 21
139.33503607735861
 31
0.0
  0
LINE
  5
6162
  8
0
 10
264.1578185463195
 20
118.19550798167791
 30
0.0
 11
263.6578185463195
 21
118.69550798167791
 31
0.0
  0
LINE
  5
6163
  8
0
 10
232.6578185463195
 20
118.69550798167791
 30
0.0
 11
232.1578185463195
 21
118.19550798167791
 31
0.0
  0
LINE
  5
6164
  8
0
 10
232.1578185463195
 20
114.19550798167791
 30
0.0
 11
232.6578185463195
 21
113.69550798167791
 31
0.0
  0
LINE
  5
6165
  8
0
 10
263.6578185463195
 20
113.69550798167791
 30
0.0
 11
264.1578185463195
 21
114.19550798167791
 31
0.0
  0
LINE
  5
6166
  8
0
 10
264.1578185463195
 20
114.19550798167791
 30
0.0
 11
264.1578185463195
 21
118.19550798167791
 31
0.0
  0
LINE
  5
6167
  8
0
 10
232.1578185463195
 20
118.19550798167791
 30
0.0
 11
232.1578185463195
 21
114.19550798167791
 31
0.0
  0
LINE
  5
616E
  8
0
 10
262.15781854631967
 20
34.695507981678389
 30
0.0
 11
234.1578185463195
 21
34.69550798167797
 31
0.0
  0
LINE
  5
616F
  8
0
 10
234.1578185463195
 20
34.69550798167797
 30
0.0
 11
234.1578185463197
 21
44.695507981678098
 31
0.0
  0
LINE
  5
6170
  8
0
 10
234.24136784939259
 20
40.295507981678149
 30
0.0
 11
234.15781854631959
 21
40.295507981678149
 31
0.0
  0
POLYLINE
  5
6171
  8
0
 66
     1
 10
0.0
 20
0.0
 30
0.0
 70
   128
  0
VERTEX
  5
69E2
  8
0
 10
234.24136784939259
 20
40.295507981678149
 30
0.0
  0
VERTEX
  5
69E3
  8
0
 10
234.3580847626323
 20
39.340057182793601
 30
0.0
  0
VERTEX
  5
69E4
  8
0
 10
234.87773928854941
 20
38.111700941364568
 30
0.0
  0
VERTEX
  5
69E5
  8
0
 10
235.80552866604509
 20
37.003603747477541
 30
0.0
  0
VERTEX
  5
69E6
  8
0
 10
236.69484028239549
 20
36.33011434247431
 30
0.0
  0
VERTEX
  5
69E7
  8
0
 10
237.70830430675139
 20
35.792983123405179
 30
0.0
  0
VERTEX
  5
69E8
  8
0
 10
239.42141347959611
 20
35.2181365430406
 30
0.0
  0
VERTEX
  5
69E9
  8
0
 10
241.24493722593721
 20
34.892899357040221
 30
0.0
  0
VERTEX
  5
69EA
  8
0
 10
243.70033655083779
 20
34.722828268405578
 30
0.0
  0
VERTEX
  5
69EB
  8
0
 10
246.17297598328909
 20
34.695507981678134
 30
0.0
  0
SEQEND
  5
69EC
  8
0
  0
POLYLINE
  5
6173
  8
0
 66
     1
 10
0.0
 20
0.0
 30
0.0
 70
   128
  0
VERTEX
  5
69ED
  8
0
 10
250.1426611093502
 20
34.695507981678134
 30
0.0
  0
VERTEX
  5
69EE
  8
0
 10
252.87401000454179
 20
34.731402390750077
 30
0.0
  0
VERTEX
  5
69EF
  8
0
 10
255.60535889973329
 20
34.965443019991767
 30
0.0
  0
VERTEX
  5
69F0
  8
0
 10
257.42830693963288
 20
35.362808498650402
 30
0.0
  0
VERTEX
  5
69F1
  8
0
 10
259.20211978185063
 20
36.084820575419258
 30
0.0
  0
VERTEX
  5
69F2
  8
0
 10
260.6826931074043
 20
37.167425447583703
 30
0.0
  0
VERTEX
  5
69F3
  8
0
 10
261.27347983793737
 20
37.8625152716765
 30
0.0
  0
VERTEX
  5
69F4
  8
0
 10
261.73706771797328
 20
38.686080648923109
 30
0.0
  0
VERTEX
  5
69F5
  8
0
 10
262.06413785249401
 20
40.012788368596198
 30
0.0
  0
VERTEX
  5
69F6
  8
0
 10
262.07426924324659
 20
40.295507981678149
 30
0.0
  0
SEQEND
  5
69F7
  8
0
  0
LINE
  5
6174
  8
0
 10
262.1578185463195
 20
40.295507981678149
 30
0.0
 11
262.07426924324659
 21
40.295507981678149
 31
0.0
  0
LINE
  5
6177
  8
0
 10
234.24136784939259
 20
44.695507981678134
 30
0.0
 11
234.24136784939259
 21
40.295507981678149
 31
0.0
  0
LINE
  5
6178
  8
0
 10
248.15781854631959
 20
44.695507981678134
 30
0.0
 11
234.15781854631979
 21
44.695507981678134
 31
0.0
  0
LINE
  5
6179
  8
0
 10
262.1578185463195
 20
44.695507981678098
 30
0.0
 11
248.15781854631959
 21
44.695507981678134
 31
0.0
  0
LINE
  5
617A
  8
0
 10
262.07426924324659
 20
40.295507981678149
 30
0.0
 11
262.07426924324659
 21
44.695507981678134
 31
0.0
  0
LINE
  5
617D
  8
0
 10
254.90781854631851
 20
56.960804553713949
 30
0.0
 11
241.4078185463195
 21
56.960804553713949
 31
0.0
  0
LINE
  5
617E
  8
0
 10
239.3078185463196
 20
44.695507981678077
 30
0.0
 11
239.30781854631951
 21
55.543434050746043
 31
0.0
  0
LINE
  5
617F
  8
0
 10
257.00781854631941
 20
55.543434050745986
 30
0.0
 11
257.00781854632191
 21
44.695507981678077
 31
0.0
  0
LINE
  5
6181
  8
0
 10
262.1578185463195
 20
44.695507981678134
 30
0.0
 11
262.1578185463195
 21
34.69550798167797
 31
0.0
  0
LINE
  5
6184
  8
0
 10
256.15781854631939
 20
203.4685079816777
 30
0.0
 11
240.1578185463195
 21
203.4685079816777
 31
0.0
  0
LINE
  5
6185
  8
0
 10
254.93081854631939
 20
204.69550798167779
 30
0.0
 11
241.38481854631951
 21
204.69550798167779
 31
0.0
  0
LINE
  5
6187
  8
0
 10
287.1578185463195
 20
68.695507981677906
 30
0.0
 11
319.1578185463195
 21
68.695507981677906
 31
0.0
  0
LINE
  5
6189
  8
0
 10
287.1578185463195
 20
75.695507981677906
 30
0.0
 11
319.1578185463195
 21
75.695507981677906
 31
0.0
  0
LINE
  5
618B
  8
0
 10
292.1578185463195
 20
83.695507981677906
 30
0.0
 11
314.1578185463195
 21
83.695507981677935
 31
0.0
  0
LINE
  5
618C
  8
0
 10
297.06307443464539
 20
173.69550798167791
 30
0.0
 11
309.25256265799362
 21
173.69550798167791
 31
0.0
  0
LINE
  5
618D
  8
0
 10
311.1578185463195
 20
172.59550798167791
 30
0.0
 11
295.1578185463195
 21
172.59550798167791
 31
0.0
  0
LINE
  5
618E
  8
0
 10
311.1578185463195
 20
85.695507981677906
 30
0.0
 11
295.1578185463195
 21
85.695507981677906
 31
0.0
  0
LINE
  5
618F
  8
0
 10
308.6578185463195
 20
84.252132308703878
 30
0.0
 11
297.6578185463195
 21
84.252132308703878
 31
0.0
  0
LINE
  5
6191
  8
0
 10
232.1578185463195
 20
122.69550798167791
 30
0.0
 11
264.1578185463195
 21
122.69550798167791
 31
0.0
  0
LINE
  5
6193
  8
0
 10
232.1578185463195
 20
119.295507981678
 30
0.0
 11
264.1578185463195
 21
119.295507981678
 31
0.0
  0
LINE
  5
6194
  8
0
 10
234.30141208576839
 20
122.69550798167791
 30
0.0
 11
234.30141208576839
 21
139.33503607735861
 31
0.0
  0
ARC
  5
6195
  8
0
 10
237.7655137009063
 20
134.10153366549639
 30
0.0
 40
6.2761092641036242
 50
56.499071751162433
 51
123.5009282488375
  0
LINE
  5
6196
  8
0
 10
241.229615316044
 20
122.69550798167791
 30
0.0
 11
241.229615316044
 21
139.33503607735861
 31
0.0
  0
LINE
  5
6198
  8
0
 10
236.6578185463195
 20
140.69550798167791
 30
0.0
 11
259.65781854631911
 21
140.69550798167791
 31
0.0
  0
ARC
  5
6199
  8
0
 10
258.550123391733
 20
134.10153366549631
 30
0.0
 40
6.2761092641038116
 50
56.499071751162752
 51
123.5009282488373
  0
ARC
  5
619A
  8
0
 10
248.15781854631939
 20
116.9700213433747
 30
0.0
 40
23.413540613314289
 50
72.788136995660381
 51
107.21186300433951
  0
LINE
  5
619B
  8
0
 10
255.08602177659509
 20
122.69550798167791
 30
0.0
 11
255.08602177659509
 21
139.33503607735861
 31
0.0
  0
LINE
  5
619C
  8
0
 10
262.01422500687067
 20
122.69550798167791
 30
0.0
 11
262.01422500687067
 21
139.33503607735861
 31
0.0
  0
LINE
  5
619D
  8
0
 10
264.15781854631928
 20
118.19550798167791
 30
0.0
 11
232.1578185463195
 21
118.19550798167791
 31
0.0
  0
LINE
  5
61A0
  8
0
 10
232.6578185463195
 20
118.69550798167791
 30
0.0
 11
263.6578185463195
 21
118.69550798167791
 31
0.0
  0
LINE
  5
61A1
  8
0
 10
232.1578185463195
 20
114.19550798167791
 30
0.0
 11
264.1578185463195
 21
114.19550798167791
 31
0.0
  0
LINE
  5
61B9
  8
3
 10
255.15781854631939
 20
204.4685079816777
 30
0.0
 11
255.1578185463195
 21
140.69550798167791
 31
0.0
  0
LINE
  5
61BA
  8
3
 10
241.15781854631939
 20
204.4685079816777
 30
0.0
 11
241.15781854631959
 21
140.69550798167791
 31
0.0
  0
LINE
  5
61BB
  8
3
 10
310.1578185463195
 20
173.17285825086751
 30
0.0
 11
310.15781854631928
 21
113.69550798167791
 31
0.0
  0
LINE
  5
61BC
  8
3
 10
296.1578185463195
 20
173.17285825086751
 30
0.0
 11
296.1578185463195
 21
113.69550798167791
 31
0.0
  0
CIRCLE
  5
6223
  8
0
 10
248.15781854631939
 20
303.69550737073189
 30
0.0
 40
7.9999999999998863
  0
LINE
  5
6225
  8
0
 10
234.15781811418569
 20
295.19550690879441
 30
0.0
 11
234.15781811418569
 21
295.9495405897996
 31
0.0
  0
LINE
  5
6226
  8
0
 10
234.15781811418569
 20
311.44147415166123
 30
0.0
 11
234.15781811418569
 21
312.19550783266641
 31
0.0
  0
CIRCLE
  5
6228
  8
0
 10
303.1578185463195
 20
303.69550737073081
 30
0.0
 40
8.0
  0
LINE
  5
6229
  8
0
 10
305.46721883657028
 20
307.69550756071988
 30
0.0
 11
300.84841766002228
 21
307.69550756071988
 31
0.0
  0
LINE
  5
622A
  8
0
 10
300.84841766002228
 20
307.69550756071988
 30
0.0
 11
298.53901707174828
 21
303.69550737073081
 31
0.0
  0
LINE
  5
622B
  8
0
 10
298.53901707174828
 20
303.69550737073081
 30
0.0
 11
300.84841766002228
 21
299.69550718074021
 31
0.0
  0
LINE
  5
622C
  8
0
 10
300.84841766002228
 20
299.69550718074021
 30
0.0
 11
305.46721883657028
 21
299.69550718074021
 31
0.0
  0
LINE
  5
622D
  8
0
 10
305.46721883657028
 20
299.69550718074021
 30
0.0
 11
307.77661942484428
 21
303.69550737073081
 31
0.0
  0
LINE
  5
622E
  8
0
 10
307.77661942484428
 20
303.69550737073081
 30
0.0
 11
305.46721883657028
 21
307.69550756071988
 31
0.0
  0
ARC
  5
622F
  8
0
 10
303.1578185463195
 20
303.69550737073098
 30
0.0
 40
15.99999999999998
 50
339.63586519368403
 51
20.364134806316649
  0
CIRCLE
  5
6230
  8
0
 10
248.1578185463195
 20
303.69550737073052
 30
0.0
 40
11.5
  0
POLYLINE
  5
6231
  8
0
 66
     1
 10
0.0
 20
0.0
 30
0.0
 70
   128
  0
VERTEX
  5
69F8
  8
0
 10
234.30141222270771
 20
303.69550737073052
 30
0.0
  0
VERTEX
  5
69F9
  8
0
 10
236.11597877534669
 20
306.83842932326081
 30
0.0
  0
VERTEX
  5
69FA
  8
0
 10
238.01188331636229
 20
310.12223151033101
 30
0.0
  0
VERTEX
  5
69FB
  8
0
 10
239.6232874372844
 20
312.91326603372869
 30
0.0
  0
VERTEX
  5
69FC
  8
0
 10
241.22961538451349
 20
315.6955074750382
 30
0.0
  0
SEQEND
  5
69FD
  8
0
  0
LINE
  5
6232
  8
0
 10
241.22961538451349
 20
315.6955074750382
 30
0.0
 11
255.08602170812529
 21
315.6955074750382
 31
0.0
  0
POLYLINE
  5
6233
  8
0
 66
     1
 10
0.0
 20
0.0
 30
0.0
 70
   128
  0
VERTEX
  5
69FE
  8
0
 10
255.08602170812529
 20
315.6955074750382
 30
0.0
  0
VERTEX
  5
69FF
  8
0
 10
256.90058872642572
 20
312.55258528967681
 30
0.0
  0
VERTEX
  5
6A00
  8
0
 10
258.79649326744129
 20
309.26878286977592
 30
0.0
  0
VERTEX
  5
6A01
  8
0
 10
260.40789738836338
 20
306.47774881203952
 30
0.0
  0
VERTEX
  5
6A02
  8
0
 10
262.0142248699313
 20
303.69550737073052
 30
0.0
  0
SEQEND
  5
6A03
  8
0
  0
POLYLINE
  5
6234
  8
0
 66
     1
 10
0.0
 20
0.0
 30
0.0
 70
   128
  0
VERTEX
  5
6A04
  8
0
 10
262.0142248699313
 20
303.69550737073052
 30
0.0
  0
VERTEX
  5
6A05
  8
0
 10
260.19965831729229
 20
300.55258541819933
 30
0.0
  0
VERTEX
  5
6A06
  8
0
 10
258.30375377627661
 20
297.26878323112902
 30
0.0
  0
VERTEX
  5
6A07
  8
0
 10
256.69234965535452
 20
294.47774870773139
 30
0.0
  0
VERTEX
  5
6A08
  8
0
 10
255.08602170812529
 20
291.69550726642188
 30
0.0
  0
SEQEND
  5
6A09
  8
0
  0
LINE
  5
6235
  8
0
 10
255.08602170812529
 20
291.69550726642188
 30
0.0
 11
241.22961538451349
 21
291.69550726642188
 31
0.0
  0
POLYLINE
  5
6236
  8
0
 66
     1
 10
0.0
 20
0.0
 30
0.0
 70
   128
  0
VERTEX
  5
6A0A
  8
0
 10
241.22961538451349
 20
291.69550726642188
 30
0.0
  0
VERTEX
  5
6A0B
  8
0
 10
239.4150483662132
 20
294.83842945178333
 30
0.0
  0
VERTEX
  5
6A0C
  8
0
 10
237.5191438251976
 20
298.12223187168422
 30
0.0
  0
VERTEX
  5
6A0D
  8
0
 10
235.90773970427551
 20
300.91326592942062
 30
0.0
  0
VERTEX
  5
6A0E
  8
0
 10
234.30141222270771
 20
303.69550737073052
 30
0.0
  0
SEQEND
  5
6A0F
  8
0
  0
CIRCLE
  5
6238
  8
0
 10
248.1578185463195
 20
303.69550737073058
 30
0.0
 40
15.99999999999994
  0
CIRCLE
  5
6248
  8
3
 10
248.15781854631939
 20
303.69550737073189
 30
0.0
 40
7.0
  0
CIRCLE
  5
6249
  8
3
 10
303.1578185463195
 20
303.69550737073081
 30
0.0
 40
7.0
  0
ARC
  5
624B
  8
0
 10
64.157814537904983
 20
44.695509829423081
 30
0.0
 40
13.99999999999792
 50
118.82544916040909
 51
180.00000000000631
  0
ARC
  5
624C
  8
0
 10
64.157814537904983
 20
44.695509829423081
 30
0.0
 40
14.00000000000003
 50
359.99999999999699
 51
61.174550839585251
  0
LINE
  5
624F
  8
0
 10
72.157814917886753
 20
203.4685070299108
 30
0.0
 11
70.930814655298491
 21
204.69551334609579
 31
0.0
  0
LINE
  5
6250
  8
0
 10
57.384814420515788
 20
204.69551334609579
 30
0.0
 11
56.157814157927533
 21
203.4685070299108
 31
0.0
  0
LINE
  5
6252
  8
0
 10
72.157814917886753
 20
140.69550672998039
 30
0.0
 11
72.157814917886753
 21
203.4685070299108
 31
0.0
  0
LINE
  5
6253
  8
0
 10
56.157814157927533
 20
203.4685070299108
 30
0.0
 11
56.157814157927533
 21
140.69550672998039
 31
0.0
  0
LINE
  5
6255
  8
0
 10
70.907814712995787
 20
56.960806273718788
 30
0.0
 11
70.907814712995773
 21
88.695509382387115
 31
0.0
  0
LINE
  5
6256
  8
0
 10
57.407814362818492
 20
88.695509382387115
 30
0.0
 11
57.407814362818492
 21
56.960806273718788
 31
0.0
  0
LINE
  5
6257
  8
0
 10
48.157813777947808
 20
75.695510045488788
 30
0.0
 11
48.157813777947808
 21
68.695509829421951
 31
0.0
  0
LINE
  5
6258
  8
0
 10
80.15781529786625
 20
68.695509829421951
 30
0.0
 11
80.15781529786625
 21
75.695510045488788
 31
0.0
  0
LINE
  5
6259
  8
0
 10
53.157814597511681
 20
83.695509494145824
 30
0.0
 11
53.157814597511681
 21
75.695510045488788
 31
0.0
  0
LINE
  5
625A
  8
0
 10
75.157814478302384
 20
75.695510045488788
 30
0.0
 11
75.157814478302384
 21
83.695509494145824
 31
0.0
  0
POLYLINE
  5
625B
  8
0
 66
     1
 10
0.0
 20
0.0
 30
0.0
 70
   128
  0
VERTEX
  5
6A10
  8
0
 10
78.932301891768475
 20
118.69551057448
 30
0.0
  0
VERTEX
  5
6A11
  8
0
 10
79.35719825866272
 20
118.8968476139507
 30
0.0
  0
VERTEX
  5
6A12
  8
0
 10
80.157815297866364
 20
119.2955095552406
 30
0.0
  0
SEQEND
  5
6A13
  8
0
  0
POLYLINE
  5
625C
  8
0
 66
     1
 10
0.0
 20
0.0
 30
0.0
 70
   128
  0
VERTEX
  5
6A14
  8
0
 10
48.157813777947922
 20
119.2955095552406
 30
0.0
  0
VERTEX
  5
6A15
  8
0
 10
48.958430817151559
 20
118.8968476139507
 30
0.0
  0
VERTEX
  5
6A16
  8
0
 10
49.383327184045811
 20
118.69551057448
 30
0.0
  0
SEQEND
  5
6A17
  8
0
  0
LINE
  5
625D
  8
0
 10
48.157813777947922
 20
122.6955112301311
 30
0.0
 11
48.157813777947922
 21
119.2955095552406
 31
0.0
  0
LINE
  5
625E
  8
0
 10
80.157815297866364
 20
119.2955095552406
 30
0.0
 11
80.157815297866364
 21
122.6955112301311
 31
0.0
  0
LINE
  5
625F
  8
0
 10
76.157814642215271
 20
140.40683398475261
 30
0.0
 11
75.657814560258885
 21
140.69550672998039
 31
0.0
  0
LINE
  5
6260
  8
0
 10
52.657814515555401
 20
140.69550672998039
 30
0.0
 11
52.157814433599007
 21
140.40683398475261
 31
0.0
  0
LINE
  5
6261
  8
0
 10
48.157813777947922
 20
114.19550890555
 30
0.0
 11
48.657814791226883
 21
113.69551161756129
 31
0.0
  0
LINE
  5
6262
  8
0
 10
79.657814284587403
 20
113.69551161756129
 30
0.0
 11
80.157815297866364
 21
114.19550890555
 31
0.0
  0
LINE
  5
6263
  8
0
 10
80.157815297866364
 20
118.19550956120111
 30
0.0
 11
79.657814284587403
 21
118.69551057448
 31
0.0
  0
LINE
  5
6264
  8
0
 10
48.657814791226883
 20
118.69551057448
 30
0.0
 11
48.157813777947922
 21
118.19550956120111
 31
0.0
  0
LINE
  5
6265
  8
0
 10
80.157815297866364
 20
114.19550890555
 30
0.0
 11
80.157815297866364
 21
118.19550956120111
 31
0.0
  0
LINE
  5
6266
  8
0
 10
48.157813777947922
 20
118.19550956120111
 30
0.0
 11
48.157813777947922
 21
114.19550890555
 31
0.0
  0
LINE
  5
6268
  8
0
 10
50.241363985264911
 20
40.295509644647552
 30
0.0
 11
50.157814105773582
 21
40.295509644647552
 31
0.0
  0
POLYLINE
  5
6269
  8
0
 66
     1
 10
0.0
 20
0.0
 30
0.0
 70
   128
  0
VERTEX
  5
6A18
  8
0
 10
50.241363985264911
 20
40.295509644647552
 30
0.0
  0
VERTEX
  5
6A19
  8
0
 10
50.358081055606021
 20
39.340058364768943
 30
0.0
  0
VERTEX
  5
6A1A
  8
0
 10
50.877734837854518
 20
38.111703493495902
 30
0.0
  0
VERTEX
  5
6A1B
  8
0
 10
51.80552490594448
 20
37.003604718347511
 30
0.0
  0
VERTEX
  5
6A1C
  8
0
 10
52.694836450541629
 20
36.330116935869171
 30
0.0
  0
VERTEX
  5
6A1D
  8
0
 10
53.708300744915618
 20
35.79298595418544
 30
0.0
  0
VERTEX
  5
6A1E
  8
0
 10
55.421409016276009
 20
35.21814013352008
 30
0.0
  0
VERTEX
  5
6A1F
  8
0
 10
57.244933029437668
 20
34.892899938722572
 30
0.0
  0
VERTEX
  5
6A20
  8
0
 10
59.700332401121273
 20
34.72282926072689
 30
0.0
  0
VERTEX
  5
6A21
  8
0
 10
62.172971950644857
 20
34.69550798167797
 30
0.0
  0
SEQEND
  5
6A22
  8
0
  0
LINE
  5
626A
  8
0
 10
78.157814970040704
 20
34.695507981677991
 30
0.0
 11
50.157814105773461
 21
34.69550798167797
 31
0.0
  0
LINE
  5
626B
  8
0
 10
50.157814105773461
 20
34.69550798167797
 30
0.0
 11
50.157814537907143
 21
44.695511204392972
 31
0.0
  0
POLYLINE
  5
626D
  8
0
 66
     1
 10
0.0
 20
0.0
 30
0.0
 70
   128
  0
VERTEX
  5
6A23
  8
0
 10
66.142657125169649
 20
34.69550798167797
 30
0.0
  0
VERTEX
  5
6A24
  8
0
 10
68.874005978727951
 20
34.731404878993949
 30
0.0
  0
VERTEX
  5
6A25
  8
0
 10
71.605354832286253
 20
34.965446241994812
 30
0.0
  0
VERTEX
  5
6A26
  8
0
 10
73.428302822435512
 20
35.362811782260849
 30
0.0
  0
VERTEX
  5
6A27
  8
0
 10
75.202115630531921
 20
36.084821470876648
 30
0.0
  0
VERTEX
  5
6A28
  8
0
 10
76.682689418817176
 20
37.167428084512672
 30
0.0
  0
VERTEX
  5
6A29
  8
0
 10
77.7370639199263
 20
38.686081790228798
 30
0.0
  0
VERTEX
  5
6A2A
  8
0
 10
78.064134163582935
 20
40.012789913316681
 30
0.0
  0
VERTEX
  5
6A2B
  8
0
 10
78.074265090549602
 20
40.295509644647552
 30
0.0
  0
SEQEND
  5
6A2C
  8
0
  0
LINE
  5
626E
  8
0
 10
78.157814970040931
 20
40.295509644647552
 30
0.0
 11
78.074265090549602
 21
40.295509644647552
 31
0.0
  0
LINE
  5
626F
  8
0
 10
78.157814537904983
 20
44.695511204400731
 30
0.0
 11
78.157814970040803
 21
34.69550798167797
 31
0.0
  0
LINE
  5
6271
  8
0
 10
50.241363985264911
 20
44.695509620805687
 30
0.0
 11
50.241363985264911
 21
40.295509644647552
 31
0.0
  0
LINE
  5
6272
  8
0
 10
78.157814537904983
 20
44.695509620805673
 30
0.0
 11
50.157814537907029
 21
44.695509620805687
 31
0.0
  0
LINE
  5
6273
  8
0
 10
78.074265090549602
 20
40.295509644647552
 30
0.0
 11
78.074265090549602
 21
44.695509620805687
 31
0.0
  0
LINE
  5
6278
  8
0
 10
70.907814712995673
 20
56.960806273718788
 30
0.0
 11
57.407814362818492
 21
56.960806273718788
 31
0.0
  0
ARC
  5
627A
  8
0
 10
64.157814537905097
 20
44.695509829423081
 30
0.0
 40
10.847926069067251
 50
359.99999999999551
 51
180.00000000000909
  0
LINE
  5
627F
  8
0
 10
72.157814917886526
 20
203.4685070299108
 30
0.0
 11
56.157814157927533
 21
203.4685070299108
 31
0.0
  0
LINE
  5
6281
  8
0
 10
70.930814655298605
 20
204.69551334609591
 30
0.0
 11
57.384814420515788
 21
204.69551334609579
 31
0.0
  0
LINE
  5
6283
  8
0
 10
48.157813777947808
 20
68.695509829421951
 30
0.0
 11
57.407814362818392
 21
68.695509829421951
 31
0.0
  0
LINE
  5
6284
  8
0
 10
70.907814712995787
 20
68.695509829421951
 30
0.0
 11
80.15781529786625
 21
68.695509829421951
 31
0.0
  0
LINE
  5
6285
  8
0
 10
48.157813777947808
 20
75.695510045488788
 30
0.0
 11
57.407814362818392
 21
75.695510045488788
 31
0.0
  0
LINE
  5
6286
  8
0
 10
70.907814712995787
 20
75.695510045488788
 30
0.0
 11
80.15781529786625
 21
75.695510045488788
 31
0.0
  0
LINE
  5
6287
  8
0
 10
53.157814597511681
 20
83.695509494145824
 30
0.0
 11
57.407814362818492
 21
83.695509494145824
 31
0.0
  0
LINE
  5
6288
  8
0
 10
70.907814712995773
 20
83.695509494145824
 30
0.0
 11
75.157814478302384
 21
83.695509494145824
 31
0.0
  0
LINE
  5
6289
  8
0
 10
48.157813777947922
 20
119.2955095552406
 30
0.0
 11
80.157815297866364
 21
119.2955095552406
 31
0.0
  0
LINE
  5
628A
  8
0
 10
48.157813777947922
 20
122.6955112301311
 30
0.0
 11
80.157815297866364
 21
122.6955112301311
 31
0.0
  0
LINE
  5
628B
  8
0
 10
52.657814515555401
 20
140.69550672998039
 30
0.0
 11
75.657814560258885
 21
140.69550672998039
 31
0.0
  0
ARC
  5
628C
  8
0
 10
58.157814485752851
 20
122.7585769249868
 30
0.0
 40
17.628927018393881
 50
70.10181878665945
 51
109.89818121334049
  0
LINE
  5
628D
  8
0
 10
52.157814433599007
 20
139.33503816356281
 30
0.0
 11
52.157814433599007
 21
140.3291020773849
 31
0.0
  0
LINE
  5
628E
  8
0
 10
76.157814642215271
 20
140.3325069927177
 30
0.0
 11
76.157814642215385
 21
139.33503816356281
 31
0.0
  0
ARC
  5
628F
  8
0
 10
70.157814590061093
 20
122.7585767149636
 30
0.0
 40
17.62892721587863
 50
70.101819018980052
 51
109.89818098101991
  0
LINE
  5
6290
  8
0
 10
52.157814433599007
 20
122.6955112301311
 30
0.0
 11
52.157814433599007
 21
139.33503816356281
 31
0.0
  0
LINE
  5
6291
  8
0
 10
64.157814537906674
 20
122.6955112301311
 30
0.0
 11
64.157814537906674
 21
139.33503816356281
 31
0.0
  0
LINE
  5
6292
  8
0
 10
76.157814642215385
 20
122.6955112301311
 30
0.0
 11
76.157814642215385
 21
139.33503816356281
 31
0.0
  0
LINE
  5
6293
  8
0
 10
48.157813777947922
 20
114.19550890555
 30
0.0
 11
80.157815297866364
 21
114.19550890555
 31
0.0
  0
LINE
  5
6294
  8
0
 10
80.157815297866364
 20
118.19550956120111
 30
0.0
 11
48.157813777947922
 21
118.19550956120111
 31
0.0
  0
LINE
  5
6295
  8
0
 10
48.657814791226883
 20
118.69551057448
 30
0.0
 11
79.657814284587403
 21
118.69551057448
 31
0.0
  0
LINE
  5
62A1
  8
3
 10
71.157814537906347
 20
204.46851234354901
 30
0.0
 11
71.157814537906233
 21
140.69550672998039
 31
0.0
  0
LINE
  5
62A2
  8
3
 10
57.157814537906347
 20
204.4685123435471
 30
0.0
 11
57.157814537906347
 21
140.69550672998039
 31
0.0
  0
ARC
  5
62FC
  8
0
 10
412.15781884434472
 20
44.695507981678873
 30
0.0
 40
14.0
 50
118.82544916041481
 51
180.0000000000046
  0
ARC
  5
62FD
  8
0
 10
412.15781884434472
 20
44.695507981678873
 30
0.0
 40
13.99999999999792
 50
359.9999999999954
 51
61.1745508395909
  0
LINE
  5
62FE
  8
0
 10
420.15781884434449
 20
203.4685079816775
 30
0.0
 11
418.9308188443444
 21
204.69550798167751
 31
0.0
  0
LINE
  5
62FF
  8
0
 10
405.38481884434441
 20
204.69550798167759
 30
0.0
 11
404.15781884434449
 21
203.4685079816777
 31
0.0
  0
LINE
  5
6303
  8
0
 10
420.15781884434398
 20
172.59550798167709
 30
0.0
 11
420.15781884434449
 21
203.4685079816775
 31
0.0
  0
LINE
  5
6304
  8
0
 10
404.15781884434449
 20
203.4685079816777
 30
0.0
 11
404.15781884434398
 21
172.5955079816784
 31
0.0
  0
LINE
  5
6306
  8
0
 10
418.90781884434273
 20
56.960804553713622
 30
0.0
 11
418.90781884434301
 21
68.695507981677736
 31
0.0
  0
LINE
  5
6307
  8
0
 10
405.40781884434318
 20
68.695507981677736
 30
0.0
 11
405.40781884434273
 21
56.960804553713842
 31
0.0
  0
LINE
  5
6308
  8
0
 10
396.15781884434318
 20
75.695507981677736
 30
0.0
 11
396.15781884434318
 21
68.695507981677736
 31
0.0
  0
LINE
  5
6309
  8
0
 10
428.15781884434318
 20
68.695507981677736
 30
0.0
 11
428.15781884434318
 21
75.695507981677736
 31
0.0
  0
LINE
  5
630A
  8
0
 10
401.15781884434313
 20
83.695507981677736
 30
0.0
 11
401.15781884434313
 21
75.695507981677736
 31
0.0
  0
LINE
  5
630B
  8
0
 10
423.15781884434318
 20
75.695507981677736
 30
0.0
 11
423.15781884434318
 21
83.695507981677736
 31
0.0
  0
LINE
  5
630C
  8
0
 10
404.15781884434313
 20
85.695507981677736
 30
0.0
 11
406.65781884434318
 21
84.252132308703665
 31
0.0
  0
LINE
  5
630D
  8
0
 10
417.65781884434313
 20
84.252132308703665
 30
0.0
 11
420.15781884434318
 21
85.695507981677736
 31
0.0
  0
LINE
  5
630E
  8
0
 10
404.15781884434313
 20
172.59550798167771
 30
0.0
 11
404.15781884434313
 21
113.69550798167769
 31
0.0
  0
LINE
  5
630F
  8
0
 10
404.15781884434313
 20
93.695507981677736
 30
0.0
 11
404.15781884434313
 21
85.695507981677736
 31
0.0
  0
LINE
  5
6310
  8
0
 10
420.15781884434318
 20
85.695507981677736
 30
0.0
 11
420.15781884434318
 21
93.695507981677736
 31
0.0
  0
LINE
  5
6311
  8
0
 10
420.15781884434318
 20
113.69550798167769
 30
0.0
 11
420.15781884434318
 21
172.59550798167771
 31
0.0
  0
LINE
  5
6312
  8
0
 10
420.1578188443429
 20
172.59550798167771
 30
0.0
 11
418.25256295601719
 21
173.69550798167771
 31
0.0
  0
LINE
  5
6313
  8
0
 10
406.06307473266878
 20
173.69550798167771
 30
0.0
 11
404.15781884434313
 21
172.59550798167771
 31
0.0
  0
LINE
  5
6314
  8
0
 10
417.65781884434313
 20
83.695507981677736
 30
0.0
 11
417.65781884434313
 21
84.252132308703665
 31
0.0
  0
LINE
  5
6315
  8
0
 10
406.65781884434318
 20
84.252132308703665
 30
0.0
 11
406.65781884434318
 21
83.695507981677736
 31
0.0
  0
LINE
  5
6316
  8
0
 10
396.15781884434318
 20
122.69550798167769
 30
0.0
 11
396.15781884434318
 21
119.2955079816777
 31
0.0
  0
LINE
  5
6317
  8
0
 10
428.15781884434318
 20
119.2955079816777
 30
0.0
 11
428.15781884434318
 21
122.69550798167769
 31
0.0
  0
POLYLINE
  5
6318
  8
0
 66
     1
 10
0.0
 20
0.0
 30
0.0
 70
   128
  0
VERTEX
  5
6A2D
  8
0
 10
426.93230638878748
 20
118.69550798167769
 30
0.0
  0
VERTEX
  5
6A2E
  8
0
 10
427.35720244041931
 20
118.89684446525609
 30
0.0
  0
VERTEX
  5
6A2F
  8
0
 10
428.15781884434318
 20
119.2955079816777
 30
0.0
  0
SEQEND
  5
6A30
  8
0
  0
POLYLINE
  5
6319
  8
0
 66
     1
 10
0.0
 20
0.0
 30
0.0
 70
   128
  0
VERTEX
  5
6A31
  8
0
 10
396.15781884434318
 20
119.2955079816777
 30
0.0
  0
VERTEX
  5
6A32
  8
0
 10
396.95843524826699
 20
118.89684446525609
 30
0.0
  0
VERTEX
  5
6A33
  8
0
 10
397.3833312998986
 20
118.69550798167769
 30
0.0
  0
SEQEND
  5
6A34
  8
0
  0
LINE
  5
631A
  8
0
 10
424.15781884434318
 20
140.40683284708291
 30
0.0
 11
423.65781884434318
 21
140.69550798167779
 31
0.0
  0
LINE
  5
631B
  8
0
 10
400.6578188443429
 20
140.69550798167779
 30
0.0
 11
400.15781884434313
 21
140.40683284708291
 31
0.0
  0
LINE
  5
631C
  8
0
 10
396.15781884434318
 20
114.19550798167781
 30
0.0
 11
396.6578188443429
 21
113.69550798167769
 31
0.0
  0
LINE
  5
631D
  8
0
 10
427.65781884434318
 20
113.69550798167769
 30
0.0
 11
428.15781884434318
 21
114.19550798167781
 31
0.0
  0
LINE
  5
631E
  8
0
 10
428.15781884434318
 20
118.19550798167769
 30
0.0
 11
427.65781884434318
 21
118.69550798167769
 31
0.0
  0
LINE
  5
631F
  8
0
 10
396.6578188443429
 20
118.69550798167769
 30
0.0
 11
396.15781884434318
 21
118.19550798167769
 31
0.0
  0
LINE
  5
6320
  8
0
 10
428.15781884434318
 20
114.19550798167781
 30
0.0
 11
428.15781884434318
 21
118.19550798167769
 31
0.0
  0
LINE
  5
6321
  8
0
 10
396.15781884434318
 20
118.19550798167769
 30
0.0
 11
396.15781884434318
 21
114.19550798167781
 31
0.0
  0
LINE
  5
632D
  8
0
 10
398.15781884434273
 20
34.69550798167797
 30
0.0
 11
398.15781884434273
 21
44.695507981678873
 31
0.0
  0
LINE
  5
632E
  8
0
 10
398.24136814741593
 20
40.295507981677922
 30
0.0
 11
398.15781884434273
 21
40.295507981677922
 31
0.0
  0
POLYLINE
  5
632F
  8
0
 66
     1
 10
0.0
 20
0.0
 30
0.0
 70
   128
  0
VERTEX
  5
6A35
  8
0
 10
398.24136814741593
 20
40.295507981677922
 30
0.0
  0
VERTEX
  5
6A36
  8
0
 10
398.35808506065541
 20
39.340057182793373
 30
0.0
  0
VERTEX
  5
6A37
  8
0
 10
398.87773958657232
 20
38.111700941364347
 30
0.0
  0
VERTEX
  5
6A38
  8
0
 10
399.80552896406829
 20
37.003603747477307
 30
0.0
  0
VERTEX
  5
6A39
  8
0
 10
400.69484058041871
 20
36.330114342474019
 30
0.0
  0
VERTEX
  5
6A3A
  8
0
 10
401.70830460477458
 20
35.792983123404902
 30
0.0
  0
VERTEX
  5
6A3B
  8
0
 10
403.42141377761931
 20
35.218136543040323
 30
0.0
  0
VERTEX
  5
6A3C
  8
0
 10
405.24493752396029
 20
34.89289935703988
 30
0.0
  0
VERTEX
  5
6A3D
  8
0
 10
407.70033684886079
 20
34.722828268405237
 30
0.0
  0
VERTEX
  5
6A3E
  8
0
 10
410.17297628131189
 20
34.695507981677792
 30
0.0
  0
SEQEND
  5
6A3F
  8
0
  0
LINE
  5
6330
  8
0
 10
426.1578188443425
 20
34.695507981677572
 30
0.0
 11
398.15781884434273
 21
34.695507981677991
 31
0.0
  0
POLYLINE
  5
6331
  8
0
 66
     1
 10
0.0
 20
0.0
 30
0.0
 70
   128
  0
VERTEX
  5
6A40
  8
0
 10
414.14266140737351
 20
34.695507981677743
 30
0.0
  0
VERTEX
  5
6A41
  8
0
 10
416.87401030256478
 20
34.731402390749622
 30
0.0
  0
VERTEX
  5
6A42
  8
0
 10
419.60535919775612
 20
34.965443019991262
 30
0.0
  0
VERTEX
  5
6A43
  8
0
 10
421.42830723765599
 20
35.362808498649891
 30
0.0
  0
VERTEX
  5
6A44
  8
0
 10
423.20212007987351
 20
36.084820575418753
 30
0.0
  0
VERTEX
  5
6A45
  8
0
 10
424.68269340542741
 20
37.167425447583128
 30
0.0
  0
VERTEX
  5
6A46
  8
0
 10
425.2734801359602
 20
37.862515271675989
 30
0.0
  0
VERTEX
  5
6A47
  8
0
 10
425.7370680159965
 20
38.686080648922541
 30
0.0
  0
VERTEX
  5
6A48
  8
0
 10
426.06413815051701
 20
40.012788368595629
 30
0.0
  0
VERTEX
  5
6A49
  8
0
 10
426.07426954126981
 20
40.295507981677531
 30
0.0
  0
SEQEND
  5
6A4A
  8
0
  0
LINE
  5
6332
  8
0
 10
426.15781884434273
 20
40.295507981677531
 30
0.0
 11
426.07426954126981
 21
40.295507981677531
 31
0.0
  0
LINE
  5
6333
  8
0
 10
426.1578188443429
 20
44.695507981678297
 30
0.0
 11
426.1578188443425
 21
34.695507981677572
 31
0.0
  0
LINE
  5
6335
  8
0
 10
398.24136814741593
 20
44.695507981677899
 30
0.0
 11
398.24136814741593
 21
40.295507981677922
 31
0.0
  0
LINE
  5
6336
  8
0
 10
426.15781884434273
 20
44.695507981677508
 30
0.0
 11
398.15781884434477
 21
44.695507981677899
 31
0.0
  0
LINE
  5
6337
  8
0
 10
426.07426954126981
 20
40.295507981677531
 30
0.0
 11
426.07426954126981
 21
44.695507981677508
 31
0.0
  0
LINE
  5
633C
  8
0
 10
418.90781884434273
 20
56.960804553713622
 30
0.0
 11
405.40781884434489
 21
56.960804553713842
 31
0.0
  0
ARC
  5
633D
  8
0
 10
412.15781884434489
 20
44.695507981678873
 30
0.0
 40
10.847926069069899
 50
359.99999999999397
 51
180.00000000002669
  0
LINE
  5
633E
  8
0
 10
420.15781884434449
 20
203.4685079816775
 30
0.0
 11
404.15781884434449
 21
203.4685079816777
 31
0.0
  0
LINE
  5
633F
  8
0
 10
418.9308188443444
 20
204.69550798167751
 30
0.0
 11
405.38481884434441
 21
204.69550798167759
 31
0.0
  0
LINE
  5
6342
  8
0
 10
396.15781884434318
 20
68.695507981677736
 30
0.0
 11
428.15781884434318
 21
68.695507981677736
 31
0.0
  0
LINE
  5
6343
  8
0
 10
396.15781884434318
 20
75.695507981677736
 30
0.0
 11
428.15781884434318
 21
75.695507981677736
 31
0.0
  0
LINE
  5
6344
  8
0
 10
401.15781884434313
 20
83.695507981677736
 30
0.0
 11
423.15781884434318
 21
83.695507981677736
 31
0.0
  0
LINE
  5
6345
  8
0
 10
420.15781884434318
 20
85.695507981677736
 30
0.0
 11
404.15781884434313
 21
85.695507981677736
 31
0.0
  0
LINE
  5
6346
  8
0
 10
417.65781884434313
 20
84.252132308703665
 30
0.0
 11
406.65781884434318
 21
84.252132308703665
 31
0.0
  0
LINE
  5
6347
  8
0
 10
420.15781884434318
 20
172.59550798167771
 30
0.0
 11
404.15781884434313
 21
172.59550798167771
 31
0.0
  0
LINE
  5
6348
  8
0
 10
406.06307473266878
 20
173.69550798167771
 30
0.0
 11
418.25256295601719
 21
173.69550798167771
 31
0.0
  0
LINE
  5
6349
  8
0
 10
396.15781884434318
 20
122.69550798167769
 30
0.0
 11
404.15781884434313
 21
122.69550798167769
 31
0.0
  0
LINE
  5
634A
  8
0
 10
420.15781884434318
 20
122.69550798167769
 30
0.0
 11
428.1578188443429
 21
122.69550798167769
 31
0.0
  0
LINE
  5
634B
  8
0
 10
396.15781884434318
 20
119.2955079816777
 30
0.0
 11
404.15781884434313
 21
119.2955079816777
 31
0.0
  0
LINE
  5
634C
  8
0
 10
420.15781884434318
 20
119.2955079816777
 30
0.0
 11
428.1578188443429
 21
119.2955079816777
 31
0.0
  0
POLYLINE
  5
634D
  8
0
 66
     1
 10
0.0
 20
0.0
 30
0.0
 70
   128
  0
VERTEX
  5
6A4B
  8
0
 10
424.1578188443429
 20
139.33503607735841
 30
0.0
  0
VERTEX
  5
6A4C
  8
0
 10
421.01489697738128
 20
140.14977661530591
 30
0.0
  0
VERTEX
  5
6A4D
  8
0
 10
420.15781884434318
 20
140.2596114028309
 30
0.0
  0
SEQEND
  5
6A4E
  8
0
  0
LINE
  5
634E
  8
0
 10
424.1578188443429
 20
122.69550798167769
 30
0.0
 11
424.1578188443429
 21
139.33503607735841
 31
0.0
  0
LINE
  5
634F
  8
0
 10
400.6578188443429
 20
140.69550798167779
 30
0.0
 11
404.15781884434313
 21
140.69550798167779
 31
0.0
  0
LINE
  5
6350
  8
0
 10
420.15781884434318
 20
140.69550798167779
 30
0.0
 11
423.65781884434318
 21
140.69550798167779
 31
0.0
  0
LINE
  5
6351
  8
0
 10
424.15781884434318
 20
140.3979293531761
 30
0.0
 11
424.1578188443429
 21
139.33503607735841
 31
0.0
  0
POLYLINE
  5
6352
  8
0
 66
     1
 10
0.0
 20
0.0
 30
0.0
 70
   128
  0
VERTEX
  5
6A4F
  8
0
 10
404.15781884434313
 20
140.22136611245961
 30
0.0
  0
VERTEX
  5
6A50
  8
0
 10
402.94006034798389
 20
140.08232869809069
 30
0.0
  0
VERTEX
  5
6A51
  8
0
 10
400.15781884434313
 20
139.33503607735841
 30
0.0
  0
SEQEND
  5
6A52
  8
0
  0
LINE
  5
6353
  8
0
 10
400.15781884434313
 20
139.33503607735841
 30
0.0
 11
400.15781884434313
 21
140.40016134390351
 31
0.0
  0
LINE
  5
6354
  8
0
 10
400.15781884434313
 20
122.69550798167769
 30
0.0
 11
400.15781884434313
 21
139.33503607735841
 31
0.0
  0
LINE
  5
6355
  8
0
 10
396.15781884434318
 20
114.19550798167781
 30
0.0
 11
404.15781884434313
 21
114.19550798167781
 31
0.0
  0
LINE
  5
6356
  8
0
 10
420.15781884434318
 20
114.19550798167781
 30
0.0
 11
428.15781884434318
 21
114.19550798167781
 31
0.0
  0
LINE
  5
6357
  8
0
 10
428.1578188443429
 20
118.19550798167769
 30
0.0
 11
420.15781884434273
 21
118.19550798167769
 31
0.0
  0
LINE
  5
6358
  8
0
 10
404.15781884434273
 20
118.19550798167769
 30
0.0
 11
396.15781884434318
 21
118.19550798167769
 31
0.0
  0
LINE
  5
6359
  8
0
 10
396.6578188443429
 20
118.69550798167769
 30
0.0
 11
404.15781884434313
 21
118.69550798167769
 31
0.0
  0
LINE
  5
635A
  8
0
 10
420.15781884434318
 20
118.69550798167769
 30
0.0
 11
427.65781884434318
 21
118.69550798167769
 31
0.0
  0
LINE
  5
64D7
  8
3
 10
296.1578185463195
 20
88.695507981677935
 30
0.0
 11
296.1578185463195
 21
85.118157712488326
 31
0.0
  0
LINE
  5
64D8
  8
3
 10
310.1578185463195
 20
88.695507981677935
 30
0.0
 11
310.1578185463195
 21
85.118157712488326
 31
0.0
  0
LINE
  5
64DB
  8
3
 10
405.15781884434313
 20
204.4685079816762
 30
0.0
 11
405.15781884434313
 21
113.69550798167781
 31
0.0
  0
LINE
  5
64DC
  8
3
 10
419.15781884434318
 20
204.46850798167881
 30
0.0
 11
419.1578188443429
 21
113.69550798167781
 31
0.0
  0
LINE
  5
64DD
  8
3
 10
419.15781884434318
 20
93.695507981677736
 30
0.0
 11
419.15781884434313
 21
85.118157712488099
 31
0.0
  0
LINE
  5
64DE
  8
3
 10
405.15781884434313
 20
93.695507981677736
 30
0.0
 11
405.15781884434313
 21
85.118157712488099
 31
0.0
  0
LINE
  5
64E7
  8
1
 10
64.157814537907143
 20
209.69551334609591
 30
0.0
 11
64.157814537907143
 21
29.695507981677991
 31
0.0
  0
LINE
  5
64EA
  8
1
 10
248.15781854631959
 20
209.69551334609611
 30
0.0
 11
248.15781854631959
 21
29.695507981678219
 31
0.0
  0
LINE
  5
64ED
  8
1
 10
303.1578185463195
 20
178.69550798167791
 30
0.0
 11
303.1578185463195
 21
63.695507981677899
 31
0.0
  0
LINE
  5
64EF
  8
1
 10
183.1578185463195
 20
292.1955073707307
 30
0.0
 11
183.1578185463195
 21
315.19550737073058
 31
0.0
  0
LINE
  5
64F0
  8
1
 10
248.15781854631959
 20
284.69550737073058
 30
0.0
 11
248.15781854631959
 21
322.69550737073052
 31
0.0
  0
LINE
  5
64F1
  8
1
 10
303.1578185463195
 20
292.69550737073081
 30
0.0
 11
303.1578185463195
 21
314.6955073707307
 31
0.0
  0
LINE
  5
64F2
  8
1
 10
153.15781497004079
 20
303.69550737073018
 30
0.0
 11
324.1578185463195
 21
303.69550737073018
 31
0.0
  0
LINE
  5
64F8
  8
1
 10
183.1578185463195
 20
116.69550798167791
 30
0.0
 11
183.1578185463195
 21
85.695507981677963
 31
0.0
  0
LINE
  5
6522
  8
1
 10
412.15781884434273
 20
209.69551334609559
 30
0.0
 11
412.15781884434273
 21
29.695507981677789
 31
0.0
  0
LINE
  5
663B
  8
3
 10
71.157814537907143
 20
88.695507981677935
 30
0.0
 11
71.157814537907143
 21
85.118157712488326
 31
0.0
  0
LINE
  5
663C
  8
3
 10
57.15781453790715
 20
88.695507981677935
 30
0.0
 11
57.15781453790715
 21
85.118157712488326
 31
0.0
  0
LINE
  5
663E
  8
0
 10
72.157814537907143
 20
85.695507981677906
 30
0.0
 11
70.907814712995773
 21
85.695507981677892
 31
0.0
  0
LINE
  5
6641
  8
0
 10
70.907814712995787
 20
84.973820246278393
 30
0.0
 11
72.157814537907143
 21
85.695507981677906
 31
0.0
  0
LINE
  5
6642
  8
0
 10
56.157814537907143
 20
85.695507981677906
 30
0.0
 11
57.407814362818492
 21
84.973820246278365
 31
0.0
  0
LINE
  5
6643
  8
0
 10
72.157814537907143
 20
85.695507981677906
 30
0.0
 11
72.157814537907143
 21
88.695507981677963
 31
0.0
  0
LINE
  5
6644
  8
0
 10
56.157814537907143
 20
88.695507981677963
 30
0.0
 11
56.157814537907143
 21
85.695507981677906
 31
0.0
  0
LINE
  5
6645
  8
0
 10
57.407814362818492
 20
85.695507981677892
 30
0.0
 11
56.157814537907143
 21
85.695507981677906
 31
0.0
  0
LINE
  5
6646
  8
0
 10
418.90781884434261
 20
83.695507981677736
 30
0.0
 11
418.90781884434261
 21
84.973820145190402
 31
0.0
  0
LINE
  5
6647
  8
0
 10
405.4078188443425
 20
84.973820145191041
 30
0.0
 11
405.4078188443425
 21
83.695507981677721
 31
0.0
  0
LINE
  5
68AC
  8
0
 10
404.15781884434273
 20
88.695511617561351
 30
0.0
 11
393.15781884434273
 21
88.695511617561394
 31
0.0
  0
LINE
  5
68AD
  8
0
 10
431.15781884434261
 20
88.695511617561294
 30
0.0
 11
420.15781884434273
 21
88.695511617561351
 31
0.0
  0
LINE
  5
68AE
  8
0
 10
393.15781884434273
 20
113.69551161756129
 30
0.0
 11
431.15781884434261
 21
113.69551161756129
 31
0.0
  0
LINE
  5
68AF
  8
0
 10
393.15781884434273
 20
113.69551161756129
 30
0.0
 11
393.15781884434273
 21
88.695511617561351
 31
0.0
  0
LINE
  5
68B0
  8
0
 10
403.65781884434273
 20
93.695511617561351
 30
0.0
 11
420.65781884434273
 21
93.695511617561351
 31
0.0
  0
LINE
  5
68B1
  8
0
 10
420.65781884434273
 20
93.695511617561351
 30
0.0
 11
420.65781884434273
 21
88.695511617561351
 31
0.0
  0
LINE
  5
68B2
  8
0
 10
395.15781884434273
 20
113.69551161756129
 30
0.0
 11
395.15781884434273
 21
88.695511617561351
 31
0.0
  0
LINE
  5
68B3
  8
0
 10
403.65781884434273
 20
93.695511617561351
 30
0.0
 11
403.65781884434273
 21
88.695511617561351
 31
0.0
  0
LINE
  5
68B4
  8
0
 10
431.15781884434261
 20
113.69551161756129
 30
0.0
 11
431.15781884434261
 21
88.695511617561351
 31
0.0
  0
LINE
  5
68B5
  8
0
 10
429.15781884434273
 20
113.69551161756129
 30
0.0
 11
429.15781884434273
 21
88.695511617561351
 31
0.0
  0
LINE
  5
68B6
  8
0
 10
83.157814537907257
 20
113.69551161756129
 30
0.0
 11
83.157814537907257
 21
88.695511617561294
 31
0.0
  0
LINE
  5
68B7
  8
0
 10
76.157814537907257
 20
108.69551161756129
 30
0.0
 11
76.157814537907257
 21
88.695511617561294
 31
0.0
  0
LINE
  5
68B8
  8
0
 10
76.157814537907257
 20
108.69551161756129
 30
0.0
 11
52.15781453790725
 21
108.69551161756129
 31
0.0
  0
LINE
  5
68B9
  8
0
 10
81.157814537907257
 20
113.69551161756129
 30
0.0
 11
76.157814537907257
 21
108.69551161756129
 31
0.0
  0
LINE
  5
68BA
  8
0
 10
83.157814537907257
 20
88.695511617561351
 30
0.0
 11
45.157814537907029
 21
88.695511617561294
 31
0.0
  0
LINE
  5
68BB
  8
0
 10
47.15781453790725
 20
113.69551161756129
 30
0.0
 11
52.15781453790725
 21
108.69551161756129
 31
0.0
  0
LINE
  5
68BC
  8
0
 10
83.15781453790737
 20
113.69551161756129
 30
0.0
 11
45.157814537907029
 21
113.69551161756129
 31
0.0
  0
LINE
  5
68BD
  8
0
 10
45.157814537907029
 20
113.69551161756129
 30
0.0
 11
45.157814537907029
 21
88.695511617561294
 31
0.0
  0
LINE
  5
68BE
  8
0
 10
52.15781453790725
 20
108.69551161756129
 30
0.0
 11
52.15781453790725
 21
88.695511617561294
 31
0.0
  0
LINE
  5
68BF
  8
2
 10
318.15781854631939
 20
312.19550737073303
 30
0.0
 11
234.60237683459351
 21
312.195507370732
 31
0.0
  0
LINE
  5
68C0
  8
2
 10
318.15781854631939
 20
295.19550737073291
 30
0.0
 11
234.6023768345938
 21
295.19550737073212
 31
0.0
  0
ARC
  5
68C1
  8
2
 10
248.15781854631939
 20
303.69550737073229
 30
0.0
 40
8.5000000000000568
 50
270.0
 51
90.0
  0
LINE
  5
68C2
  8
0
 10
158.15781854631939
 20
291.69550737073172
 30
0.0
 11
158.15781854631939
 21
315.69550737073172
 31
0.0
  0
LINE
  5
68C3
  8
0
 10
166.81807258416379
 20
286.69550737073178
 30
0.0
 11
166.81807258416379
 21
320.69550737073172
 31
0.0
  0
LINE
  5
68C4
  8
0
 10
158.1578185463195
 20
291.69550737073178
 30
0.0
 11
170.28217419930149
 21
284.69550737073178
 31
0.0
  0
LINE
  5
68C5
  8
0
 10
170.28217419930149
 20
284.69550737073178
 30
0.0
 11
316.15781854631939
 21
284.69550737073268
 31
0.0
  0
LINE
  5
68C6
  8
0
 10
316.15781854631939
 20
284.69550737073268
 30
0.0
 11
318.15781854631939
 21
286.69550737073268
 31
0.0
  0
LINE
  5
68C7
  8
0
 10
318.15781854631939
 20
320.6955073707328
 30
0.0
 11
318.15781854631939
 21
286.69550737073268
 31
0.0
  0
LINE
  5
68C8
  8
0
 10
316.15781854631939
 20
322.6955073707328
 30
0.0
 11
318.15781854631939
 21
320.6955073707328
 31
0.0
  0
LINE
  5
68C9
  8
0
 10
170.28217419930149
 20
322.69550737073178
 30
0.0
 11
316.15781854631939
 21
322.6955073707328
 31
0.0
  0
LINE
  5
68CA
  8
0
 10
158.1578185463195
 20
315.69550737073138
 30
0.0
 11
170.28217419930149
 21
322.69550737073178
 31
0.0
  0
LINE
  5
68CB
  8
0
 10
183.15781854631931
 20
312.19550737073178
 30
0.0
 11
234.6023768345934
 21
312.19550737073229
 31
0.0
  0
LINE
  5
68CC
  8
0
 10
234.6023768345936
 20
295.19550737073217
 30
0.0
 11
183.15781854631931
 21
295.19550737073178
 31
0.0
  0
ARC
  5
68CD
  8
0
 10
183.15781854631931
 20
303.69550737073178
 30
0.0
 40
8.5
 50
90.0
 51
270.0
  0
LINE
  5
68CE
  8
2
 10
256.65781854631939
 20
93.695507981677935
 30
0.0
 11
256.65781854631939
 21
113.69550798167791
 31
0.0
  0
LINE
  5
68CF
  8
2
 10
174.65781854631939
 20
113.69550798167791
 30
0.0
 11
174.65781854631939
 21
88.695507981677935
 31
0.0
  0
LINE
  5
68D0
  8
2
 10
248.15781854631939
 20
113.69550798167791
 30
0.0
 11
248.15781854631939
 21
93.695507981677935
 31
0.0
  0
LINE
  5
68D1
  8
2
 10
318.15781854631939
 20
93.695507981677935
 30
0.0
 11
248.15781854631939
 21
93.695507981677935
 31
0.0
  0
LINE
  5
68D2
  8
0
 10
318.15781854631939
 20
113.69550798167791
 30
0.0
 11
318.15781854631939
 21
88.695507981677935
 31
0.0
  0
LINE
  5
68D3
  8
0
 10
158.15781854631939
 20
88.695507981677935
 30
0.0
 11
318.15781854631939
 21
88.695507981677878
 31
0.0
  0
LINE
  5
68D4
  8
0
 10
166.81807258416379
 20
113.69550798167791
 30
0.0
 11
318.15781854631939
 21
113.69550798167801
 31
0.0
  0
LINE
  5
68D5
  8
0
 10
166.81807258416379
 20
113.69550798167791
 30
0.0
 11
158.15781854631939
 21
108.69550798167791
 31
0.0
  0
LINE
  5
68D6
  8
0
 10
158.15781854631939
 20
108.69550798167791
 30
0.0
 11
158.15781854631939
 21
88.695507981677935
 31
0.0
  0
LINE
  5
68D7
  8
0
 10
316.15781854631939
 20
113.69550798167791
 30
0.0
 11
316.15781854631939
 21
88.695507981677935
 31
0.0
  0
LINE
  5
68D8
  8
0
 10
170.28217419930149
 20
113.69550798167791
 30
0.0
 11
170.28217419930149
 21
88.695507981677935
 31
0.0
  0
TEXT
  5
6983
  8
0
 62
     3
 10
0.0
 20
0.0
 30
0.0
 40
10.0
  1
BJ153-16160B2-T
  7
STANDARD1
  0
ENDSEC
  0
EOF
