  0
SECTION
  2
HEADER
  9
$ACADVER
  1
AC1009
  9
$INSBASE
 10
82.638099999999994
 20
103.82319099999999
 30
0.0
  9
$EXTMIN
 10
0.0
 20
-2.960436562073669
 30
0.0
  9
$EXTMAX
 10
283.52681319058621
 20
248.97480353614179
 30
0.0
  9
$LIMMIN
 10
0.0
 20
0.0
  9
$LIMMAX
 10
375.0
 20
270.0
  9
$ORTHOMODE
 70
     1
  9
$REGENMODE
 70
     1
  9
$FILLMODE
 70
     1
  9
$QTEXTMODE
 70
     0
  9
$MIRRTEXT
 70
     0
  9
$DRAGMODE
 70
     2
  9
$LTSCALE
 40
10.0
  9
$OSMODE
 70
  3071
  9
$ATTMODE
 70
     1
  9
$TEXTSIZE
 40
0.06
  9
$TRACEWID
 40
0.05
  9
$TEXTSTYLE
  7
STANDARD
  9
$CLAYER
  8
0
  9
$CELTYPE
  6
BYLAYER
  9
$CECOLOR
 62
   256
  9
$DIMSCALE
 40
1.0
  9
$DIMASZ
 40
3.0
  9
$DIMEXO
 40
2.0
  9
$DIMDLI
 40
10.0
  9
$DIMRND
 40
0.0
  9
$DIMDLE
 40
0.0
  9
$DIMEXE
 40
2.0
  9
$DIMTP
 40
0.0
  9
$DIMTM
 40
0.0
  9
$DIMTXT
 40
3.0
  9
$DIMCEN
 40
0.0
  9
$DIMTSZ
 40
0.0
  9
$DIMTOL
 70
     0
  9
$DIMLIM
 70
     0
  9
$DIMTIH
 70
     0
  9
$DIMTOH
 70
     0
  9
$DIMSE1
 70
     0
  9
$DIMSE2
 70
     0
  9
$DIMTAD
 70
     1
  9
$DIMZIN
 70
     0
  9
$DIMBLK
  1

  9
$DIMASO
 70
     0
  9
$DIMSHO
 70
     0
  9
$DIMPOST
  1

  9
$DIMAPOST
  1

  9
$DIMALT
 70
     0
  9
$DIMALTD
 70
     2
  9
$DIMALTF
 40
25.399999999999999
  9
$DIMLFAC
 40
1.0
  9
$DIMTOFL
 70
     1
  9
$DIMTVP
 40
1.6000000000000001
  9
$DIMTIX
 70
     1
  9
$DIMSOXD
 70
     0
  9
$DIMSAH
 70
     0
  9
$DIMBLK1
  1

  9
$DIMBLK2
  1

  9
$DIMSTYLE
  2
STANDARD
  9
$DIMCLRD
 70
     0
  9
$DIMCLRE
 70
     0
  9
$DIMCLRT
 70
     0
  9
$DIMTFAC
 40
1.0
  9
$DIMGAP
 40
0.09
  9
$LUNITS
 70
     2
  9
$LUPREC
 70
     4
  9
$SKETCHINC
 40
0.1
  9
$FILLETRAD
 40
0.0
  9
$AUNITS
 70
     0
  9
$AUPREC
 70
     4
  9
$MENU
  1
E:\r13\win\SUPPORT\ACAD
  9
$ELEVATION
 40
0.0
  9
$PELEVATION
 40
0.0
  9
$THICKNESS
 40
0.0
  9
$LIMCHECK
 70
     0
  9
$BLIPMODE
 70
     0
  9
$CHAMFERA
 40
0.0
  9
$CHAMFERB
 40
0.0
  9
$SKPOLY
 70
     0
  9
$TDCREATE
 40
2449840.348113426
  9
$TDUPDATE
 40
2456602.6151171532
  9
$TDINDWG
 40
0.097140625
  9
$TDUSRTIMER
 40
2456598.3969441662
  9
$USRTIMER
 70
     1
  9
$ANGBASE
 50
0.0
  9
$ANGDIR
 70
     0
  9
$PDMODE
 70
     1
  9
$PDSIZE
 40
0.0
  9
$PLINEWID
 40
0.0
  9
$COORDS
 70
     1
  9
$SPLFRAME
 70
     0
  9
$SPLINETYPE
 70
     6
  9
$SPLINESEGS
 70
     8
  9
$ATTDIA
 70
     0
  9
$ATTREQ
 70
     1
  9
$HANDLING
 70
     1
  9
$HANDSEED
  5
3188
  9
$SURFTAB1
 70
     6
  9
$SURFTAB2
 70
     6
  9
$SURFTYPE
 70
     6
  9
$SURFU
 70
     6
  9
$SURFV
 70
     6
  9
$UCSNAME
  2

  9
$UCSORG
 10
0.0
 20
0.0
 30
0.0
  9
$UCSXDIR
 10
1.0
 20
0.0
 30
0.0
  9
$UCSYDIR
 10
0.0
 20
1.0
 30
0.0
  9
$PUCSNAME
  2

  9
$PUCSORG
 10
0.0
 20
0.0
 30
0.0
  9
$PUCSXDIR
 10
1.0
 20
0.0
 30
0.0
  9
$PUCSYDIR
 10
0.0
 20
1.0
 30
0.0
  9
$USERI1
 70
     3
  9
$USERI2
 70
     1
  9
$USERI3
 70
     0
  9
$USERI4
 70
     0
  9
$USERI5
 70
     0
  9
$USERR1
 40
1.0
  9
$USERR2
 40
3.0
  9
$USERR3
 40
3.0
  9
$USERR4
 40
3.0
  9
$USERR5
 40
10.0
  9
$WORLDVIEW
 70
     1
  9
$SHADEDGE
 70
     3
  9
$SHADEDIF
 70
    70
  9
$TILEMODE
 70
     1
  9
$MAXACTVP
 70
    16
  9
$PLIMCHECK
 70
     0
  9
$PEXTMIN
 10
1.0000000000000000E+020
 20
1.0000000000000000E+020
 30
1.0000000000000000E+020
  9
$PEXTMAX
 10
-1.0000000000000000E+020
 20
-1.0000000000000000E+020
 30
-1.0000000000000000E+020
  9
$PLIMMIN
 10
0.0
 20
0.0
  9
$PLIMMAX
 10
12.0
 20
9.0
  9
$UNITMODE
 70
     0
  9
$VISRETAIN
 70
     0
  9
$PLINEGEN
 70
     0
  9
$PSLTSCALE
 70
     0
  0
ENDSEC
  0
SECTION
  2
TABLES
  0
TABLE
  2
VPORT
 70
     1
  0
VPORT
  2
*ACTIVE
 70
     0
 10
0.0
 20
0.0
 11
1.0
 21
1.0
 12
195.0581083320873
 22
133.5127261426681
 13
0.0
 23
0.0
 14
5.0
 24
5.0
 15
10.0
 25
10.0
 16
0.0
 26
0.0
 36
1.0
 17
0.0
 27
0.0
 37
0.0
 40
275.42274993631997
 41
1.831871345029239
 42
50.0
 43
0.0
 44
0.0
 50
0.0
 51
0.0
 71
     0
 72
   100
 73
     1
 74
     0
 75
     0
 76
     0
 77
     0
 78
     0
  0
ENDTAB
  0
TABLE
  2
LTYPE
 70
     4
  0
LTYPE
  2
CONTINUOUS
 70
     0
  3
Solid Line
 72
    65
 73
     0
 40
0.0
  0
LTYPE
  2
CENTER
 70
     0
  3
____ _ ____ _ ____ _ ____ _ ____ _ ____ _ ____
 72
    65
 73
     4
 40
2.0
 49
1.25
 49
-0.25
 49
0.25
 49
-0.25
  0
LTYPE
  2
HIDDEN
 70
     0
  3
__ __ __ __ __ __ __ __ __ __ __ __ __ __ __ __
 72
    65
 73
     2
 40
0.375
 49
0.25
 49
-0.125
  0
LTYPE
  2
PHANTOM2
 70
     0
  3
___ _ _ ___ _ _ ___ _ _ ___ _ _
 72
    65
 73
     6
 40
1.25
 49
0.625
 49
-0.125
 49
0.125
 49
-0.125
 49
0.125
 49
-0.125
  0
ENDTAB
  0
TABLE
  2
LAYER
 70
     5
  0
LAYER
  2
0
 70
     0
 62
     7
  6
CONTINUOUS
  0
LAYER
  2
1
 70
     0
 62
     1
  6
CENTER
  0
LAYER
  2
2
 70
     0
 62
     2
  6
HIDDEN
  0
LAYER
  2
3
 70
     0
 62
     3
  6
CONTINUOUS
  0
LAYER
  2
DEFPOINTS
 70
     0
 62
     7
  6
CONTINUOUS
  0
ENDTAB
  0
TABLE
  2
STYLE
 70
     2
  0
STYLE
  2
STANDARD
 70
     0
 40
0.0
 41
1.0
 50
0.0
 71
     0
 42
0.06
  3
TXT
  4
BIGFONT
  0
STYLE
  2
STANDARD1
 70
     0
 40
0.0
 41
1.0
 50
0.0
 71
     0
 42
3.0
  3
txt
  4

  0
ENDTAB
  0
TABLE
  2
VIEW
 70
     0
  0
ENDTAB
  0
TABLE
  2
UCS
 70
     0
  0
ENDTAB
  0
TABLE
  2
APPID
 70
     3
  0
APPID
  2
ACAD
 70
     0
  0
APPID
  2
ACAD_MLEADERVER
 70
     0
  0
APPID
  2
ACAD_NAV_VCDISPLAY
 70
     0
  0
ENDTAB
  0
TABLE
  2
DIMSTYLE
 70
     1
  0
DIMSTYLE
  2
STANDARD
 70
     0
  3

  4

  5

  6

  7

 40
1.0
 41
0.18
 42
0.0625
 43
0.38
 44
0.18
 45
0.0
 46
0.0
 47
0.0
 48
0.0
140
0.18
141
0.09
142
0.0
143
25.399999999999999
144
1.0
145
0.0
146
1.0
147
0.09
 71
     0
 72
     0
 73
     1
 74
     1
 75
     0
 76
     0
 77
     0
 78
     0
170
     0
171
     2
172
     0
173
     0
174
     0
175
     0
176
     0
177
     0
178
     0
  0
ENDTAB
  0
ENDSEC
  0
SECTION
  2
BLOCKS
  0
BLOCK
  8
0
  2
$MODEL_SPACE
 70
     0
 10
0.0
 20
0.0
 30
0.0
  3
$MODEL_SPACE
  1

  0
ENDBLK
  5
223
  8
0
  0
BLOCK
 67
     1
  8
0
  2
$PAPER_SPACE
 70
     0
 10
0.0
 20
0.0
 30
0.0
  3
$PAPER_SPACE
  1

  0
ENDBLK
  5
221
 67
     1
  8
0
  0
ENDSEC
  0
SECTION
  2
ENTITIES
  0
ARC
  5
26F5
  8
0
 10
161.52681319058641
 20
39.212203949994148
 30
0.0
 40
11.000000000000441
 50
115.58300197739889
 51
128.51556905247739
  0
ARC
  5
26F6
  8
0
 10
161.52681319058641
 20
39.212203949994148
 30
0.0
 40
11.0000000000004
 50
51.484430947522618
 51
64.416998022601192
  0
LINE
  5
26F9
  8
0
 10
167.52681319058621
 20
112.7122039499946
 30
0.0
 11
167.52681319058621
 21
163.13870394999461
 31
0.0
  0
LINE
  5
26FA
  8
0
 10
155.52681319058641
 20
163.13870394999461
 30
0.0
 11
155.52681319058641
 21
112.7122039499946
 31
0.0
  0
LINE
  5
26FB
  8
0
 10
167.52681319058621
 20
163.13870394999461
 30
0.0
 11
166.4533131905863
 21
164.2122039499946
 31
0.0
  0
LINE
  5
26FC
  8
0
 10
156.60031319058629
 20
164.2122039499946
 30
0.0
 11
155.52681319058641
 21
163.13870394999461
 31
0.0
  0
LINE
  5
26FD
  8
0
 10
166.2768131905863
 20
49.13377136648662
 30
0.0
 11
166.2768131905863
 21
73.21220394999466
 31
0.0
  0
LINE
  5
26FE
  8
0
 10
156.77681319058621
 20
73.21220394999466
 30
0.0
 11
156.77681319058621
 21
49.13377136648662
 31
0.0
  0
LINE
  5
26FF
  8
0
 10
178.02681319058621
 20
64.212203949994645
 30
0.0
 11
178.02681319058621
 21
58.21220394999466
 31
0.0
  0
LINE
  5
2700
  8
0
 10
203.02681319058641
 20
58.21220394999466
 30
0.0
 11
203.02681319058641
 21
64.212203949994645
 31
0.0
  0
LINE
  5
2701
  8
0
 10
181.52681319058621
 20
71.21220394999466
 30
0.0
 11
181.52681319058621
 21
64.212203949994645
 31
0.0
  0
LINE
  5
2702
  8
0
 10
199.52681319058641
 20
64.212203949994645
 30
0.0
 11
199.52681319058641
 21
71.21220394999466
 31
0.0
  0
LINE
  5
2703
  8
0
 10
184.5268131905863
 20
142.21220394999469
 30
0.0
 11
184.5268131905863
 21
92.21220394999466
 31
0.0
  0
LINE
  5
2704
  8
0
 10
196.52681319058641
 20
92.21220394999466
 30
0.0
 11
196.52681319058641
 21
142.21220394999469
 31
0.0
  0
LINE
  5
2705
  8
0
 10
196.52681319058641
 20
142.21220394999469
 30
0.0
 11
195.9494629213967
 21
143.2122039499946
 31
0.0
  0
LINE
  5
2706
  8
0
 10
185.104163459776
 20
143.2122039499946
 30
0.0
 11
184.5268131905863
 21
142.21220394999469
 31
0.0
  0
LINE
  5
2707
  8
0
 10
184.5268131905863
 20
73.212203949994631
 30
0.0
 11
186.9268131905863
 21
71.826563303939565
 31
0.0
  0
LINE
  5
2708
  8
0
 10
194.1268131905864
 20
71.826563303939565
 30
0.0
 11
196.52681319058641
 21
73.212203949994631
 31
0.0
  0
LINE
  5
2709
  8
0
 10
194.1268131905864
 20
71.21220394999466
 30
0.0
 11
194.1268131905864
 21
71.826563303939565
 31
0.0
  0
LINE
  5
270A
  8
0
 10
186.9268131905863
 20
71.826563303939565
 30
0.0
 11
186.9268131905863
 21
71.21220394999466
 31
0.0
  0
LINE
  5
270B
  8
0
 10
148.52681319058641
 20
99.71220394999466
 30
0.0
 11
148.52681319058641
 21
96.712203949994645
 31
0.0
  0
LINE
  5
270C
  8
0
 10
174.52681319058621
 20
96.712203949994645
 30
0.0
 11
174.52681319058621
 21
99.71220394999466
 31
0.0
  0
POLYLINE
  5
270D
  8
0
 66
     1
 10
0.0
 20
0.0
 30
0.0
 70
   128
  0
VERTEX
  5
30EA
  8
0
 10
148.52681319058641
 20
96.712203949994645
 30
0.0
  0
VERTEX
  5
30EB
  8
0
 10
149.18666223684039
 20
96.404734010664811
 30
0.0
  0
VERTEX
  5
30EC
  8
0
 10
149.62248673627539
 20
96.212203949994674
 30
0.0
  0
SEQEND
  5
30ED
  8
0
  0
POLYLINE
  5
270E
  8
0
 66
     1
 10
0.0
 20
0.0
 30
0.0
 70
   128
  0
VERTEX
  5
30EE
  8
0
 10
173.4311396448974
 20
96.212203949994674
 30
0.0
  0
VERTEX
  5
30EF
  8
0
 10
173.8669641443322
 20
96.404734010664811
 30
0.0
  0
VERTEX
  5
30F0
  8
0
 10
174.52681319058621
 20
96.712203949994645
 30
0.0
  0
SEQEND
  5
30F1
  8
0
  0
LINE
  5
270F
  8
0
 10
172.4964683051893
 20
111.57502303936791
 30
0.0
 11
170.52681319058621
 21
112.7122039499946
 31
0.0
  0
LINE
  5
2710
  8
0
 10
152.52681319058641
 20
112.7122039499946
 30
0.0
 11
150.55715807598341
 21
111.57502303936791
 31
0.0
  0
LINE
  5
2711
  8
0
 10
148.52681319058641
 20
92.712203949994631
 30
0.0
 11
149.02681319058621
 21
92.21220394999466
 31
0.0
  0
LINE
  5
2712
  8
0
 10
174.02681319058621
 20
92.21220394999466
 30
0.0
 11
174.52681319058621
 21
92.712203949994631
 31
0.0
  0
LINE
  5
2713
  8
0
 10
174.52681319058621
 20
92.712203949994631
 30
0.0
 11
174.52681319058621
 21
95.71220394999466
 31
0.0
  0
LINE
  5
2714
  8
0
 10
148.52681319058641
 20
95.71220394999466
 30
0.0
 11
148.52681319058641
 21
92.712203949994631
 31
0.0
  0
LINE
  5
2715
  8
0
 10
174.52681319058621
 20
95.71220394999466
 30
0.0
 11
174.02681319058621
 21
96.212203949994674
 31
0.0
  0
LINE
  5
2716
  8
0
 10
149.02681319058641
 20
96.212203949994674
 30
0.0
 11
148.52681319058641
 21
95.71220394999466
 31
0.0
  0
LINE
  5
271D
  8
0
 10
172.52681319058621
 20
31.21220394999466
 30
0.0
 11
150.52681319058641
 21
31.21220394999466
 31
0.0
  0
LINE
  5
271E
  8
0
 10
150.59245907157231
 20
35.612203949994637
 30
0.0
 11
150.52681319058641
 21
35.612203949994637
 31
0.0
  0
POLYLINE
  5
271F
  8
0
 66
     1
 10
0.0
 20
0.0
 30
0.0
 70
   128
  0
VERTEX
  5
30F2
  8
0
 10
150.59245907157231
 20
35.612203949994637
 30
0.0
  0
VERTEX
  5
30F3
  8
0
 10
150.6841652176891
 20
34.861492608014323
 30
0.0
  0
VERTEX
  5
30F4
  8
0
 10
151.0924652023381
 20
33.89635556117716
 30
0.0
  0
VERTEX
  5
30F5
  8
0
 10
151.82144257037049
 20
33.025707765980151
 30
0.0
  0
VERTEX
  5
30F6
  8
0
 10
152.5201874117887
 20
32.496537519191861
 30
0.0
  0
VERTEX
  5
30F7
  8
0
 10
153.31648057378251
 20
32.074505847066121
 30
0.0
  0
VERTEX
  5
30F8
  8
0
 10
154.6624949238747
 20
31.622840676779589
 30
0.0
  0
VERTEX
  5
30F9
  8
0
 10
156.09526358171399
 20
31.36729717349354
 30
0.0
  0
VERTEX
  5
30FA
  8
0
 10
158.0245059084225
 20
31.233669889566219
 30
0.0
  0
VERTEX
  5
30FB
  8
0
 10
159.96729403392081
 20
31.21220394999466
 30
0.0
  0
SEQEND
  5
30FC
  8
0
  0
LINE
  5
2720
  8
0
 10
150.52681319058641
 20
31.21220394999466
 30
0.0
 11
150.52681319058621
 21
39.21220394999466
 31
0.0
  0
POLYLINE
  5
2722
  8
0
 66
     1
 10
0.0
 20
0.0
 30
0.0
 70
   128
  0
VERTEX
  5
30FD
  8
0
 10
163.08633234725181
 20
31.21220394999466
 30
0.0
  0
VERTEX
  5
30FE
  8
0
 10
165.23239219347411
 20
31.240406699979761
 30
0.0
  0
VERTEX
  5
30FF
  8
0
 10
167.3784520396963
 20
31.424295765812449
 30
0.0
  0
VERTEX
  5
3100
  8
0
 10
168.81076835676041
 20
31.736511499044131
 30
0.0
  0
VERTEX
  5
3101
  8
0
 10
170.204478447074
 20
32.303806702219447
 30
0.0
  0
VERTEX
  5
3102
  8
0
 10
171.36778606000951
 20
33.154424816062971
 30
0.0
  0
VERTEX
  5
3103
  8
0
 10
171.83197563399989
 20
33.700566820707387
 30
0.0
  0
VERTEX
  5
3104
  8
0
 10
172.19622325402841
 20
34.347653902829897
 30
0.0
  0
VERTEX
  5
3105
  8
0
 10
172.4532069311519
 20
35.390067111144504
 30
0.0
  0
VERTEX
  5
3106
  8
0
 10
172.4611673096004
 20
35.612203949994637
 30
0.0
  0
SEQEND
  5
3107
  8
0
  0
LINE
  5
2723
  8
0
 10
172.52681319058621
 20
35.612203949994637
 30
0.0
 11
172.4611673096004
 21
35.612203949994637
 31
0.0
  0
LINE
  5
2724
  8
0
 10
172.52681319058621
 20
39.21220394999466
 30
0.0
 11
172.52681319058621
 21
31.21220394999466
 31
0.0
  0
LINE
  5
2725
  8
0
 10
166.27681319058649
 20
49.13377136648662
 30
0.0
 11
156.77681319058621
 21
49.13377136648662
 31
0.0
  0
LINE
  5
2726
  8
0
 10
154.6768131905863
 20
39.21220394999466
 30
0.0
 11
154.6768131905863
 21
47.81903263424303
 31
0.0
  0
LINE
  5
2727
  8
0
 10
168.3768131905864
 20
47.81903263424303
 30
0.0
 11
168.37681319058589
 21
39.21220394999466
 31
0.0
  0
LINE
  5
2728
  8
0
 10
172.4611673096004
 20
35.612203949994637
 30
0.0
 11
172.4611673096004
 21
39.21220394999466
 31
0.0
  0
LINE
  5
272B
  8
0
 10
150.59245907157231
 20
39.21220394999466
 30
0.0
 11
150.59245907157231
 21
35.612203949994637
 31
0.0
  0
LINE
  5
272C
  8
0
 10
172.52681319058621
 20
39.21220394999466
 30
0.0
 11
150.52681319058641
 21
39.21220394999466
 31
0.0
  0
LINE
  5
2732
  8
0
 10
167.52681319058621
 20
163.13870394999461
 30
0.0
 11
155.52681319058641
 21
163.13870394999461
 31
0.0
  0
LINE
  5
2733
  8
0
 10
166.4533131905863
 20
164.2122039499946
 30
0.0
 11
156.60031319058629
 21
164.2122039499946
 31
0.0
  0
LINE
  5
2735
  8
0
 10
178.02681319058621
 20
58.21220394999466
 30
0.0
 11
203.02681319058641
 21
58.21220394999466
 31
0.0
  0
LINE
  5
2737
  8
0
 10
178.02681319058621
 20
64.212203949994645
 30
0.0
 11
203.0268131905863
 21
64.212203949994645
 31
0.0
  0
LINE
  5
2739
  8
0
 10
181.52681319058621
 20
71.21220394999466
 30
0.0
 11
199.52681319058641
 21
71.212203949994645
 31
0.0
  0
LINE
  5
273A
  8
0
 10
196.52681319058641
 20
142.21220394999469
 30
0.0
 11
184.5268131905863
 21
142.21220394999469
 31
0.0
  0
LINE
  5
273B
  8
0
 10
185.104163459776
 20
143.2122039499946
 30
0.0
 11
195.9494629213967
 21
143.2122039499946
 31
0.0
  0
LINE
  5
273C
  8
0
 10
194.1268131905864
 20
71.826563303939565
 30
0.0
 11
186.9268131905863
 21
71.826563303939565
 31
0.0
  0
LINE
  5
273E
  8
0
 10
148.52681319058641
 20
99.71220394999466
 30
0.0
 11
174.52681319058621
 21
99.712203949994645
 31
0.0
  0
LINE
  5
2740
  8
0
 10
148.52681319058641
 20
96.712203949994645
 30
0.0
 11
174.52681319058621
 21
96.712203949994645
 31
0.0
  0
LINE
  5
2741
  8
0
 10
150.55715807598341
 20
99.71220394999466
 30
0.0
 11
150.55715807598341
 21
111.57502303936791
 31
0.0
  0
ARC
  5
2742
  8
0
 10
153.29957185463419
 20
107.43183404234379
 30
0.0
 40
4.9685861568856211
 50
56.499069126498767
 51
123.5009308735013
  0
LINE
  5
2743
  8
0
 10
156.0419856332849
 20
99.71220394999466
 30
0.0
 11
156.0419856332849
 21
111.57502303936791
 31
0.0
  0
LINE
  5
2745
  8
0
 10
152.52681319058641
 20
112.7122039499946
 30
0.0
 11
170.52681319058621
 21
112.7122039499946
 31
0.0
  0
ARC
  5
2746
  8
0
 10
169.7540545265386
 20
107.43183404234389
 30
0.0
 40
4.9685861568855261
 50
56.499069126499137
 51
123.5009308735016
  0
ARC
  5
2747
  8
0
 10
161.52681319058621
 20
93.652951661597541
 30
0.0
 40
18.742571216437511
 50
72.983919892827799
 51
107.0160801071721
  0
LINE
  5
2748
  8
0
 10
167.0116407478879
 20
99.71220394999466
 30
0.0
 11
167.0116407478879
 21
111.57502303936791
 31
0.0
  0
LINE
  5
2749
  8
0
 10
172.4964683051893
 20
99.71220394999466
 30
0.0
 11
172.4964683051893
 21
111.57502303936791
 31
0.0
  0
LINE
  5
274A
  8
0
 10
148.52681319058641
 20
92.712203949994631
 30
0.0
 11
174.52681319058621
 21
92.712203949994631
 31
0.0
  0
LINE
  5
274B
  8
0
 10
174.52681319058621
 20
95.71220394999466
 30
0.0
 11
148.52681319058641
 21
95.71220394999466
 31
0.0
  0
LINE
  5
274C
  8
0
 10
149.02681319058641
 20
96.212203949994674
 30
0.0
 11
174.02681319058621
 21
96.212203949994674
 31
0.0
  0
LINE
  5
274D
  8
1
 10
121.5268131905864
 20
95.212203949994645
 30
0.0
 11
121.5268131905864
 21
71.358980955170978
 31
0.0
  0
LINE
  5
2765
  8
3
 10
166.65181319058641
 20
164.01370394999461
 30
0.0
 11
166.65181319058641
 21
112.7122039499946
 31
0.0
  0
LINE
  5
2766
  8
3
 10
156.40181319058641
 20
164.01370394999461
 30
0.0
 11
156.40181319058649
 21
112.7122039499946
 31
0.0
  0
LINE
  5
2767
  8
3
 10
195.6518131905863
 20
143.2122039499946
 30
0.0
 11
195.6518131905863
 21
92.212203949994674
 31
0.0
  0
LINE
  5
2768
  8
3
 10
185.40181319058649
 20
143.2122039499946
 30
0.0
 11
185.40181319058649
 21
92.212203949994674
 31
0.0
  0
LINE
  5
276A
  8
1
 10
161.5268131905863
 20
169.2122039499946
 30
0.0
 11
161.52681319058641
 21
26.21220394999466
 31
0.0
  0
LINE
  5
276E
  8
1
 10
190.52681319058641
 20
53.21220394999466
 30
0.0
 11
190.5268131905863
 21
148.2122039499946
 31
0.0
  0
CIRCLE
  5
27D4
  8
0
 10
161.52681319058641
 20
232.9748035361412
 30
0.0
 40
6.0
  0
CIRCLE
  5
27D7
  8
0
 10
190.52681319058621
 20
232.97480353614139
 30
0.0
 40
6.0
  0
LINE
  5
27D8
  8
0
 10
192.25886399815519
 20
235.97480353614139
 30
0.0
 11
188.7947623830174
 21
235.97480353614139
 31
0.0
  0
LINE
  5
27D9
  8
0
 10
188.7947623830174
 20
235.97480353614139
 30
0.0
 11
187.0627115754485
 21
232.97480353614139
 31
0.0
  0
LINE
  5
27DA
  8
0
 10
187.0627115754485
 20
232.97480353614139
 30
0.0
 11
188.7947623830174
 21
229.97480353614139
 31
0.0
  0
LINE
  5
27DB
  8
0
 10
188.7947623830174
 20
229.97480353614139
 30
0.0
 11
192.25886399815519
 21
229.97480353614139
 31
0.0
  0
LINE
  5
27DC
  8
0
 10
192.25886399815519
 20
229.97480353614139
 30
0.0
 11
193.99091480572409
 21
232.97480353614139
 31
0.0
  0
LINE
  5
27DD
  8
0
 10
193.99091480572409
 20
232.97480353614139
 30
0.0
 11
192.25886399815519
 21
235.97480353614139
 31
0.0
  0
ARC
  5
27DE
  8
0
 10
190.52681319058621
 20
232.97480353614159
 30
0.0
 40
12.500000000000041
 50
331.64236342367309
 51
28.357636576327572
  0
CIRCLE
  5
27DF
  8
0
 10
161.52681319058641
 20
232.97480353614131
 30
0.0
 40
9.0
  0
LINE
  5
27E1
  8
0
 10
150.55715807598341
 20
232.97480353614131
 30
0.0
 11
156.04198563328481
 21
242.47480353614131
 31
0.0
  0
LINE
  5
27E2
  8
0
 10
156.04198563328481
 20
242.47480353614131
 30
0.0
 11
167.01164074788781
 21
242.47480353614131
 31
0.0
  0
LINE
  5
27E3
  8
0
 10
167.01164074788781
 20
242.47480353614131
 30
0.0
 11
172.4964683051893
 21
232.97480353614131
 31
0.0
  0
LINE
  5
27E4
  8
0
 10
172.4964683051893
 20
232.97480353614131
 30
0.0
 11
167.0116407478879
 21
223.47480353614131
 31
0.0
  0
LINE
  5
27E5
  8
0
 10
167.0116407478879
 20
223.47480353614131
 30
0.0
 11
156.0419856332849
 21
223.47480353614131
 31
0.0
  0
LINE
  5
27E6
  8
0
 10
156.0419856332849
 20
223.47480353614131
 30
0.0
 11
150.55715807598341
 21
232.97480353614131
 31
0.0
  0
CIRCLE
  5
27E7
  8
0
 10
161.52681319058641
 20
232.97480353614131
 30
0.0
 40
13.0
  0
CIRCLE
  5
27F0
  8
3
 10
161.52681319058641
 20
232.9748035361412
 30
0.0
 40
5.125
  0
CIRCLE
  5
27F1
  8
3
 10
190.5268131905863
 20
232.97480353614151
 30
0.0
 40
5.1249999999999432
  0
LINE
  5
27F2
  8
1
 10
96.526813190586267
 20
232.97480353614139
 30
0.0
 11
208.0268131905863
 21
232.97480353614151
 31
0.0
  0
ARC
  5
27F4
  8
0
 10
35.526813190586608
 20
39.212203949994191
 30
0.0
 40
11.00000000000041
 50
115.58300197739899
 51
179.99999999999761
  0
ARC
  5
27F5
  8
0
 10
35.526813190586608
 20
39.212203949994191
 30
0.0
 40
11.00000000000024
 50
0.0000000000023686
 51
64.416998022601305
  0
LINE
  5
27F6
  8
0
 10
41.52681319058626
 20
112.7122039499946
 30
0.0
 11
41.52681319058626
 21
163.13870394999461
 31
0.0
  0
LINE
  5
27F7
  8
0
 10
29.526813190586271
 20
163.13870394999461
 30
0.0
 11
29.526813190586271
 21
112.7122039499946
 31
0.0
  0
LINE
  5
27F8
  8
0
 10
41.52681319058626
 20
163.13870394999461
 30
0.0
 11
40.453313190586179
 21
164.2122039499946
 31
0.0
  0
LINE
  5
27F9
  8
0
 10
30.600313190586231
 20
164.2122039499946
 30
0.0
 11
29.526813190586271
 21
163.13870394999461
 31
0.0
  0
LINE
  5
27FC
  8
0
 10
40.27681319058626
 20
49.13377136648667
 30
0.0
 11
40.27681319058626
 21
73.212203949994674
 31
0.0
  0
LINE
  5
27FD
  8
0
 10
30.776813190586271
 20
73.212203949994674
 30
0.0
 11
30.776813190586271
 21
49.13377136648667
 31
0.0
  0
LINE
  5
27FE
  8
0
 10
23.02681319058593
 20
64.212203949994674
 30
0.0
 11
23.02681319058593
 21
58.212203949994681
 31
0.0
  0
LINE
  5
27FF
  8
0
 10
48.026813190585919
 20
58.212203949994681
 30
0.0
 11
48.026813190585919
 21
64.212203949994674
 31
0.0
  0
LINE
  5
2800
  8
0
 10
26.52681319058593
 20
71.212203949994674
 30
0.0
 11
26.52681319058593
 21
64.212203949994674
 31
0.0
  0
LINE
  5
2801
  8
0
 10
44.526813190585919
 20
64.212203949994674
 30
0.0
 11
44.526813190585919
 21
71.212203949994674
 31
0.0
  0
LINE
  5
2804
  8
0
 10
22.526813190586271
 20
99.712203949994674
 30
0.0
 11
22.526813190586271
 21
96.712203949994674
 31
0.0
  0
LINE
  5
2805
  8
0
 10
48.526813190586147
 20
96.712203949994674
 30
0.0
 11
48.526813190586147
 21
99.712203949994674
 31
0.0
  0
POLYLINE
  5
2806
  8
0
 66
     1
 10
0.0
 20
0.0
 30
0.0
 70
   128
  0
VERTEX
  5
3108
  8
0
 10
47.43113964489725
 20
96.212203949994674
 30
0.0
  0
VERTEX
  5
3109
  8
0
 10
47.86696414433208
 20
96.404734010664825
 30
0.0
  0
VERTEX
  5
310A
  8
0
 10
48.526813190586267
 20
96.712203949994674
 30
0.0
  0
SEQEND
  5
310B
  8
0
  0
POLYLINE
  5
2807
  8
0
 66
     1
 10
0.0
 20
0.0
 30
0.0
 70
   128
  0
VERTEX
  5
310C
  8
0
 10
22.52681319058615
 20
96.712203949994674
 30
0.0
  0
VERTEX
  5
310D
  8
0
 10
23.186662236840331
 20
96.404734010664825
 30
0.0
  0
VERTEX
  5
310E
  8
0
 10
23.622486736275171
 20
96.212203949994674
 30
0.0
  0
SEQEND
  5
310F
  8
0
  0
LINE
  5
2808
  8
0
 10
45.02681319058626
 20
112.42352881539981
 30
0.0
 11
44.526813190586147
 21
112.7122039499946
 31
0.0
  0
LINE
  5
2809
  8
0
 10
26.526813190586271
 20
112.7122039499946
 30
0.0
 11
26.026813190586271
 21
112.42352881539981
 31
0.0
  0
LINE
  5
280A
  8
0
 10
22.526813190586271
 20
92.712203949994645
 30
0.0
 11
23.02681319058615
 21
92.212203949994674
 31
0.0
  0
LINE
  5
280B
  8
0
 10
48.026813190586267
 20
92.212203949994674
 30
0.0
 11
48.526813190586147
 21
92.712203949994645
 31
0.0
  0
LINE
  5
280C
  8
0
 10
48.526813190586147
 20
92.712203949994645
 30
0.0
 11
48.526813190586147
 21
95.712203949994674
 31
0.0
  0
LINE
  5
280D
  8
0
 10
22.526813190586271
 20
95.712203949994674
 30
0.0
 11
22.526813190586271
 21
92.712203949994645
 31
0.0
  0
LINE
  5
280E
  8
0
 10
48.526813190586147
 20
95.712203949994674
 30
0.0
 11
48.026813190586147
 21
96.212203949994674
 31
0.0
  0
LINE
  5
280F
  8
0
 10
23.026813190586271
 20
96.212203949994674
 30
0.0
 11
22.526813190586271
 21
95.712203949994674
 31
0.0
  0
LINE
  5
2818
  8
0
 10
24.5924590715722
 20
35.612203949994651
 30
0.0
 11
24.526813190586271
 21
35.612203949994651
 31
0.0
  0
POLYLINE
  5
2819
  8
0
 66
     1
 10
0.0
 20
0.0
 30
0.0
 70
   128
  0
VERTEX
  5
3110
  8
0
 10
24.5924590715722
 20
35.612203949994651
 30
0.0
  0
VERTEX
  5
3111
  8
0
 10
24.684165217689038
 20
34.861492608014302
 30
0.0
  0
VERTEX
  5
3112
  8
0
 10
25.092465202338079
 20
33.896355561177153
 30
0.0
  0
VERTEX
  5
3113
  8
0
 10
25.82144257037055
 20
33.025707765980158
 30
0.0
  0
VERTEX
  5
3114
  8
0
 10
26.520187411788591
 20
32.496537519191847
 30
0.0
  0
VERTEX
  5
3115
  8
0
 10
27.316480573782538
 20
32.074505847066128
 30
0.0
  0
VERTEX
  5
3116
  8
0
 10
28.66249492387476
 20
31.62284067677961
 30
0.0
  0
VERTEX
  5
3117
  8
0
 10
30.09526358171399
 20
31.367297173493562
 30
0.0
  0
VERTEX
  5
3118
  8
0
 10
32.024505908422498
 20
31.233669889566229
 30
0.0
  0
VERTEX
  5
3119
  8
0
 10
33.967294033920673
 20
31.212203949994649
 30
0.0
  0
SEQEND
  5
311A
  8
0
  0
LINE
  5
281A
  8
0
 10
46.52681319058626
 20
31.212203949994649
 30
0.0
 11
24.526813190586271
 21
31.212203949994649
 31
0.0
  0
POLYLINE
  5
281D
  8
0
 66
     1
 10
0.0
 20
0.0
 30
0.0
 70
   128
  0
VERTEX
  5
311B
  8
0
 10
37.086332347251762
 20
31.212203949994649
 30
0.0
  0
VERTEX
  5
311C
  8
0
 10
39.23239219347397
 20
31.24040669997974
 30
0.0
  0
VERTEX
  5
311D
  8
0
 10
41.378452039696178
 20
31.42429576581246
 30
0.0
  0
VERTEX
  5
311E
  8
0
 10
42.810768356760263
 20
31.736511499044141
 30
0.0
  0
VERTEX
  5
311F
  8
0
 10
44.204478447073939
 20
32.303806702219461
 30
0.0
  0
VERTEX
  5
3120
  8
0
 10
45.367786060009387
 20
33.154424816062964
 30
0.0
  0
VERTEX
  5
3121
  8
0
 10
45.831975633999832
 20
33.700566820707436
 30
0.0
  0
VERTEX
  5
3122
  8
0
 10
46.196223254028382
 20
34.347653902829919
 30
0.0
  0
VERTEX
  5
3123
  8
0
 10
46.453206931151833
 20
35.390067111144518
 30
0.0
  0
VERTEX
  5
3124
  8
0
 10
46.461167309600327
 20
35.612203949994651
 30
0.0
  0
SEQEND
  5
3125
  8
0
  0
LINE
  5
281E
  8
0
 10
46.52681319058626
 20
35.612203949994651
 30
0.0
 11
46.461167309600327
 21
35.612203949994651
 31
0.0
  0
LINE
  5
2821
  8
0
 10
24.5924590715722
 20
39.212203949994652
 30
0.0
 11
24.5924590715722
 21
35.612203949994651
 31
0.0
  0
LINE
  5
2822
  8
0
 10
46.52681319058626
 20
39.212203949994361
 30
0.0
 11
24.526813190586271
 21
39.212203949994652
 31
0.0
  0
LINE
  5
2823
  8
0
 10
46.461167309600327
 20
35.612203949994651
 30
0.0
 11
46.461167309600327
 21
39.212203949994652
 31
0.0
  0
LINE
  5
2825
  8
0
 10
24.526813190586381
 20
31.21220394999467
 30
0.0
 11
24.526813190586271
 21
39.212203949994652
 31
0.0
  0
LINE
  5
2827
  8
0
 10
46.52681319058626
 20
39.212203949994652
 30
0.0
 11
46.526813190586381
 21
31.21220394999467
 31
0.0
  0
LINE
  5
2828
  8
0
 10
40.276813190586147
 20
49.13377136648667
 30
0.0
 11
30.776813190586271
 21
49.13377136648667
 31
0.0
  0
ARC
  5
282A
  8
0
 10
35.526813190586608
 20
39.212203949994191
 30
0.0
 40
8.6068286842488533
 50
0.0000000000030273
 51
179.9999999999969
  0
LINE
  5
282B
  8
0
 10
41.52681319058626
 20
163.13870394999461
 30
0.0
 11
29.526813190586271
 21
163.13870394999461
 31
0.0
  0
LINE
  5
282D
  8
0
 10
40.453313190586179
 20
164.2122039499946
 30
0.0
 11
30.600313190586231
 21
164.2122039499946
 31
0.0
  0
LINE
  5
2831
  8
0
 10
23.02681319058593
 20
64.212203949994674
 30
0.0
 11
30.776813190586271
 21
64.212203949994674
 31
0.0
  0
LINE
  5
2832
  8
0
 10
40.27681319058626
 20
64.212203949994674
 30
0.0
 11
48.026813190585919
 21
64.212203949994674
 31
0.0
  0
LINE
  5
2833
  8
0
 10
23.02681319058593
 20
58.212203949994681
 30
0.0
 11
30.776813190586271
 21
58.212203949994681
 31
0.0
  0
LINE
  5
2834
  8
0
 10
40.27681319058626
 20
58.212203949994681
 30
0.0
 11
48.026813190585919
 21
58.212203949994681
 31
0.0
  0
LINE
  5
2835
  8
0
 10
26.52681319058593
 20
71.212203949994674
 30
0.0
 11
30.776813190586271
 21
71.212203949994674
 31
0.0
  0
LINE
  5
2836
  8
0
 10
40.27681319058626
 20
71.212203949994674
 30
0.0
 11
44.526813190585919
 21
71.212203949994674
 31
0.0
  0
LINE
  5
2837
  8
0
 10
22.52681319058615
 20
99.712203949994674
 30
0.0
 11
48.526813190586147
 21
99.712203949994674
 31
0.0
  0
LINE
  5
2838
  8
0
 10
22.52681319058615
 20
96.712203949994674
 30
0.0
 11
48.526813190586147
 21
96.712203949994674
 31
0.0
  0
LINE
  5
2839
  8
0
 10
26.026813190586271
 20
99.712203949994674
 30
0.0
 11
26.026813190586271
 21
112.42352881539981
 31
0.0
  0
ARC
  5
283A
  8
0
 10
30.776813190586271
 20
98.451957759180075
 30
0.0
 40
13.956265343854451
 50
70.101865707357206
 51
109.89813429264279
  0
LINE
  5
283B
  8
0
 10
35.526813190586267
 20
99.712203949994674
 30
0.0
 11
35.526813190586267
 21
111.57502303936791
 31
0.0
  0
LINE
  5
283C
  8
0
 10
26.52681319058615
 20
112.7122039499946
 30
0.0
 11
44.526813190586147
 21
112.7122039499946
 31
0.0
  0
ARC
  5
283F
  8
0
 10
40.27681319058626
 20
98.451957759180615
 30
0.0
 40
13.95626534385395
 50
70.101865707357106
 51
109.89813429264289
  0
LINE
  5
2840
  8
0
 10
45.02681319058626
 20
99.712203949994674
 30
0.0
 11
45.02681319058626
 21
112.42352881539981
 31
0.0
  0
LINE
  5
2842
  8
0
 10
22.526813190586271
 20
92.712203949994645
 30
0.0
 11
48.526813190586147
 21
92.712203949994617
 31
0.0
  0
LINE
  5
2843
  8
0
 10
48.526813190586147
 20
95.712203949994674
 30
0.0
 11
22.526813190586271
 21
95.712203949994674
 31
0.0
  0
LINE
  5
2844
  8
0
 10
23.026813190586271
 20
96.212203949994674
 30
0.0
 11
48.026813190586267
 21
96.212203949994674
 31
0.0
  0
LINE
  5
2846
  8
3
 10
40.65181319058626
 20
164.01370394999469
 30
0.0
 11
40.65181319058626
 21
112.7122039499946
 31
0.0
  0
LINE
  5
2847
  8
3
 10
30.40181319058615
 20
164.01370394999469
 30
0.0
 11
30.40181319058615
 21
112.7122039499946
 31
0.0
  0
LINE
  5
284C
  8
1
 10
35.526813190586211
 20
169.2122039499946
 30
0.0
 11
35.52681319058604
 21
26.212203949994649
 31
0.0
  0
ARC
  5
28AA
  8
0
 10
267.52681319058593
 20
39.212203949994148
 30
0.0
 40
11.00000000000021
 50
115.5830019773986
 51
179.9999999999973
  0
ARC
  5
28AB
  8
0
 10
267.52681319058593
 20
39.212203949994148
 30
0.0
 40
11.00000000000043
 50
0.0000000000026647
 51
64.416998022600922
  0
LINE
  5
28AC
  8
0
 10
273.52681319058638
 20
142.21220394999469
 30
0.0
 11
273.52681319058638
 21
163.13870394999461
 31
0.0
  0
LINE
  5
28AD
  8
0
 10
261.52681319058638
 20
163.13870394999461
 30
0.0
 11
261.52681319058638
 21
142.2122039499946
 31
0.0
  0
LINE
  5
28AE
  8
0
 10
273.52681319058638
 20
163.13870394999461
 30
0.0
 11
272.45331319058641
 21
164.2122039499946
 31
0.0
  0
LINE
  5
28AF
  8
0
 10
262.60031319058629
 20
164.2122039499946
 30
0.0
 11
261.52681319058638
 21
163.13870394999461
 31
0.0
  0
LINE
  5
28B2
  8
0
 10
272.27681319058638
 20
49.13377136648662
 30
0.0
 11
272.27681319058638
 21
58.21220394999466
 31
0.0
  0
LINE
  5
28B3
  8
0
 10
272.27681319058638
 20
71.21220394999466
 30
0.0
 11
272.27681319058638
 21
72.490516113507596
 31
0.0
  0
LINE
  5
28B4
  8
0
 10
262.77681319058649
 20
72.490516113507624
 30
0.0
 11
262.77681319058638
 21
71.21220394999466
 31
0.0
  0
LINE
  5
28B5
  8
0
 10
262.77681319058638
 20
58.21220394999466
 30
0.0
 11
262.77681319058638
 21
49.13377136648662
 31
0.0
  0
LINE
  5
28B6
  8
0
 10
255.02681319058641
 20
64.212203949994645
 30
0.0
 11
255.02681319058641
 21
58.21220394999466
 31
0.0
  0
LINE
  5
28B7
  8
0
 10
280.02681319058638
 20
58.21220394999466
 30
0.0
 11
280.02681319058638
 21
64.212203949994645
 31
0.0
  0
LINE
  5
28B8
  8
0
 10
258.52681319058638
 20
71.21220394999466
 30
0.0
 11
258.52681319058638
 21
64.212203949994645
 31
0.0
  0
LINE
  5
28B9
  8
0
 10
276.52681319058638
 20
64.212203949994645
 30
0.0
 11
276.52681319058638
 21
71.21220394999466
 31
0.0
  0
LINE
  5
28BA
  8
0
 10
261.52681319058638
 20
73.212203949994631
 30
0.0
 11
263.92681319058647
 21
71.826563303939565
 31
0.0
  0
LINE
  5
28BB
  8
0
 10
271.12681319058652
 20
71.826563303939565
 30
0.0
 11
273.52681319058638
 21
73.212203949994631
 31
0.0
  0
LINE
  5
28BC
  8
0
 10
261.52681319058638
 20
142.21220394999469
 30
0.0
 11
261.52681319058638
 21
92.21220394999466
 31
0.0
  0
LINE
  5
28BD
  8
0
 10
261.52681319058638
 20
78.212203949994603
 30
0.0
 11
261.52681319058638
 21
73.212203949994631
 31
0.0
  0
LINE
  5
28BE
  8
0
 10
273.52681319058638
 20
73.212203949994631
 30
0.0
 11
273.52681319058638
 21
78.212203949994574
 31
0.0
  0
LINE
  5
28BF
  8
0
 10
273.52681319058638
 20
92.21220394999466
 30
0.0
 11
273.52681319058638
 21
142.21220394999469
 31
0.0
  0
LINE
  5
28C0
  8
0
 10
273.52681319058638
 20
142.21220394999469
 30
0.0
 11
272.94946292139679
 21
143.2122039499946
 31
0.0
  0
LINE
  5
28C1
  8
0
 10
262.10416345977609
 20
143.2122039499946
 30
0.0
 11
261.52681319058638
 21
142.21220394999469
 31
0.0
  0
LINE
  5
28C2
  8
0
 10
271.12681319058652
 20
71.21220394999466
 30
0.0
 11
271.12681319058652
 21
71.826563303939565
 31
0.0
  0
LINE
  5
28C3
  8
0
 10
263.92681319058647
 20
71.826563303939565
 30
0.0
 11
263.92681319058647
 21
71.21220394999466
 31
0.0
  0
POLYLINE
  5
28C4
  8
0
 66
     1
 10
0.0
 20
0.0
 30
0.0
 70
   128
  0
VERTEX
  5
3126
  8
0
 10
279.43113964489748
 20
96.212203949994674
 30
0.0
  0
VERTEX
  5
3127
  8
0
 10
279.86696414433231
 20
96.404734010664811
 30
0.0
  0
VERTEX
  5
3128
  8
0
 10
280.52681319058638
 20
96.712203949994645
 30
0.0
  0
SEQEND
  5
3129
  8
0
  0
POLYLINE
  5
28C5
  8
0
 66
     1
 10
0.0
 20
0.0
 30
0.0
 70
   128
  0
VERTEX
  5
312A
  8
0
 10
254.52681319058641
 20
96.712203949994645
 30
0.0
  0
VERTEX
  5
312B
  8
0
 10
255.1866622368407
 20
96.404734010664811
 30
0.0
  0
VERTEX
  5
312C
  8
0
 10
255.6224867362755
 20
96.212203949994674
 30
0.0
  0
SEQEND
  5
312D
  8
0
  0
LINE
  5
28C6
  8
0
 10
254.52681319058641
 20
99.71220394999466
 30
0.0
 11
254.52681319058641
 21
96.712203949994645
 31
0.0
  0
LINE
  5
28C7
  8
0
 10
280.52681319058638
 20
96.712203949994645
 30
0.0
 11
280.52681319058638
 21
99.71220394999466
 31
0.0
  0
LINE
  5
28C8
  8
0
 10
277.02681319058638
 20
112.42352881539981
 30
0.0
 11
276.52681319058638
 21
112.7122039499946
 31
0.0
  0
LINE
  5
28C9
  8
0
 10
258.52681319058638
 20
112.7122039499946
 30
0.0
 11
258.02681319058638
 21
112.42352881539981
 31
0.0
  0
LINE
  5
28CA
  8
0
 10
280.52681319058638
 20
95.71220394999466
 30
0.0
 11
280.02681319058638
 21
96.212203949994674
 31
0.0
  0
LINE
  5
28CB
  8
0
 10
255.02681319058641
 20
96.212203949994674
 30
0.0
 11
254.52681319058641
 21
95.71220394999466
 31
0.0
  0
LINE
  5
28CC
  8
0
 10
254.52681319058641
 20
92.712203949994631
 30
0.0
 11
255.02681319058641
 21
92.21220394999466
 31
0.0
  0
LINE
  5
28CD
  8
0
 10
280.02681319058638
 20
92.21220394999466
 30
0.0
 11
280.52681319058638
 21
92.712203949994631
 31
0.0
  0
LINE
  5
28CE
  8
0
 10
280.52681319058638
 20
92.712203949994631
 30
0.0
 11
280.52681319058638
 21
95.71220394999466
 31
0.0
  0
LINE
  5
28CF
  8
0
 10
254.52681319058641
 20
95.71220394999466
 30
0.0
 11
254.52681319058641
 21
92.712203949994631
 31
0.0
  0
LINE
  5
28DA
  8
0
 10
278.52681319058638
 20
31.21220394999466
 30
0.0
 11
256.52681319058638
 21
31.21220394999466
 31
0.0
  0
LINE
  5
28DB
  8
0
 10
256.52681319058638
 20
31.21220394999466
 30
0.0
 11
256.5268131905857
 21
39.21220394999466
 31
0.0
  0
LINE
  5
28DC
  8
0
 10
256.59245907157242
 20
35.612203949994637
 30
0.0
 11
256.52681319058638
 21
35.612203949994637
 31
0.0
  0
POLYLINE
  5
28DD
  8
0
 66
     1
 10
0.0
 20
0.0
 30
0.0
 70
   128
  0
VERTEX
  5
312E
  8
0
 10
256.59245907157242
 20
35.612203949994637
 30
0.0
  0
VERTEX
  5
312F
  8
0
 10
256.68416521768933
 20
34.861492608014288
 30
0.0
  0
VERTEX
  5
3130
  8
0
 10
257.09246520233819
 20
33.896355561177103
 30
0.0
  0
VERTEX
  5
3131
  8
0
 10
257.82144257037061
 20
33.025707765980151
 30
0.0
  0
VERTEX
  5
3132
  8
0
 10
258.52018741178881
 20
32.496537519191861
 30
0.0
  0
VERTEX
  5
3133
  8
0
 10
259.3164805737826
 20
32.074505847066092
 30
0.0
  0
VERTEX
  5
3134
  8
0
 10
260.66249492387487
 20
31.622840676779589
 30
0.0
  0
VERTEX
  5
3135
  8
0
 10
262.09526358171411
 20
31.36729717349354
 30
0.0
  0
VERTEX
  5
3136
  8
0
 10
264.02450590842273
 20
31.233669889566219
 30
0.0
  0
VERTEX
  5
3137
  8
0
 10
265.96729403392101
 20
31.21220394999466
 30
0.0
  0
SEQEND
  5
3138
  8
0
  0
POLYLINE
  5
28DF
  8
0
 66
     1
 10
0.0
 20
0.0
 30
0.0
 70
   128
  0
VERTEX
  5
3139
  8
0
 10
269.08633234725198
 20
31.21220394999466
 30
0.0
  0
VERTEX
  5
313A
  8
0
 10
271.2323921934742
 20
31.240406699979761
 30
0.0
  0
VERTEX
  5
313B
  8
0
 10
273.37845203969641
 20
31.424295765812449
 30
0.0
  0
VERTEX
  5
313C
  8
0
 10
274.81076835676049
 20
31.736511499044131
 30
0.0
  0
VERTEX
  5
313D
  8
0
 10
276.20447844707411
 20
32.303806702219447
 30
0.0
  0
VERTEX
  5
313E
  8
0
 10
277.36778606000962
 20
33.154424816062971
 30
0.0
  0
VERTEX
  5
313F
  8
0
 10
277.831975634
 20
33.700566820707387
 30
0.0
  0
VERTEX
  5
3140
  8
0
 10
278.19622325402861
 20
34.347653902829897
 30
0.0
  0
VERTEX
  5
3141
  8
0
 10
278.45320693115201
 20
35.390067111144504
 30
0.0
  0
VERTEX
  5
3142
  8
0
 10
278.46116730960051
 20
35.612203949994637
 30
0.0
  0
SEQEND
  5
3143
  8
0
  0
LINE
  5
28E0
  8
0
 10
278.52681319058638
 20
35.612203949994637
 30
0.0
 11
278.46116730960051
 21
35.612203949994637
 31
0.0
  0
LINE
  5
28E1
  8
0
 10
278.52681319058638
 20
39.21220394999466
 30
0.0
 11
278.52681319058638
 21
31.21220394999466
 31
0.0
  0
LINE
  5
28E3
  8
0
 10
256.59245907157242
 20
39.21220394999466
 30
0.0
 11
256.59245907157242
 21
35.612203949994637
 31
0.0
  0
LINE
  5
28E4
  8
0
 10
278.52681319058638
 20
39.212203949994148
 30
0.0
 11
256.52681319058638
 21
39.212203949994148
 31
0.0
  0
LINE
  5
28E5
  8
0
 10
278.46116730960051
 20
35.612203949994637
 30
0.0
 11
278.46116730960051
 21
39.21220394999466
 31
0.0
  0
LINE
  5
28EA
  8
0
 10
272.27681319058638
 20
49.13377136648662
 30
0.0
 11
262.7768131905861
 21
49.13377136648662
 31
0.0
  0
ARC
  5
28EB
  8
0
 10
267.52681319058593
 20
39.212203949994148
 30
0.0
 40
8.6068286842488533
 50
0.000000000003453
 51
179.99999999999281
  0
LINE
  5
28EC
  8
0
 10
273.52681319058638
 20
163.13870394999461
 30
0.0
 11
261.52681319058638
 21
163.13870394999461
 31
0.0
  0
LINE
  5
28ED
  8
0
 10
272.45331319058641
 20
164.2122039499946
 30
0.0
 11
262.60031319058629
 21
164.2122039499946
 31
0.0
  0
LINE
  5
28F0
  8
0
 10
255.02681319058641
 20
58.21220394999466
 30
0.0
 11
280.02681319058638
 21
58.21220394999466
 31
0.0
  0
LINE
  5
28F1
  8
0
 10
255.02681319058641
 20
64.212203949994645
 30
0.0
 11
280.02681319058638
 21
64.212203949994645
 31
0.0
  0
LINE
  5
28F2
  8
0
 10
258.52681319058638
 20
71.21220394999466
 30
0.0
 11
276.52681319058638
 21
71.21220394999466
 31
0.0
  0
LINE
  5
28F4
  8
0
 10
271.12681319058652
 20
71.826563303939565
 30
0.0
 11
263.92681319058647
 21
71.826563303939565
 31
0.0
  0
LINE
  5
28F5
  8
0
 10
273.52681319058638
 20
142.21220394999469
 30
0.0
 11
261.52681319058638
 21
142.21220394999469
 31
0.0
  0
LINE
  5
28F6
  8
0
 10
262.10416345977609
 20
143.2122039499946
 30
0.0
 11
272.94946292139679
 21
143.2122039499946
 31
0.0
  0
LINE
  5
28F7
  8
0
 10
254.52681319058641
 20
96.712203949994645
 30
0.0
 11
261.52681319058638
 21
96.712203949994645
 31
0.0
  0
LINE
  5
28F8
  8
0
 10
273.52681319058638
 20
96.712203949994645
 30
0.0
 11
280.52681319058638
 21
96.712203949994645
 31
0.0
  0
LINE
  5
28F9
  8
0
 10
254.52681319058641
 20
99.71220394999466
 30
0.0
 11
261.52681319058638
 21
99.71220394999466
 31
0.0
  0
LINE
  5
28FA
  8
0
 10
273.52681319058638
 20
99.71220394999466
 30
0.0
 11
280.52681319058638
 21
99.71220394999466
 31
0.0
  0
POLYLINE
  5
28FB
  8
0
 66
     1
 10
0.0
 20
0.0
 30
0.0
 70
   128
  0
VERTEX
  5
3144
  8
0
 10
277.02681319058638
 20
111.57502303936791
 30
0.0
  0
VERTEX
  5
3145
  8
0
 10
274.5386821431689
 20
112.220023238268
 30
0.0
  0
VERTEX
  5
3146
  8
0
 10
273.52681319058638
 20
112.3496960332369
 30
0.0
  0
SEQEND
  5
3147
  8
0
  0
LINE
  5
28FC
  8
0
 10
277.02681319058638
 20
99.71220394999466
 30
0.0
 11
277.02681319058638
 21
112.42352881539981
 31
0.0
  0
LINE
  5
28FD
  8
0
 10
258.52681319058638
 20
112.7122039499946
 30
0.0
 11
261.52681319058638
 21
112.7122039499946
 31
0.0
  0
LINE
  5
28FE
  8
0
 10
273.52681319058638
 20
112.7122039499946
 30
0.0
 11
276.52681319058638
 21
112.7122039499946
 31
0.0
  0
POLYLINE
  5
2900
  8
0
 66
     1
 10
0.0
 20
0.0
 30
0.0
 70
   128
  0
VERTEX
  5
3148
  8
0
 10
261.52681319058638
 20
112.3147581841242
 30
0.0
  0
VERTEX
  5
3149
  8
0
 10
260.22943754698571
 20
112.1666329508391
 30
0.0
  0
VERTEX
  5
314A
  8
0
 10
258.02681319058638
 20
111.57502303936791
 30
0.0
  0
SEQEND
  5
314B
  8
0
  0
LINE
  5
2902
  8
0
 10
258.02681319058638
 20
99.71220394999466
 30
0.0
 11
258.02681319058638
 21
112.42352881539981
 31
0.0
  0
LINE
  5
2903
  8
0
 10
261.52681319058638
 20
95.71220394999466
 30
0.0
 11
254.52681319058641
 21
95.71220394999466
 31
0.0
  0
LINE
  5
2904
  8
0
 10
280.52681319058638
 20
95.71220394999466
 30
0.0
 11
273.52681319058638
 21
95.71220394999466
 31
0.0
  0
LINE
  5
2905
  8
0
 10
273.52681319058638
 20
96.212203949994674
 30
0.0
 11
280.02681319058638
 21
96.212203949994674
 31
0.0
  0
LINE
  5
2906
  8
0
 10
255.02681319058641
 20
96.212203949994674
 30
0.0
 11
261.52681319058638
 21
96.212203949994674
 31
0.0
  0
LINE
  5
2907
  8
0
 10
254.52681319058641
 20
92.712203949994631
 30
0.0
 11
261.52681319058638
 21
92.712203949994631
 31
0.0
  0
LINE
  5
2908
  8
0
 10
273.52681319058638
 20
92.712203949994631
 30
0.0
 11
280.52681319058638
 21
92.712203949994631
 31
0.0
  0
LINE
  5
2A7E
  8
3
 10
195.65181319058621
 20
73.212203949994631
 30
0.0
 11
195.6518131905863
 21
72.707022464453757
 31
0.0
  0
LINE
  5
2A7F
  8
3
 10
185.40181319058649
 20
73.212203949994631
 30
0.0
 11
185.40181319058649
 21
72.707022464453757
 31
0.0
  0
LINE
  5
2A96
  8
3
 10
272.65181319058649
 20
164.01370394999441
 30
0.0
 11
272.65181319058649
 21
92.212203949994674
 31
0.0
  0
LINE
  5
2A97
  8
3
 10
262.40181319058661
 20
164.01370394999489
 30
0.0
 11
262.40181319058661
 21
92.212203949994674
 31
0.0
  0
LINE
  5
2A98
  8
3
 10
262.40181319058649
 20
78.21220394999456
 30
0.0
 11
262.40181319058661
 21
72.707022464453757
 31
0.0
  0
LINE
  5
2A99
  8
3
 10
272.65181319058541
 20
78.21220394999456
 30
0.0
 11
272.65181319058649
 21
72.707022464453757
 31
0.0
  0
LINE
  5
2C2D
  8
1
 10
121.5268131905864
 20
242.47480353614139
 30
0.0
 11
121.5268131905864
 21
223.47480353614139
 31
0.0
  0
LINE
  5
2C2E
  8
1
 10
161.52681319058641
 20
248.97480353614131
 30
0.0
 11
161.52681319058641
 21
216.97480353614139
 31
0.0
  0
LINE
  5
2C2F
  8
1
 10
190.52681319058621
 20
241.97480353614139
 30
0.0
 11
190.52681319058621
 21
223.97480353614139
 31
0.0
  0
LINE
  5
2C3A
  8
1
 10
267.52681319058632
 20
169.2122039499946
 30
0.0
 11
267.52681319058621
 21
26.21220394999466
 31
0.0
  0
LINE
  5
2D6D
  8
3
 10
30.401813190586179
 20
73.212203949994816
 30
0.0
 11
30.401813190586179
 21
72.707022464453942
 31
0.0
  0
LINE
  5
2D6E
  8
3
 10
40.651813190585948
 20
73.212203949994816
 30
0.0
 11
40.651813190586068
 21
72.707022464453942
 31
0.0
  0
LINE
  5
2D70
  8
0
 10
40.27681319058626
 20
72.490516113507908
 30
0.0
 11
41.526813190586068
 21
73.212203949994816
 31
0.0
  0
LINE
  5
2D71
  8
0
 10
29.526813190585958
 20
73.212203949994816
 30
0.0
 11
30.776813190586271
 21
72.490516113507653
 31
0.0
  0
LINE
  5
2EA8
  8
0
 10
251.52681319058621
 20
92.212203949994745
 30
0.0
 11
283.52681319058621
 21
92.212203949994745
 31
0.0
  0
LINE
  5
2EA9
  8
0
 10
251.52681319058621
 20
73.212203949994745
 30
0.0
 11
283.52681319058621
 21
73.212203949994745
 31
0.0
  0
LINE
  5
2EAA
  8
0
 10
251.52681319058621
 20
92.212203949994745
 30
0.0
 11
251.52681319058621
 21
73.212203949994745
 31
0.0
  0
LINE
  5
2EAB
  8
0
 10
261.02681319058632
 20
78.212203949994745
 30
0.0
 11
274.02681319058632
 21
78.212203949994745
 31
0.0
  0
LINE
  5
2EAC
  8
0
 10
274.02681319058632
 20
78.212203949994745
 30
0.0
 11
274.02681319058632
 21
73.212203949994745
 31
0.0
  0
LINE
  5
2EAD
  8
0
 10
253.52681319058621
 20
92.212203949994745
 30
0.0
 11
253.52681319058621
 21
73.212203949994745
 31
0.0
  0
LINE
  5
2EAE
  8
0
 10
261.02681319058632
 20
78.212203949994745
 30
0.0
 11
261.02681319058632
 21
73.212203949994745
 31
0.0
  0
LINE
  5
2EAF
  8
0
 10
283.52681319058621
 20
92.212203949994745
 30
0.0
 11
283.52681319058621
 21
73.212203949994745
 31
0.0
  0
LINE
  5
2EB0
  8
0
 10
281.52681319058621
 20
92.212203949994745
 30
0.0
 11
281.52681319058621
 21
73.212203949994745
 31
0.0
  0
LINE
  5
2EB3
  8
0
 10
51.526813190586068
 20
92.212203949994674
 30
0.0
 11
51.526813190586068
 21
73.212203949994674
 31
0.0
  0
LINE
  5
2EB4
  8
0
 10
44.526813190586182
 20
87.212203949994674
 30
0.0
 11
44.526813190586182
 21
73.212203949994674
 31
0.0
  0
LINE
  5
2EB5
  8
0
 10
44.526813190586182
 20
87.212203949994674
 30
0.0
 11
26.526813190586179
 21
87.212203949994674
 31
0.0
  0
LINE
  5
2EB6
  8
0
 10
49.526813190586182
 20
92.212203949994674
 30
0.0
 11
44.526813190586182
 21
87.212203949994674
 31
0.0
  0
LINE
  5
2EB7
  8
0
 10
51.526813190586068
 20
73.212203949994674
 30
0.0
 11
19.526813190586068
 21
73.212203949994674
 31
0.0
  0
LINE
  5
2EB8
  8
0
 10
21.526813190586179
 20
92.212203949994674
 30
0.0
 11
26.526813190586179
 21
87.212203949994674
 31
0.0
  0
LINE
  5
2EB9
  8
0
 10
51.526813190586182
 20
92.212203949994674
 30
0.0
 11
19.526813190586068
 21
92.212203949994674
 31
0.0
  0
LINE
  5
2EBA
  8
0
 10
19.526813190586068
 20
92.212203949994674
 30
0.0
 11
19.526813190586068
 21
73.212203949994674
 31
0.0
  0
LINE
  5
2EBB
  8
0
 10
26.526813190586179
 20
87.212203949994674
 30
0.0
 11
26.526813190586179
 21
73.212203949994674
 31
0.0
  0
LINE
  5
2EBC
  8
2
 10
201.52681319058641
 20
239.47480353614179
 30
0.0
 11
150.2684829413885
 21
239.47480353614131
 31
0.0
  0
LINE
  5
2EBD
  8
2
 10
201.52681319058641
 20
226.47480353614179
 30
0.0
 11
150.26848294138881
 21
226.47480353614151
 31
0.0
  0
ARC
  5
2EBE
  8
2
 10
161.52681319058641
 20
232.97480353614151
 30
0.0
 40
6.5
 50
270.0
 51
90.0
  0
LINE
  5
2EBF
  8
0
 10
113.6511688435684
 20
248.9748035361412
 30
0.0
 11
101.5268131905864
 21
241.97480353614111
 31
0.0
  0
LINE
  5
2EC0
  8
0
 10
101.5268131905864
 20
223.97480353614111
 30
0.0
 11
101.5268131905864
 21
241.97480353614111
 31
0.0
  0
LINE
  5
2EC1
  8
0
 10
113.6511688435685
 20
216.9748035361412
 30
0.0
 11
101.5268131905864
 21
223.97480353614111
 31
0.0
  0
LINE
  5
2EC2
  8
0
 10
110.18706722843081
 20
218.97480353614111
 30
0.0
 11
110.18706722843061
 21
246.97480353614111
 31
0.0
  0
LINE
  5
2EC3
  8
0
 10
113.6511688435685
 20
216.97480353614111
 30
0.0
 11
199.52681319058641
 21
216.97480353614179
 31
0.0
  0
LINE
  5
2EC4
  8
0
 10
199.52681319058641
 20
216.97480353614179
 30
0.0
 11
201.52681319058641
 21
218.97480353614179
 31
0.0
  0
LINE
  5
2EC5
  8
0
 10
201.52681319058641
 20
246.97480353614171
 30
0.0
 11
201.52681319058641
 21
218.97480353614179
 31
0.0
  0
LINE
  5
2EC6
  8
0
 10
199.52681319058641
 20
248.97480353614179
 30
0.0
 11
201.52681319058641
 21
246.97480353614171
 31
0.0
  0
LINE
  5
2EC7
  8
0
 10
113.6511688435685
 20
248.9748035361412
 30
0.0
 11
199.52681319058641
 21
248.97480353614179
 31
0.0
  0
LINE
  5
2EC8
  8
0
 10
121.5268131905864
 20
239.4748035361412
 30
0.0
 11
150.26848294138861
 21
239.47480353614131
 31
0.0
  0
LINE
  5
2EC9
  8
0
 10
150.26848294138861
 20
226.47480353614131
 30
0.0
 11
121.5268131905864
 21
226.4748035361412
 31
0.0
  0
ARC
  5
2ECA
  8
0
 10
121.5268131905864
 20
232.9748035361412
 30
0.0
 40
6.500000000000056
 50
90.0
 51
270.0
  0
LINE
  5
2ECB
  8
2
 10
168.02681319058641
 20
78.212203949994731
 30
0.0
 11
168.02681319058641
 21
92.212203949994731
 31
0.0
  0
LINE
  5
2ECC
  8
2
 10
115.0268131905864
 20
92.212203949994731
 30
0.0
 11
115.0268131905864
 21
73.212203949994731
 31
0.0
  0
LINE
  5
2ECD
  8
2
 10
161.52681319058641
 20
92.212203949994731
 30
0.0
 11
161.52681319058641
 21
78.212203949994731
 31
0.0
  0
LINE
  5
2ECE
  8
2
 10
201.52681319058641
 20
78.212203949994731
 30
0.0
 11
161.52681319058641
 21
78.212203949994731
 31
0.0
  0
LINE
  5
2ECF
  8
0
 10
201.52681319058641
 20
92.212203949994731
 30
0.0
 11
201.52681319058641
 21
73.212203949994731
 31
0.0
  0
LINE
  5
2ED0
  8
0
 10
101.5268131905864
 20
73.212203949994731
 30
0.0
 11
201.52681319058641
 21
73.212203949994731
 31
0.0
  0
LINE
  5
2ED1
  8
0
 10
110.18706722843081
 20
92.212203949994731
 30
0.0
 11
201.52681319058641
 21
92.212203949994702
 31
0.0
  0
LINE
  5
2ED2
  8
0
 10
110.18706722843081
 20
92.212203949994731
 30
0.0
 11
101.5268131905864
 21
87.212203949994731
 31
0.0
  0
LINE
  5
2ED3
  8
0
 10
101.5268131905864
 20
87.212203949994731
 30
0.0
 11
101.5268131905864
 21
73.212203949994731
 31
0.0
  0
LINE
  5
2ED4
  8
0
 10
199.52681319058641
 20
92.212203949994731
 30
0.0
 11
199.52681319058641
 21
73.212203949994731
 31
0.0
  0
LINE
  5
2ED5
  8
0
 10
113.6511688435685
 20
92.212203949994731
 30
0.0
 11
113.6511688435685
 21
73.212203949994731
 31
0.0
  0
TEXT
  5
3088
  8
0
 62
     3
 10
0.0
 20
0.0
 30
0.0
 40
10.0
  1
BJ153-12100B2-T
  7
STANDARD1
  0
ENDSEC
  0
EOF
