  0
SECTION
  2
HEADER
  9
$ACADVER
  1
AC1009
  9
$INSBASE
 10
82.638099999999994
 20
103.82319099999999
 30
0.0
  9
$EXTMIN
 10
0.0
 20
-2.960436562073669
 30
0.0
  9
$EXTMAX
 10
283.43020788254819
 20
213.9483752015295
 30
0.0
  9
$LIMMIN
 10
0.0
 20
0.0
  9
$LIMMAX
 10
375.0
 20
270.0
  9
$ORTHOMODE
 70
     1
  9
$REGENMODE
 70
     1
  9
$FILLMODE
 70
     1
  9
$QTEXTMODE
 70
     0
  9
$MIRRTEXT
 70
     0
  9
$DRAGMODE
 70
     2
  9
$LTSCALE
 40
10.0
  9
$OSMODE
 70
  3071
  9
$ATTMODE
 70
     1
  9
$TEXTSIZE
 40
0.06
  9
$TRACEWID
 40
0.05
  9
$TEXTSTYLE
  7
STANDARD
  9
$CLAYER
  8
0
  9
$CELTYPE
  6
BYLAYER
  9
$CECOLOR
 62
   256
  9
$DIMSCALE
 40
1.0
  9
$DIMASZ
 40
3.0
  9
$DIMEXO
 40
2.0
  9
$DIMDLI
 40
10.0
  9
$DIMRND
 40
0.0
  9
$DIMDLE
 40
0.0
  9
$DIMEXE
 40
2.0
  9
$DIMTP
 40
0.0
  9
$DIMTM
 40
0.0
  9
$DIMTXT
 40
3.0
  9
$DIMCEN
 40
0.0
  9
$DIMTSZ
 40
0.0
  9
$DIMTOL
 70
     0
  9
$DIMLIM
 70
     0
  9
$DIMTIH
 70
     0
  9
$DIMTOH
 70
     0
  9
$DIMSE1
 70
     0
  9
$DIMSE2
 70
     0
  9
$DIMTAD
 70
     1
  9
$DIMZIN
 70
     0
  9
$DIMBLK
  1

  9
$DIMASO
 70
     0
  9
$DIMSHO
 70
     0
  9
$DIMPOST
  1

  9
$DIMAPOST
  1

  9
$DIMALT
 70
     0
  9
$DIMALTD
 70
     2
  9
$DIMALTF
 40
25.399999999999999
  9
$DIMLFAC
 40
1.0
  9
$DIMTOFL
 70
     1
  9
$DIMTVP
 40
1.6000000000000001
  9
$DIMTIX
 70
     1
  9
$DIMSOXD
 70
     0
  9
$DIMSAH
 70
     0
  9
$DIMBLK1
  1

  9
$DIMBLK2
  1

  9
$DIMSTYLE
  2
STANDARD
  9
$DIMCLRD
 70
     0
  9
$DIMCLRE
 70
     0
  9
$DIMCLRT
 70
     0
  9
$DIMTFAC
 40
1.0
  9
$DIMGAP
 40
0.09
  9
$LUNITS
 70
     2
  9
$LUPREC
 70
     4
  9
$SKETCHINC
 40
0.1
  9
$FILLETRAD
 40
0.0
  9
$AUNITS
 70
     0
  9
$AUPREC
 70
     4
  9
$MENU
  1
E:\r13\win\SUPPORT\ACAD
  9
$ELEVATION
 40
0.0
  9
$PELEVATION
 40
0.0
  9
$THICKNESS
 40
0.0
  9
$LIMCHECK
 70
     0
  9
$BLIPMODE
 70
     0
  9
$CHAMFERA
 40
0.0
  9
$CHAMFERB
 40
0.0
  9
$SKPOLY
 70
     0
  9
$TDCREATE
 40
2449840.348113426
  9
$TDUPDATE
 40
2456597.6367420829
  9
$TDINDWG
 40
0.1155297106
  9
$TDUSRTIMER
 40
0.1155297106
  9
$USRTIMER
 70
     1
  9
$ANGBASE
 50
0.0
  9
$ANGDIR
 70
     0
  9
$PDMODE
 70
     1
  9
$PDSIZE
 40
0.0
  9
$PLINEWID
 40
0.0
  9
$COORDS
 70
     1
  9
$SPLFRAME
 70
     0
  9
$SPLINETYPE
 70
     6
  9
$SPLINESEGS
 70
     8
  9
$ATTDIA
 70
     0
  9
$ATTREQ
 70
     1
  9
$HANDLING
 70
     1
  9
$HANDSEED
  5
2F52
  9
$SURFTAB1
 70
     6
  9
$SURFTAB2
 70
     6
  9
$SURFTYPE
 70
     6
  9
$SURFU
 70
     6
  9
$SURFV
 70
     6
  9
$UCSNAME
  2

  9
$UCSORG
 10
0.0
 20
0.0
 30
0.0
  9
$UCSXDIR
 10
1.0
 20
0.0
 30
0.0
  9
$UCSYDIR
 10
0.0
 20
1.0
 30
0.0
  9
$PUCSNAME
  2

  9
$PUCSORG
 10
0.0
 20
0.0
 30
0.0
  9
$PUCSXDIR
 10
1.0
 20
0.0
 30
0.0
  9
$PUCSYDIR
 10
0.0
 20
1.0
 30
0.0
  9
$USERI1
 70
     3
  9
$USERI2
 70
     1
  9
$USERI3
 70
     0
  9
$USERI4
 70
     0
  9
$USERI5
 70
     0
  9
$USERR1
 40
1.0
  9
$USERR2
 40
3.0
  9
$USERR3
 40
3.0
  9
$USERR4
 40
3.0
  9
$USERR5
 40
10.0
  9
$WORLDVIEW
 70
     1
  9
$SHADEDGE
 70
     3
  9
$SHADEDIF
 70
    70
  9
$TILEMODE
 70
     1
  9
$MAXACTVP
 70
    16
  9
$PLIMCHECK
 70
     0
  9
$PEXTMIN
 10
1.0000000000000000E+020
 20
1.0000000000000000E+020
 30
1.0000000000000000E+020
  9
$PEXTMAX
 10
-1.0000000000000000E+020
 20
-1.0000000000000000E+020
 30
-1.0000000000000000E+020
  9
$PLIMMIN
 10
0.0
 20
0.0
  9
$PLIMMAX
 10
12.0
 20
9.0
  9
$UNITMODE
 70
     0
  9
$VISRETAIN
 70
     0
  9
$PLINEGEN
 70
     0
  9
$PSLTSCALE
 70
     0
  0
ENDSEC
  0
SECTION
  2
TABLES
  0
TABLE
  2
VPORT
 70
     1
  0
VPORT
  2
*ACTIVE
 70
     0
 10
0.0
 20
0.0
 11
1.0
 21
1.0
 12
195.0581083320873
 22
133.5127261426681
 13
0.0
 23
0.0
 14
5.0
 24
5.0
 15
10.0
 25
10.0
 16
0.0
 26
0.0
 36
1.0
 17
0.0
 27
0.0
 37
0.0
 40
275.42274993631997
 41
1.831871345029239
 42
50.0
 43
0.0
 44
0.0
 50
0.0
 51
0.0
 71
     0
 72
   100
 73
     1
 74
     0
 75
     0
 76
     0
 77
     0
 78
     0
  0
ENDTAB
  0
TABLE
  2
LTYPE
 70
     4
  0
LTYPE
  2
CONTINUOUS
 70
     0
  3
Solid Line
 72
    65
 73
     0
 40
0.0
  0
LTYPE
  2
CENTER
 70
     0
  3
____ _ ____ _ ____ _ ____ _ ____ _ ____ _ ____
 72
    65
 73
     4
 40
2.0
 49
1.25
 49
-0.25
 49
0.25
 49
-0.25
  0
LTYPE
  2
HIDDEN
 70
     0
  3
__ __ __ __ __ __ __ __ __ __ __ __ __ __ __ __
 72
    65
 73
     2
 40
0.375
 49
0.25
 49
-0.125
  0
LTYPE
  2
PHANTOM2
 70
     0
  3
___ _ _ ___ _ _ ___ _ _ ___ _ _
 72
    65
 73
     6
 40
1.25
 49
0.625
 49
-0.125
 49
0.125
 49
-0.125
 49
0.125
 49
-0.125
  0
ENDTAB
  0
TABLE
  2
LAYER
 70
     5
  0
LAYER
  2
0
 70
     0
 62
     7
  6
CONTINUOUS
  0
LAYER
  2
1
 70
     0
 62
     1
  6
CENTER
  0
LAYER
  2
2
 70
     0
 62
     2
  6
HIDDEN
  0
LAYER
  2
3
 70
     0
 62
     3
  6
CONTINUOUS
  0
LAYER
  2
DEFPOINTS
 70
     0
 62
     7
  6
CONTINUOUS
  0
ENDTAB
  0
TABLE
  2
STYLE
 70
     2
  0
STYLE
  2
STANDARD
 70
     0
 40
0.0
 41
1.0
 50
0.0
 71
     0
 42
0.06
  3
TXT
  4
BIGFONT
  0
STYLE
  2
STANDARD1
 70
     0
 40
0.0
 41
1.0
 50
0.0
 71
     0
 42
3.0
  3
txt
  4

  0
ENDTAB
  0
TABLE
  2
VIEW
 70
     0
  0
ENDTAB
  0
TABLE
  2
UCS
 70
     0
  0
ENDTAB
  0
TABLE
  2
APPID
 70
     3
  0
APPID
  2
ACAD
 70
     0
  0
APPID
  2
ACAD_MLEADERVER
 70
     0
  0
APPID
  2
ACAD_NAV_VCDISPLAY
 70
     0
  0
ENDTAB
  0
TABLE
  2
DIMSTYLE
 70
     1
  0
DIMSTYLE
  2
STANDARD
 70
     0
  3

  4

  5

  6

  7

 40
1.0
 41
0.18
 42
0.0625
 43
0.38
 44
0.18
 45
0.0
 46
0.0
 47
0.0
 48
0.0
140
0.18
141
0.09
142
0.0
143
25.399999999999999
144
1.0
145
0.0
146
1.0
147
0.09
 71
     0
 72
     0
 73
     1
 74
     1
 75
     0
 76
     0
 77
     0
 78
     0
170
     0
171
     2
172
     0
173
     0
174
     0
175
     0
176
     0
177
     0
178
     0
  0
ENDTAB
  0
ENDSEC
  0
SECTION
  2
BLOCKS
  0
BLOCK
  8
0
  2
$MODEL_SPACE
 70
     0
 10
0.0
 20
0.0
 30
0.0
  3
$MODEL_SPACE
  1

  0
ENDBLK
  5
223
  8
0
  0
BLOCK
 67
     1
  8
0
  2
$PAPER_SPACE
 70
     0
 10
0.0
 20
0.0
 30
0.0
  3
$PAPER_SPACE
  1

  0
ENDBLK
  5
221
 67
     1
  8
0
  0
ENDSEC
  0
SECTION
  2
ENTITIES
  0
ARC
  5
1600
  8
0
 10
166.43020788254839
 20
34.784471267555737
 30
0.0
 40
11.000000000000419
 50
115.58300197739879
 51
128.51556905247739
  0
ARC
  5
1601
  8
0
 10
166.43020788254839
 20
34.784471267555737
 30
0.0
 40
11.00000000000038
 50
51.484430947522647
 51
64.41699802260122
  0
LINE
  5
1602
  8
0
 10
172.4302078825483
 20
105.2844712675562
 30
0.0
 11
172.4302078825483
 21
133.7109712675562
 31
0.0
  0
LINE
  5
1603
  8
0
 10
160.43020788254839
 20
133.7109712675562
 30
0.0
 11
160.43020788254839
 21
105.2844712675562
 31
0.0
  0
LINE
  5
1604
  8
0
 10
161.00755815173801
 20
68.784471267556199
 30
0.0
 11
161.6802078825483
 21
67.619407758095207
 31
0.0
  0
LINE
  5
1605
  8
0
 10
171.1802078825483
 20
67.619407758095207
 30
0.0
 11
171.85285761335879
 21
68.784471267556199
 31
0.0
  0
LINE
  5
1606
  8
0
 10
172.4302078825483
 20
133.7109712675562
 30
0.0
 11
171.35670788254831
 21
134.7844712675562
 31
0.0
  0
LINE
  5
1607
  8
0
 10
161.50370788254821
 20
134.7844712675562
 30
0.0
 11
160.43020788254839
 21
133.7109712675562
 31
0.0
  0
LINE
  5
1608
  8
0
 10
171.1802078825483
 20
44.706038684048217
 30
0.0
 11
171.1802078825483
 21
67.619407758095207
 31
0.0
  0
LINE
  5
1609
  8
0
 10
161.6802078825483
 20
67.619407758095207
 30
0.0
 11
161.6802078825483
 21
44.706038684048217
 31
0.0
  0
LINE
  5
160A
  8
0
 10
177.9302078825483
 20
59.784471267556221
 30
0.0
 11
177.9302078825483
 21
53.784471267556199
 31
0.0
  0
LINE
  5
160B
  8
0
 10
202.9302078825483
 20
53.784471267556199
 30
0.0
 11
202.9302078825483
 21
59.784471267556221
 31
0.0
  0
LINE
  5
160C
  8
0
 10
181.4302078825483
 20
66.784471267556228
 30
0.0
 11
181.4302078825483
 21
59.784471267556221
 31
0.0
  0
LINE
  5
160D
  8
0
 10
199.4302078825483
 20
59.784471267556221
 30
0.0
 11
199.4302078825483
 21
66.784471267556228
 31
0.0
  0
LINE
  5
160E
  8
0
 10
196.4302078825483
 20
117.7844712675562
 30
0.0
 11
195.85285761335879
 21
118.7844712675562
 31
0.0
  0
LINE
  5
160F
  8
0
 10
185.00755815173801
 20
118.7844712675562
 30
0.0
 11
184.4302078825483
 21
117.7844712675562
 31
0.0
  0
LINE
  5
1610
  8
0
 10
184.4302078825483
 20
117.7844712675562
 30
0.0
 11
184.4302078825483
 21
84.784471267556157
 31
0.0
  0
LINE
  5
1611
  8
0
 10
196.4302078825483
 20
84.784471267556199
 30
0.0
 11
196.4302078825483
 21
117.7844712675562
 31
0.0
  0
LINE
  5
1612
  8
0
 10
184.4302078825483
 20
68.784471267556228
 30
0.0
 11
186.83020788254839
 21
67.398830621501133
 31
0.0
  0
LINE
  5
1613
  8
0
 10
194.03020788254841
 20
67.398830621501133
 30
0.0
 11
196.4302078825483
 21
68.784471267556228
 31
0.0
  0
LINE
  5
1614
  8
0
 10
194.03020788254841
 20
66.784471267556228
 30
0.0
 11
194.03020788254841
 21
67.398830621501133
 31
0.0
  0
LINE
  5
1615
  8
0
 10
186.83020788254839
 20
67.398830621501133
 30
0.0
 11
186.83020788254839
 21
66.784471267556228
 31
0.0
  0
POLYLINE
  5
1616
  8
0
 66
     1
 10
0.0
 20
0.0
 30
0.0
 70
   128
  0
VERTEX
  5
2EB8
  8
0
 10
153.43020788254839
 20
89.284471267556185
 30
0.0
  0
VERTEX
  5
2EB9
  8
0
 10
154.09005692880251
 20
88.977001328226351
 30
0.0
  0
VERTEX
  5
2EBA
  8
0
 10
154.5258814282374
 20
88.784471267556199
 30
0.0
  0
SEQEND
  5
2EBB
  8
0
  0
POLYLINE
  5
1617
  8
0
 66
     1
 10
0.0
 20
0.0
 30
0.0
 70
   128
  0
VERTEX
  5
2EBC
  8
0
 10
178.33453433685941
 20
88.784471267556199
 30
0.0
  0
VERTEX
  5
2EBD
  8
0
 10
178.77035883629421
 20
88.977001328226351
 30
0.0
  0
VERTEX
  5
2EBE
  8
0
 10
179.4302078825483
 20
89.284471267556185
 30
0.0
  0
SEQEND
  5
2EBF
  8
0
  0
LINE
  5
1618
  8
0
 10
153.43020788254839
 20
92.284471267556228
 30
0.0
 11
153.43020788254839
 21
89.284471267556185
 31
0.0
  0
LINE
  5
1619
  8
0
 10
179.4302078825483
 20
89.284471267556185
 30
0.0
 11
179.4302078825483
 21
92.284471267556228
 31
0.0
  0
LINE
  5
161A
  8
0
 10
177.3998629971513
 20
104.1472903569295
 30
0.0
 11
175.4302078825483
 21
105.2844712675562
 31
0.0
  0
LINE
  5
161B
  8
0
 10
157.43020788254839
 20
105.2844712675562
 30
0.0
 11
155.4605527679455
 21
104.1472903569295
 31
0.0
  0
LINE
  5
161C
  8
0
 10
153.43020788254839
 20
85.284471267556171
 30
0.0
 11
153.9302078825483
 21
84.784471267556199
 31
0.0
  0
LINE
  5
161D
  8
0
 10
178.9302078825483
 20
84.784471267556199
 30
0.0
 11
179.4302078825483
 21
85.284471267556171
 31
0.0
  0
LINE
  5
161E
  8
0
 10
179.4302078825483
 20
85.284471267556171
 30
0.0
 11
179.4302078825483
 21
88.284471267556185
 31
0.0
  0
LINE
  5
161F
  8
0
 10
153.43020788254839
 20
88.284471267556185
 30
0.0
 11
153.43020788254839
 21
85.284471267556171
 31
0.0
  0
LINE
  5
1620
  8
0
 10
179.4302078825483
 20
88.284471267556185
 30
0.0
 11
178.9302078825483
 21
88.784471267556199
 31
0.0
  0
LINE
  5
1621
  8
0
 10
153.93020788254839
 20
88.784471267556199
 30
0.0
 11
153.43020788254839
 21
88.284471267556185
 31
0.0
  0
LINE
  5
1623
  8
0
 10
155.43020788254839
 20
26.784471267556199
 30
0.0
 11
155.43020788254839
 21
34.784471267556171
 31
0.0
  0
LINE
  5
1624
  8
0
 10
155.49585376353431
 20
31.184471267556209
 30
0.0
 11
155.43020788254839
 21
31.184471267556209
 31
0.0
  0
POLYLINE
  5
1625
  8
0
 66
     1
 10
0.0
 20
0.0
 30
0.0
 70
   128
  0
VERTEX
  5
2EC0
  8
0
 10
155.49585376353431
 20
31.184471267556209
 30
0.0
  0
VERTEX
  5
2EC1
  8
0
 10
155.58755990965119
 20
30.433759925575892
 30
0.0
  0
VERTEX
  5
2EC2
  8
0
 10
155.99585989430011
 20
29.468622878738699
 30
0.0
  0
VERTEX
  5
2EC3
  8
0
 10
156.72483726233261
 20
28.597975083541741
 30
0.0
  0
VERTEX
  5
2EC4
  8
0
 10
157.4235821037507
 20
28.068804836753429
 30
0.0
  0
VERTEX
  5
2EC5
  8
0
 10
158.21987526574449
 20
27.64677316462766
 30
0.0
  0
VERTEX
  5
2EC6
  8
0
 10
159.5658896158368
 20
27.195107994341161
 30
0.0
  0
VERTEX
  5
2EC7
  8
0
 10
160.998658273676
 20
26.939564491055108
 30
0.0
  0
VERTEX
  5
2EC8
  8
0
 10
162.9279006003845
 20
26.80593720712778
 30
0.0
  0
VERTEX
  5
2EC9
  8
0
 10
164.87068872588279
 20
26.784471267556199
 30
0.0
  0
SEQEND
  5
2ECA
  8
0
  0
POLYLINE
  5
1627
  8
0
 66
     1
 10
0.0
 20
0.0
 30
0.0
 70
   128
  0
VERTEX
  5
2ECB
  8
0
 10
167.9897270392139
 20
26.784471267556199
 30
0.0
  0
VERTEX
  5
2ECC
  8
0
 10
170.13578688543609
 20
26.812674017541301
 30
0.0
  0
VERTEX
  5
2ECD
  8
0
 10
172.28184673165831
 20
26.99656308337401
 30
0.0
  0
VERTEX
  5
2ECE
  8
0
 10
173.7141630487223
 20
27.308778816605699
 30
0.0
  0
VERTEX
  5
2ECF
  8
0
 10
175.10787313903609
 20
27.87607401978099
 30
0.0
  0
VERTEX
  5
2ED0
  8
0
 10
176.27118075197151
 20
28.72669213362451
 30
0.0
  0
VERTEX
  5
2ED1
  8
0
 10
176.73537032596201
 20
29.272834138268991
 30
0.0
  0
VERTEX
  5
2ED2
  8
0
 10
177.09961794599039
 20
29.919921220391451
 30
0.0
  0
VERTEX
  5
2ED3
  8
0
 10
177.35660162311399
 20
30.962334428706072
 30
0.0
  0
VERTEX
  5
2ED4
  8
0
 10
177.36456200156249
 20
31.184471267556209
 30
0.0
  0
SEQEND
  5
2ED5
  8
0
  0
LINE
  5
1628
  8
0
 10
177.4302078825483
 20
31.184471267556209
 30
0.0
 11
177.36456200156249
 21
31.184471267556209
 31
0.0
  0
LINE
  5
1629
  8
0
 10
177.4302078825483
 20
34.784471267556199
 30
0.0
 11
177.4302078825483
 21
26.784471267556199
 31
0.0
  0
LINE
  5
162A
  8
0
 10
171.1802078825485
 20
44.706038684048217
 30
0.0
 11
161.6802078825483
 21
44.706038684048217
 31
0.0
  0
LINE
  5
162B
  8
0
 10
159.58020788254839
 20
34.784471267556199
 30
0.0
 11
159.58020788254839
 21
43.391299951804591
 31
0.0
  0
LINE
  5
162C
  8
0
 10
173.28020788254841
 20
43.391299951804591
 30
0.0
 11
173.28020788254801
 21
34.784471267556199
 31
0.0
  0
LINE
  5
162D
  8
0
 10
155.49585376353431
 20
34.784471267556199
 30
0.0
 11
155.49585376353431
 21
31.184471267556209
 31
0.0
  0
LINE
  5
1630
  8
0
 10
177.36456200156249
 20
31.184471267556209
 30
0.0
 11
177.36456200156249
 21
34.784471267556199
 31
0.0
  0
LINE
  5
1634
  8
0
 10
155.43020788254839
 20
26.784471267556171
 30
0.0
 11
177.4302078825483
 21
26.784471267556199
 31
0.0
  0
LINE
  5
1635
  8
0
 10
177.36456200156249
 20
34.784471267556199
 30
0.0
 11
155.4302078825485
 21
34.784471267556199
 31
0.0
  0
LINE
  5
1636
  8
0
 10
172.4302078825483
 20
133.7109712675562
 30
0.0
 11
160.43020788254839
 21
133.7109712675562
 31
0.0
  0
LINE
  5
1637
  8
0
 10
171.1802078825483
 20
67.619407758095207
 30
0.0
 11
161.6802078825483
 21
67.619407758095207
 31
0.0
  0
LINE
  5
1638
  8
0
 10
171.35670788254831
 20
134.7844712675562
 30
0.0
 11
161.50370788254821
 21
134.7844712675562
 31
0.0
  0
LINE
  5
163A
  8
0
 10
177.9302078825483
 20
59.784471267556221
 30
0.0
 11
202.9302078825483
 21
59.784471267556171
 31
0.0
  0
LINE
  5
163C
  8
0
 10
177.9302078825483
 20
53.784471267556199
 30
0.0
 11
202.9302078825483
 21
53.784471267556171
 31
0.0
  0
LINE
  5
163E
  8
0
 10
181.4302078825483
 20
66.784471267556228
 30
0.0
 11
199.4302078825483
 21
66.784471267556199
 31
0.0
  0
LINE
  5
163F
  8
0
 10
185.00755815173801
 20
118.7844712675562
 30
0.0
 11
195.85285761335879
 21
118.7844712675562
 31
0.0
  0
LINE
  5
1640
  8
0
 10
196.4302078825483
 20
117.7844712675562
 30
0.0
 11
184.4302078825483
 21
117.7844712675562
 31
0.0
  0
LINE
  5
1641
  8
0
 10
194.03020788254841
 20
67.398830621501133
 30
0.0
 11
186.83020788254839
 21
67.398830621501133
 31
0.0
  0
LINE
  5
1643
  8
0
 10
153.43020788254839
 20
89.284471267556185
 30
0.0
 11
179.4302078825483
 21
89.284471267556185
 31
0.0
  0
LINE
  5
1645
  8
0
 10
153.43020788254839
 20
92.284471267556228
 30
0.0
 11
179.4302078825483
 21
92.284471267556228
 31
0.0
  0
LINE
  5
1646
  8
0
 10
160.94538032524699
 20
92.284471267556228
 30
0.0
 11
160.94538032524699
 21
104.1472903569295
 31
0.0
  0
ARC
  5
1647
  8
0
 10
166.4302078825483
 20
86.225218979159251
 30
0.0
 40
18.742571216437341
 50
72.983919892827771
 51
107.0160801071721
  0
LINE
  5
1648
  8
0
 10
171.9150354398499
 20
92.284471267556228
 30
0.0
 11
171.9150354398499
 21
104.1472903569295
 31
0.0
  0
LINE
  5
164A
  8
0
 10
157.43020788254839
 20
105.2844712675562
 30
0.0
 11
175.4302078825483
 21
105.2844712675562
 31
0.0
  0
ARC
  5
164B
  8
0
 10
174.65744921850069
 20
100.0041013599057
 30
0.0
 40
4.968586156885288
 50
56.499069126498377
 51
123.5009308735047
  0
ARC
  5
164C
  8
0
 10
158.2029665465962
 20
100.00410135990531
 30
0.0
 40
4.9685861568856211
 50
56.499069126498839
 51
123.5009308735014
  0
LINE
  5
164D
  8
0
 10
155.4605527679455
 20
92.284471267556228
 30
0.0
 11
155.4605527679455
 21
104.1472903569295
 31
0.0
  0
LINE
  5
164E
  8
0
 10
177.3998629971513
 20
92.284471267556228
 30
0.0
 11
177.3998629971513
 21
104.1472903569295
 31
0.0
  0
LINE
  5
164F
  8
0
 10
153.43020788254839
 20
85.284471267556171
 30
0.0
 11
179.4302078825483
 21
85.284471267556171
 31
0.0
  0
LINE
  5
1650
  8
0
 10
179.4302078825483
 20
88.284471267556185
 30
0.0
 11
153.43020788254839
 21
88.284471267556185
 31
0.0
  0
LINE
  5
1651
  8
0
 10
153.93020788254839
 20
88.784471267556199
 30
0.0
 11
178.9302078825483
 21
88.784471267556199
 31
0.0
  0
LINE
  5
1658
  8
1
 10
141.43020788254839
 20
87.784471267556199
 30
0.0
 11
141.43020788254839
 21
65.784471267556214
 31
0.0
  0
LINE
  5
1670
  8
3
 10
171.55520788254839
 20
134.5859712675562
 30
0.0
 11
171.5552078825485
 21
105.2844712675562
 31
0.0
  0
LINE
  5
1671
  8
3
 10
161.30520788254839
 20
134.5859712675562
 30
0.0
 11
161.3052078825485
 21
105.2844712675562
 31
0.0
  0
LINE
  5
1672
  8
3
 10
195.55520788254839
 20
118.7844712675562
 30
0.0
 11
195.55520788254839
 21
84.784471267556199
 31
0.0
  0
LINE
  5
1673
  8
3
 10
185.30520788254839
 20
118.7844712675562
 30
0.0
 11
185.30520788254839
 21
84.784471267556199
 31
0.0
  0
LINE
  5
1675
  8
1
 10
166.43020788254839
 20
139.7844712675562
 30
0.0
 11
166.43020788254839
 21
21.784471267556171
 31
0.0
  0
LINE
  5
1679
  8
1
 10
190.43020788254839
 20
48.784471267556171
 30
0.0
 11
190.4302078825485
 21
123.7844712675562
 31
0.0
  0
CIRCLE
  5
16D2
  8
0
 10
166.43020788254839
 20
197.9483752015289
 30
0.0
 40
6.0
  0
CIRCLE
  5
16D5
  8
0
 10
190.4302078825483
 20
197.9483752015291
 30
0.0
 40
6.0
  0
LINE
  5
16D6
  8
0
 10
192.1622586901172
 20
200.9483752015291
 30
0.0
 11
188.69815707497941
 21
200.9483752015291
 31
0.0
  0
LINE
  5
16D7
  8
0
 10
186.96610626741059
 20
197.9483752015291
 30
0.0
 11
188.69815707497941
 21
194.94837520152899
 31
0.0
  0
LINE
  5
16D8
  8
0
 10
188.69815707497941
 20
194.94837520152899
 30
0.0
 11
192.1622586901172
 21
194.94837520152899
 31
0.0
  0
LINE
  5
16D9
  8
0
 10
192.1622586901172
 20
194.94837520152899
 30
0.0
 11
193.89430949768621
 21
197.9483752015291
 31
0.0
  0
LINE
  5
16DA
  8
0
 10
193.89430949768621
 20
197.9483752015291
 30
0.0
 11
192.1622586901172
 21
200.9483752015291
 31
0.0
  0
LINE
  5
16DB
  8
0
 10
188.69815707497941
 20
200.9483752015291
 30
0.0
 11
186.96610626741059
 21
197.9483752015291
 31
0.0
  0
ARC
  5
16DC
  8
0
 10
190.4302078825483
 20
197.9483752015293
 30
0.0
 40
12.50000000000002
 50
331.64236342367252
 51
28.357636576328211
  0
CIRCLE
  5
16DD
  8
0
 10
166.43020788254839
 20
197.9483752015289
 30
0.0
 40
8.9999999999999432
  0
LINE
  5
16DF
  8
0
 10
155.4605527679455
 20
197.94837520152899
 30
0.0
 11
160.9453803252469
 21
207.4483752015289
 31
0.0
  0
LINE
  5
16E0
  8
0
 10
160.9453803252469
 20
207.4483752015289
 30
0.0
 11
171.91503543984979
 21
207.4483752015289
 31
0.0
  0
LINE
  5
16E1
  8
0
 10
171.91503543984979
 20
207.4483752015289
 30
0.0
 11
177.3998629971513
 21
197.9483752015289
 31
0.0
  0
LINE
  5
16E2
  8
0
 10
177.3998629971513
 20
197.9483752015289
 30
0.0
 11
171.9150354398499
 21
188.44837520152899
 31
0.0
  0
LINE
  5
16E3
  8
0
 10
171.9150354398499
 20
188.44837520152899
 30
0.0
 11
160.94538032524699
 21
188.44837520152899
 31
0.0
  0
LINE
  5
16E4
  8
0
 10
160.94538032524699
 20
188.44837520152899
 30
0.0
 11
155.4605527679455
 21
197.94837520152899
 31
0.0
  0
CIRCLE
  5
16E5
  8
0
 10
166.43020788254839
 20
197.94837520152899
 30
0.0
 40
13.0
  0
CIRCLE
  5
16F5
  8
3
 10
166.43020788254839
 20
197.9483752015289
 30
0.0
 40
5.125
  0
CIRCLE
  5
16F6
  8
3
 10
190.43020788254839
 20
197.9483752015291
 30
0.0
 40
5.125
  0
LINE
  5
16F7
  8
1
 10
116.4302078825483
 20
197.9483752015291
 30
0.0
 11
207.9302078825483
 21
197.9483752015291
 31
0.0
  0
ARC
  5
16F8
  8
0
 10
55.43020788254853
 20
34.784471267555723
 30
0.0
 40
11.00000000000041
 50
115.58300197739899
 51
179.9999999999973
  0
ARC
  5
16F9
  8
0
 10
55.43020788254853
 20
34.784471267555723
 30
0.0
 40
11.00000000000024
 50
0.0000000000026462
 51
64.416998022601305
  0
LINE
  5
16FA
  8
0
 10
50.00755815173784
 20
68.784471267556199
 30
0.0
 11
50.680207882548189
 21
67.619407758095207
 31
0.0
  0
LINE
  5
16FB
  8
0
 10
60.180207882548189
 20
67.619407758095207
 30
0.0
 11
60.85285761335853
 21
68.784471267556199
 31
0.0
  0
LINE
  5
16FC
  8
0
 10
61.430207882548189
 20
105.2844712675562
 30
0.0
 11
61.430207882548189
 21
133.7109712675562
 31
0.0
  0
LINE
  5
16FD
  8
0
 10
49.430207882548189
 20
133.7109712675562
 30
0.0
 11
49.430207882548189
 21
105.2844712675562
 31
0.0
  0
LINE
  5
16FE
  8
0
 10
61.430207882548189
 20
133.7109712675562
 30
0.0
 11
60.356707882548221
 21
134.7844712675562
 31
0.0
  0
LINE
  5
16FF
  8
0
 10
50.503707882548163
 20
134.7844712675562
 30
0.0
 11
49.430207882548189
 21
133.7109712675562
 31
0.0
  0
LINE
  5
1700
  8
0
 10
60.180207882548189
 20
44.706038684048188
 30
0.0
 11
60.180207882548189
 21
67.619407758095207
 31
0.0
  0
LINE
  5
1701
  8
0
 10
50.680207882548189
 20
67.619407758095207
 30
0.0
 11
50.680207882548189
 21
44.706038684048188
 31
0.0
  0
LINE
  5
1702
  8
0
 10
42.930207882547947
 20
59.784471267556221
 30
0.0
 11
42.930207882547947
 21
53.784471267556199
 31
0.0
  0
LINE
  5
1703
  8
0
 10
67.930207882547961
 20
53.784471267556199
 30
0.0
 11
67.930207882547961
 21
59.784471267556221
 31
0.0
  0
LINE
  5
1704
  8
0
 10
46.430207882547961
 20
66.784471267556228
 30
0.0
 11
46.430207882547961
 21
59.784471267556221
 31
0.0
  0
LINE
  5
1705
  8
0
 10
64.430207882547961
 20
59.784471267556221
 30
0.0
 11
64.430207882547961
 21
66.784471267556228
 31
0.0
  0
LINE
  5
1706
  8
0
 10
49.430207882547961
 20
68.784471267556199
 30
0.0
 11
50.296233286332843
 21
68.284471267556
 31
0.0
  0
LINE
  5
1707
  8
0
 10
60.564182478763769
 20
68.284471267556398
 30
0.0
 11
61.430207882547961
 21
68.784471267556199
 31
0.0
  0
POLYLINE
  5
1708
  8
0
 66
     1
 10
0.0
 20
0.0
 30
0.0
 70
   128
  0
VERTEX
  5
2ED6
  8
0
 10
67.334534336859178
 20
88.784471267556214
 30
0.0
  0
VERTEX
  5
2ED7
  8
0
 10
67.770358836294008
 20
88.977001328226379
 30
0.0
  0
VERTEX
  5
2ED8
  8
0
 10
68.430207882548174
 20
89.284471267556228
 30
0.0
  0
SEQEND
  5
2ED9
  8
0
  0
POLYLINE
  5
1709
  8
0
 66
     1
 10
0.0
 20
0.0
 30
0.0
 70
   128
  0
VERTEX
  5
2EDA
  8
0
 10
42.430207882548189
 20
89.284471267556228
 30
0.0
  0
VERTEX
  5
2EDB
  8
0
 10
43.090056928802262
 20
88.977001328226379
 30
0.0
  0
VERTEX
  5
2EDC
  8
0
 10
43.525881428237192
 20
88.784471267556214
 30
0.0
  0
SEQEND
  5
2EDD
  8
0
  0
LINE
  5
170A
  8
0
 10
42.430207882548189
 20
92.284471267556228
 30
0.0
 11
42.430207882548189
 21
89.284471267556228
 31
0.0
  0
LINE
  5
170B
  8
0
 10
68.430207882548174
 20
89.284471267556228
 30
0.0
 11
68.430207882548174
 21
92.284471267556228
 31
0.0
  0
LINE
  5
170C
  8
0
 10
64.930207882548189
 20
104.9957961329613
 30
0.0
 11
64.430207882548189
 21
105.2844712675562
 31
0.0
  0
LINE
  5
170D
  8
0
 10
46.430207882548181
 20
105.2844712675562
 30
0.0
 11
45.930207882548181
 21
104.9957961329613
 31
0.0
  0
LINE
  5
170E
  8
0
 10
68.430207882548174
 20
88.284471267556228
 30
0.0
 11
67.930207882548189
 21
88.784471267556214
 31
0.0
  0
LINE
  5
170F
  8
0
 10
42.930207882548189
 20
88.784471267556214
 30
0.0
 11
42.430207882548189
 21
88.284471267556228
 31
0.0
  0
LINE
  5
1710
  8
0
 10
68.430207882548174
 20
85.284471267556199
 30
0.0
 11
68.430207882548174
 21
88.284471267556228
 31
0.0
  0
LINE
  5
1711
  8
0
 10
42.430207882548189
 20
88.284471267556228
 30
0.0
 11
42.430207882548189
 21
85.284471267556199
 31
0.0
  0
LINE
  5
1712
  8
0
 10
42.430207882548189
 20
85.284471267556199
 30
0.0
 11
42.930207882548189
 21
84.784471267556199
 31
0.0
  0
LINE
  5
1713
  8
0
 10
67.930207882548189
 20
84.784471267556199
 30
0.0
 11
68.430207882548174
 21
85.284471267556199
 31
0.0
  0
LINE
  5
1715
  8
0
 10
44.495853763534107
 20
31.184471267556209
 30
0.0
 11
44.430207882548189
 21
31.184471267556209
 31
0.0
  0
POLYLINE
  5
1716
  8
0
 66
     1
 10
0.0
 20
0.0
 30
0.0
 70
   128
  0
VERTEX
  5
2EDE
  8
0
 10
44.495853763534107
 20
31.184471267556209
 30
0.0
  0
VERTEX
  5
2EDF
  8
0
 10
44.587559909650963
 20
30.43375992557586
 30
0.0
  0
VERTEX
  5
2EE0
  8
0
 10
44.99585989429999
 20
29.468622878738671
 30
0.0
  0
VERTEX
  5
2EE1
  8
0
 10
45.724837262332457
 20
28.597975083541709
 30
0.0
  0
VERTEX
  5
2EE2
  8
0
 10
46.423582103750498
 20
28.068804836753429
 30
0.0
  0
VERTEX
  5
2EE3
  8
0
 10
47.219875265744463
 20
27.646773164627628
 30
0.0
  0
VERTEX
  5
2EE4
  8
0
 10
48.565889615836682
 20
27.195107994341161
 30
0.0
  0
VERTEX
  5
2EE5
  8
0
 10
49.998658273675908
 20
26.939564491055108
 30
0.0
  0
VERTEX
  5
2EE6
  8
0
 10
51.927900600384419
 20
26.80593720712778
 30
0.0
  0
VERTEX
  5
2EE7
  8
0
 10
53.870688725882701
 20
26.784471267556231
 30
0.0
  0
SEQEND
  5
2EE8
  8
0
  0
LINE
  5
1717
  8
0
 10
66.430207882548189
 20
26.784471267556231
 30
0.0
 11
44.430207882548189
 21
26.784471267556231
 31
0.0
  0
LINE
  5
1718
  8
0
 10
44.430207882548189
 20
26.784471267556231
 30
0.0
 11
44.430207882548132
 21
34.784471267556228
 31
0.0
  0
POLYLINE
  5
171A
  8
0
 66
     1
 10
0.0
 20
0.0
 30
0.0
 70
   128
  0
VERTEX
  5
2EE9
  8
0
 10
56.98972703921379
 20
26.784471267556231
 30
0.0
  0
VERTEX
  5
2EEA
  8
0
 10
59.135786885436012
 20
26.81267401754133
 30
0.0
  0
VERTEX
  5
2EEB
  8
0
 10
61.28184673165822
 20
26.99656308337401
 30
0.0
  0
VERTEX
  5
2EEC
  8
0
 10
62.714163048722178
 20
27.308778816605699
 30
0.0
  0
VERTEX
  5
2EED
  8
0
 10
64.107873139035974
 20
27.87607401978099
 30
0.0
  0
VERTEX
  5
2EEE
  8
0
 10
65.271180751971428
 20
28.726692133624539
 30
0.0
  0
VERTEX
  5
2EEF
  8
0
 10
65.735370325961867
 20
29.272834138268959
 30
0.0
  0
VERTEX
  5
2EF0
  8
0
 10
66.099617945990303
 20
29.919921220391451
 30
0.0
  0
VERTEX
  5
2EF1
  8
0
 10
66.356601623113875
 20
30.962334428706072
 30
0.0
  0
VERTEX
  5
2EF2
  8
0
 10
66.364562001562263
 20
31.184471267556209
 30
0.0
  0
SEQEND
  5
2EF3
  8
0
  0
LINE
  5
171B
  8
0
 10
66.430207882548189
 20
31.184471267556209
 30
0.0
 11
66.364562001562263
 21
31.184471267556209
 31
0.0
  0
LINE
  5
171E
  8
0
 10
44.495853763534107
 20
34.784471267556228
 30
0.0
 11
44.495853763534107
 21
31.184471267556209
 31
0.0
  0
LINE
  5
171F
  8
0
 10
66.430207882548757
 20
34.784471267555723
 30
0.0
 11
44.430207882548189
 21
34.784471267555723
 31
0.0
  0
LINE
  5
1720
  8
0
 10
66.364562001562263
 20
31.184471267556209
 30
0.0
 11
66.364562001562263
 21
34.784471267556228
 31
0.0
  0
LINE
  5
1724
  8
0
 10
66.430207882548189
 20
34.784471267556228
 30
0.0
 11
66.430207882548189
 21
26.784471267556231
 31
0.0
  0
LINE
  5
1725
  8
0
 10
60.180207882548189
 20
44.706038684048188
 30
0.0
 11
50.680207882548189
 21
44.706038684048188
 31
0.0
  0
ARC
  5
1727
  8
0
 10
55.430207882548643
 20
34.784471267555723
 30
0.0
 40
8.6068286842488533
 50
0.0000000000034604
 51
179.9999999999965
  0
LINE
  5
1728
  8
0
 10
55.430207882548189
 20
67.619407758095207
 30
0.0
 11
50.680207882548189
 21
67.619407758095207
 31
0.0
  0
LINE
  5
1729
  8
0
 10
60.180207882548189
 20
67.619407758095207
 30
0.0
 11
55.430207882548189
 21
67.619407758095207
 31
0.0
  0
LINE
  5
172B
  8
0
 10
61.430207882548189
 20
133.7109712675562
 30
0.0
 11
49.430207882548189
 21
133.7109712675562
 31
0.0
  0
LINE
  5
172D
  8
0
 10
60.356707882548221
 20
134.7844712675562
 30
0.0
 11
50.503707882548269
 21
134.7844712675562
 31
0.0
  0
LINE
  5
172E
  8
0
 10
42.930207882547947
 20
53.784471267556199
 30
0.0
 11
50.680207882548189
 21
53.784471267556199
 31
0.0
  0
LINE
  5
172F
  8
0
 10
60.180207882548189
 20
53.784471267556199
 30
0.0
 11
67.930207882547961
 21
53.784471267556199
 31
0.0
  0
LINE
  5
1730
  8
0
 10
42.930207882547947
 20
59.784471267556221
 30
0.0
 11
50.680207882548189
 21
59.784471267556221
 31
0.0
  0
LINE
  5
1731
  8
0
 10
60.180207882548189
 20
59.784471267556221
 30
0.0
 11
67.930207882547961
 21
59.784471267556221
 31
0.0
  0
LINE
  5
1732
  8
0
 10
46.430207882547961
 20
66.784471267556228
 30
0.0
 11
50.680207882548189
 21
66.784471267556228
 31
0.0
  0
LINE
  5
1733
  8
0
 10
60.180207882548189
 20
66.784471267556228
 30
0.0
 11
64.430207882547961
 21
66.784471267556228
 31
0.0
  0
LINE
  5
1734
  8
0
 10
42.430207882548189
 20
89.284471267556228
 30
0.0
 11
68.430207882548174
 21
89.284471267556228
 31
0.0
  0
LINE
  5
1735
  8
0
 10
42.430207882548189
 20
92.284471267556228
 30
0.0
 11
68.430207882548174
 21
92.284471267556228
 31
0.0
  0
LINE
  5
1736
  8
0
 10
46.430207882548181
 20
105.2844712675562
 30
0.0
 11
64.430207882548189
 21
105.2844712675562
 31
0.0
  0
ARC
  5
1737
  8
0
 10
50.680207882548189
 20
91.0242250767418
 30
0.0
 40
13.95626534385427
 50
70.101865707357135
 51
109.89813429264279
  0
ARC
  5
173A
  8
0
 10
60.180207882548189
 20
91.024225076741914
 30
0.0
 40
13.95626534385419
 50
70.101865707357135
 51
109.89813429264279
  0
LINE
  5
173B
  8
0
 10
45.930207882548181
 20
92.284471267556228
 30
0.0
 11
45.930207882548181
 21
104.9957961329613
 31
0.0
  0
LINE
  5
173C
  8
0
 10
55.430207882548189
 20
92.284471267556228
 30
0.0
 11
55.430207882548189
 21
104.1472903569295
 31
0.0
  0
LINE
  5
173D
  8
0
 10
64.930207882548189
 20
92.284471267556228
 30
0.0
 11
64.930207882548189
 21
104.9957961329613
 31
0.0
  0
LINE
  5
173E
  8
0
 10
68.430207882548174
 20
88.284471267556228
 30
0.0
 11
42.430207882548189
 21
88.284471267556228
 31
0.0
  0
LINE
  5
173F
  8
0
 10
42.930207882548189
 20
88.784471267556214
 30
0.0
 11
67.930207882548189
 21
88.784471267556214
 31
0.0
  0
LINE
  5
1741
  8
0
 10
42.430207882548189
 20
85.284471267556199
 30
0.0
 11
68.430207882548174
 21
85.284471267556199
 31
0.0
  0
LINE
  5
174D
  8
3
 10
60.555207882548068
 20
134.5859712675564
 30
0.0
 11
60.555207882547847
 21
105.2844712675561
 31
0.0
  0
LINE
  5
174E
  8
3
 10
50.305207882547897
 20
134.585971267556
 30
0.0
 11
50.305207882547961
 21
105.2844712675561
 31
0.0
  0
LINE
  5
174F
  8
1
 10
55.430207882548189
 20
139.78447126755631
 30
0.0
 11
55.430207882548189
 21
21.784471267556231
 31
0.0
  0
ARC
  5
17A2
  8
0
 10
267.43020788254779
 20
34.784471267555723
 30
0.0
 40
11.00000000000021
 50
115.5830019773986
 51
179.9999999999973
  0
ARC
  5
17A3
  8
0
 10
267.43020788254779
 20
34.784471267555723
 30
0.0
 40
11.00000000000043
 50
0.0000000000026462
 51
64.416998022600964
  0
LINE
  5
17A4
  8
0
 10
273.4302078825483
 20
133.7109712675562
 30
0.0
 11
272.35670788254828
 21
134.7844712675562
 31
0.0
  0
LINE
  5
17A5
  8
0
 10
262.50370788254833
 20
134.7844712675562
 30
0.0
 11
261.4302078825483
 21
133.7109712675562
 31
0.0
  0
LINE
  5
17A6
  8
0
 10
262.29623328633278
 20
68.284471267556256
 30
0.0
 11
262.6802078825483
 21
67.619407758095207
 31
0.0
  0
LINE
  5
17A7
  8
0
 10
272.1802078825483
 20
67.619407758095207
 30
0.0
 11
272.56418247876383
 21
68.284471267556142
 31
0.0
  0
LINE
  5
17A8
  8
0
 10
273.4302078825483
 20
117.7844712675563
 30
0.0
 11
273.4302078825483
 21
133.7109712675562
 31
0.0
  0
LINE
  5
17A9
  8
0
 10
261.4302078825483
 20
133.7109712675562
 30
0.0
 11
261.4302078825483
 21
117.7844712675561
 31
0.0
  0
LINE
  5
17AA
  8
0
 10
272.1802078825483
 20
44.706038684048188
 30
0.0
 11
272.1802078825483
 21
53.784471267556199
 31
0.0
  0
LINE
  5
17AB
  8
0
 10
272.1802078825483
 20
66.784471267556228
 30
0.0
 11
272.1802078825483
 21
67.619407758095207
 31
0.0
  0
LINE
  5
17AC
  8
0
 10
262.6802078825483
 20
67.619407758095207
 30
0.0
 11
262.6802078825483
 21
66.784471267556228
 31
0.0
  0
LINE
  5
17AD
  8
0
 10
262.6802078825483
 20
53.784471267556199
 30
0.0
 11
262.6802078825483
 21
44.706038684048188
 31
0.0
  0
LINE
  5
17AE
  8
0
 10
254.9302078825485
 20
59.784471267556221
 30
0.0
 11
254.9302078825485
 21
53.784471267556199
 31
0.0
  0
LINE
  5
17AF
  8
0
 10
279.93020788254847
 20
53.784471267556199
 30
0.0
 11
279.93020788254847
 21
59.784471267556221
 31
0.0
  0
LINE
  5
17B0
  8
0
 10
258.43020788254847
 20
66.784471267556228
 30
0.0
 11
258.43020788254847
 21
59.784471267556221
 31
0.0
  0
LINE
  5
17B1
  8
0
 10
276.43020788254847
 20
59.784471267556221
 30
0.0
 11
276.43020788254847
 21
66.784471267556228
 31
0.0
  0
LINE
  5
17B2
  8
0
 10
273.43020788254847
 20
117.7844712675562
 30
0.0
 11
272.85285761335882
 21
118.7844712675562
 31
0.0
  0
LINE
  5
17B3
  8
0
 10
262.00755815173812
 20
118.7844712675562
 30
0.0
 11
261.43020788254847
 21
117.7844712675562
 31
0.0
  0
LINE
  5
17B4
  8
0
 10
261.43020788254847
 20
68.784471267556199
 30
0.0
 11
263.83020788254839
 21
67.398830621501133
 31
0.0
  0
LINE
  5
17B5
  8
0
 10
271.03020788254838
 20
67.398830621501133
 30
0.0
 11
273.43020788254847
 21
68.784471267556199
 31
0.0
  0
LINE
  5
17B6
  8
0
 10
261.43020788254847
 20
117.7844712675562
 30
0.0
 11
261.43020788254847
 21
84.784471267556199
 31
0.0
  0
LINE
  5
17B7
  8
0
 10
261.43020788254847
 20
73.784471267556199
 30
0.0
 11
261.43020788254847
 21
68.784471267556199
 31
0.0
  0
LINE
  5
17B8
  8
0
 10
273.43020788254847
 20
68.784471267556199
 30
0.0
 11
273.43020788254847
 21
73.784471267556199
 31
0.0
  0
LINE
  5
17B9
  8
0
 10
273.43020788254847
 20
84.784471267556199
 30
0.0
 11
273.43020788254847
 21
117.7844712675562
 31
0.0
  0
LINE
  5
17BA
  8
0
 10
271.03020788254838
 20
66.784471267556228
 30
0.0
 11
271.03020788254838
 21
67.398830621501133
 31
0.0
  0
LINE
  5
17BB
  8
0
 10
263.83020788254839
 20
67.398830621501133
 30
0.0
 11
263.83020788254839
 21
66.784471267556228
 31
0.0
  0
LINE
  5
17BC
  8
0
 10
254.4302078825483
 20
92.284471267556228
 30
0.0
 11
254.4302078825483
 21
89.284471267556228
 31
0.0
  0
LINE
  5
17BD
  8
0
 10
280.4302078825483
 20
89.284471267556228
 30
0.0
 11
280.4302078825483
 21
92.284471267556228
 31
0.0
  0
POLYLINE
  5
17BE
  8
0
 66
     1
 10
0.0
 20
0.0
 30
0.0
 70
   128
  0
VERTEX
  5
2EF4
  8
0
 10
279.33453433685941
 20
88.784471267556214
 30
0.0
  0
VERTEX
  5
2EF5
  8
0
 10
279.77035883629418
 20
88.977001328226351
 30
0.0
  0
VERTEX
  5
2EF6
  8
0
 10
280.4302078825483
 20
89.284471267556228
 30
0.0
  0
SEQEND
  5
2EF7
  8
0
  0
POLYLINE
  5
17BF
  8
0
 66
     1
 10
0.0
 20
0.0
 30
0.0
 70
   128
  0
VERTEX
  5
2EF8
  8
0
 10
254.4302078825483
 20
89.284471267556228
 30
0.0
  0
VERTEX
  5
2EF9
  8
0
 10
255.0900569288026
 20
88.977001328226379
 30
0.0
  0
VERTEX
  5
2EFA
  8
0
 10
255.5258814282374
 20
88.784471267556214
 30
0.0
  0
SEQEND
  5
2EFB
  8
0
  0
LINE
  5
17C0
  8
0
 10
276.9302078825483
 20
104.9957961329613
 30
0.0
 11
276.4302078825483
 21
105.2844712675562
 31
0.0
  0
LINE
  5
17C1
  8
0
 10
258.4302078825483
 20
105.2844712675562
 30
0.0
 11
257.9302078825483
 21
104.9957961329613
 31
0.0
  0
LINE
  5
17C2
  8
0
 10
280.4302078825483
 20
85.284471267556171
 30
0.0
 11
280.4302078825483
 21
88.284471267556228
 31
0.0
  0
LINE
  5
17C3
  8
0
 10
254.4302078825483
 20
88.284471267556228
 30
0.0
 11
254.4302078825483
 21
85.284471267556171
 31
0.0
  0
LINE
  5
17C4
  8
0
 10
280.4302078825483
 20
88.284471267556228
 30
0.0
 11
279.9302078825483
 21
88.784471267556214
 31
0.0
  0
LINE
  5
17C5
  8
0
 10
254.9302078825483
 20
88.784471267556214
 30
0.0
 11
254.4302078825483
 21
88.284471267556228
 31
0.0
  0
LINE
  5
17C6
  8
0
 10
254.4302078825483
 20
85.284471267556171
 30
0.0
 11
254.9302078825483
 21
84.784471267556199
 31
0.0
  0
LINE
  5
17C7
  8
0
 10
279.9302078825483
 20
84.784471267556199
 30
0.0
 11
280.4302078825483
 21
85.284471267556171
 31
0.0
  0
LINE
  5
17CC
  8
0
 10
256.4958537635344
 20
31.184471267556209
 30
0.0
 11
256.4302078825483
 21
31.184471267556209
 31
0.0
  0
POLYLINE
  5
17CD
  8
0
 66
     1
 10
0.0
 20
0.0
 30
0.0
 70
   128
  0
VERTEX
  5
2EFC
  8
0
 10
256.4958537635344
 20
31.184471267556209
 30
0.0
  0
VERTEX
  5
2EFD
  8
0
 10
256.58755990965119
 20
30.43375992557586
 30
0.0
  0
VERTEX
  5
2EFE
  8
0
 10
256.99585989430011
 20
29.468622878738671
 30
0.0
  0
VERTEX
  5
2EFF
  8
0
 10
257.72483726233258
 20
28.597975083541709
 30
0.0
  0
VERTEX
  5
2F00
  8
0
 10
258.42358210375068
 20
28.068804836753429
 30
0.0
  0
VERTEX
  5
2F01
  8
0
 10
259.21987526574458
 20
27.646773164627628
 30
0.0
  0
VERTEX
  5
2F02
  8
0
 10
260.5658896158368
 20
27.195107994341161
 30
0.0
  0
VERTEX
  5
2F03
  8
0
 10
261.99865827367603
 20
26.939564491055108
 30
0.0
  0
VERTEX
  5
2F04
  8
0
 10
263.92790060038459
 20
26.80593720712778
 30
0.0
  0
VERTEX
  5
2F05
  8
0
 10
265.8706887258827
 20
26.784471267556231
 30
0.0
  0
SEQEND
  5
2F06
  8
0
  0
POLYLINE
  5
17CF
  8
0
 66
     1
 10
0.0
 20
0.0
 30
0.0
 70
   128
  0
VERTEX
  5
2F07
  8
0
 10
268.9897270392139
 20
26.784471267556231
 30
0.0
  0
VERTEX
  5
2F08
  8
0
 10
271.13578688543612
 20
26.81267401754133
 30
0.0
  0
VERTEX
  5
2F09
  8
0
 10
273.28184673165828
 20
26.99656308337401
 30
0.0
  0
VERTEX
  5
2F0A
  8
0
 10
274.71416304872241
 20
27.308778816605699
 30
0.0
  0
VERTEX
  5
2F0B
  8
0
 10
276.10787313903597
 20
27.87607401978099
 30
0.0
  0
VERTEX
  5
2F0C
  8
0
 10
277.2711807519716
 20
28.726692133624539
 30
0.0
  0
VERTEX
  5
2F0D
  8
0
 10
277.73537032596209
 20
29.272834138268959
 30
0.0
  0
VERTEX
  5
2F0E
  8
0
 10
278.09961794599047
 20
29.919921220391451
 30
0.0
  0
VERTEX
  5
2F0F
  8
0
 10
278.35660162311387
 20
30.962334428706072
 30
0.0
  0
VERTEX
  5
2F10
  8
0
 10
278.36456200156249
 20
31.184471267556209
 30
0.0
  0
SEQEND
  5
2F11
  8
0
  0
LINE
  5
17D0
  8
0
 10
278.4302078825483
 20
31.184471267556209
 30
0.0
 11
278.36456200156249
 21
31.184471267556209
 31
0.0
  0
LINE
  5
17D2
  8
0
 10
256.43020788254819
 20
26.784471267556199
 30
0.0
 11
278.4302078825483
 21
26.784471267556231
 31
0.0
  0
LINE
  5
17D3
  8
0
 10
256.4958537635344
 20
34.784471267556228
 30
0.0
 11
256.4958537635344
 21
31.184471267556209
 31
0.0
  0
LINE
  5
17D4
  8
0
 10
278.4302078825483
 20
34.784471267556228
 30
0.0
 11
256.43020788254847
 21
34.784471267556228
 31
0.0
  0
LINE
  5
17D5
  8
0
 10
278.36456200156249
 20
31.184471267556209
 30
0.0
 11
278.36456200156249
 21
34.784471267556228
 31
0.0
  0
LINE
  5
17D7
  8
0
 10
278.4302078825483
 20
34.784471267556228
 30
0.0
 11
278.4302078825483
 21
26.784471267556231
 31
0.0
  0
LINE
  5
17D9
  8
0
 10
256.4302078825483
 20
26.784471267556199
 30
0.0
 11
256.4302078825483
 21
34.784471267556228
 31
0.0
  0
LINE
  5
17DA
  8
0
 10
272.1802078825483
 20
44.706038684048188
 30
0.0
 11
262.6802078825483
 21
44.706038684048188
 31
0.0
  0
ARC
  5
17DB
  8
0
 10
267.43020788254779
 20
34.784471267555723
 30
0.0
 40
8.6068286842488533
 50
0.0000000000034604
 51
179.99999999999261
  0
LINE
  5
17DC
  8
0
 10
273.4302078825483
 20
133.7109712675562
 30
0.0
 11
261.4302078825483
 21
133.7109712675562
 31
0.0
  0
LINE
  5
17DD
  8
0
 10
272.35670788254828
 20
134.7844712675562
 30
0.0
 11
262.50370788254833
 21
134.7844712675562
 31
0.0
  0
LINE
  5
17DE
  8
0
 10
272.1802078825483
 20
67.619407758095207
 30
0.0
 11
271.41225869011743
 21
67.619407758095207
 31
0.0
  0
LINE
  5
17DF
  8
0
 10
263.44815707497952
 20
67.619407758095207
 30
0.0
 11
262.6802078825483
 21
67.619407758095207
 31
0.0
  0
LINE
  5
17E0
  8
0
 10
254.9302078825485
 20
59.784471267556221
 30
0.0
 11
279.93020788254847
 21
59.784471267556221
 31
0.0
  0
LINE
  5
17E1
  8
0
 10
254.9302078825485
 20
53.784471267556199
 30
0.0
 11
279.93020788254847
 21
53.784471267556199
 31
0.0
  0
LINE
  5
17E2
  8
0
 10
258.43020788254847
 20
66.784471267556228
 30
0.0
 11
276.43020788254847
 21
66.784471267556228
 31
0.0
  0
LINE
  5
17E3
  8
0
 10
262.00755815173812
 20
118.7844712675562
 30
0.0
 11
272.85285761335882
 21
118.7844712675562
 31
0.0
  0
LINE
  5
17E4
  8
0
 10
273.43020788254847
 20
117.7844712675562
 30
0.0
 11
261.43020788254847
 21
117.7844712675562
 31
0.0
  0
LINE
  5
17E6
  8
0
 10
271.03020788254838
 20
67.398830621501133
 30
0.0
 11
263.83020788254839
 21
67.398830621501133
 31
0.0
  0
LINE
  5
17E7
  8
0
 10
254.4302078825483
 20
92.284471267556228
 30
0.0
 11
261.4302078825483
 21
92.284471267556228
 31
0.0
  0
LINE
  5
17E8
  8
0
 10
273.4302078825483
 20
92.284471267556228
 30
0.0
 11
280.4302078825483
 21
92.284471267556228
 31
0.0
  0
LINE
  5
17E9
  8
0
 10
254.4302078825483
 20
89.284471267556228
 30
0.0
 11
261.43020788254847
 21
89.284471267556228
 31
0.0
  0
LINE
  5
17EA
  8
0
 10
273.43020788254847
 20
89.284471267556228
 30
0.0
 11
280.4302078825483
 21
89.284471267556228
 31
0.0
  0
LINE
  5
17EB
  8
0
 10
258.4302078825483
 20
105.2844712675562
 30
0.0
 11
261.4302078825483
 21
105.2844712675562
 31
0.0
  0
LINE
  5
17EC
  8
0
 10
273.4302078825483
 20
105.2844712675562
 30
0.0
 11
276.4302078825483
 21
105.2844712675562
 31
0.0
  0
POLYLINE
  5
17EE
  8
0
 66
     1
 10
0.0
 20
0.0
 30
0.0
 70
   128
  0
VERTEX
  5
2F12
  8
0
 10
276.9302078825483
 20
104.1472903569295
 30
0.0
  0
VERTEX
  5
2F13
  8
0
 10
274.44207683513082
 20
104.7922905558295
 30
0.0
  0
VERTEX
  5
2F14
  8
0
 10
273.43020788254847
 20
104.92196335079851
 30
0.0
  0
SEQEND
  5
2F15
  8
0
  0
POLYLINE
  5
17EF
  8
0
 66
     1
 10
0.0
 20
0.0
 30
0.0
 70
   128
  0
VERTEX
  5
2F16
  8
0
 10
261.43020788254847
 20
104.8870255016858
 30
0.0
  0
VERTEX
  5
2F17
  8
0
 10
260.13283223894769
 20
104.7389002684007
 30
0.0
  0
VERTEX
  5
2F18
  8
0
 10
257.9302078825483
 20
104.1472903569295
 30
0.0
  0
SEQEND
  5
2F19
  8
0
  0
LINE
  5
17F1
  8
0
 10
276.9302078825483
 20
92.284471267556228
 30
0.0
 11
276.9302078825483
 21
104.9957961329613
 31
0.0
  0
LINE
  5
17F2
  8
0
 10
257.9302078825483
 20
92.284471267556228
 30
0.0
 11
257.9302078825483
 21
104.9957961329613
 31
0.0
  0
LINE
  5
17F3
  8
0
 10
261.43020788254847
 20
88.284471267556228
 30
0.0
 11
254.4302078825483
 21
88.284471267556228
 31
0.0
  0
LINE
  5
17F4
  8
0
 10
280.4302078825483
 20
88.284471267556228
 30
0.0
 11
273.43020788254847
 21
88.284471267556228
 31
0.0
  0
LINE
  5
17F5
  8
0
 10
254.4302078825483
 20
85.284471267556171
 30
0.0
 11
261.43020788254847
 21
85.284471267556171
 31
0.0
  0
LINE
  5
17F6
  8
0
 10
273.43020788254847
 20
85.284471267556171
 30
0.0
 11
280.4302078825483
 21
85.284471267556171
 31
0.0
  0
LINE
  5
17F7
  8
0
 10
273.4302078825483
 20
88.784471267556214
 30
0.0
 11
279.9302078825483
 21
88.784471267556214
 31
0.0
  0
LINE
  5
17F8
  8
0
 10
254.9302078825483
 20
88.784471267556214
 30
0.0
 11
261.4302078825483
 21
88.784471267556214
 31
0.0
  0
LINE
  5
2017
  8
1
 10
141.4302078825483
 20
188.4483752015291
 30
0.0
 11
141.4302078825483
 21
207.4483752015291
 31
0.0
  0
LINE
  5
2018
  8
1
 10
166.43020788254839
 20
181.94837520152899
 30
0.0
 11
166.43020788254839
 21
213.94837520152899
 31
0.0
  0
LINE
  5
2019
  8
1
 10
190.4302078825483
 20
188.94837520152899
 30
0.0
 11
190.4302078825483
 21
206.9483752015291
 31
0.0
  0
LINE
  5
2025
  8
3
 10
195.55520788254839
 20
68.784471267556171
 30
0.0
 11
195.55520788254839
 21
68.279289782015326
 31
0.0
  0
LINE
  5
2026
  8
3
 10
185.30520788254839
 20
68.784471267556171
 30
0.0
 11
185.30520788254839
 21
68.279289782015326
 31
0.0
  0
LINE
  5
2027
  8
3
 10
171.55520788254839
 20
68.784471267556199
 30
0.0
 11
171.55520788254839
 21
68.268926810933493
 31
0.0
  0
LINE
  5
2028
  8
3
 10
161.30520788254839
 20
68.784471267556199
 30
0.0
 11
161.30520788254839
 21
68.268926810933493
 31
0.0
  0
LINE
  5
2032
  8
3
 10
60.555207882547961
 20
68.784471267556228
 30
0.0
 11
60.555207882547961
 21
68.279289782015326
 31
0.0
  0
LINE
  5
2033
  8
3
 10
50.305207882547961
 20
68.784471267556228
 30
0.0
 11
50.305207882547961
 21
68.279289782015326
 31
0.0
  0
LINE
  5
203E
  8
3
 10
272.5552078825483
 20
73.784471267556228
 30
0.0
 11
272.5552078825483
 21
68.279289782015326
 31
0.0
  0
LINE
  5
203F
  8
3
 10
262.30520788254819
 20
73.784471267556228
 30
0.0
 11
262.3052078825483
 21
68.279289782015326
 31
0.0
  0
LINE
  5
2040
  8
3
 10
272.55520788254842
 20
134.58597126755609
 30
0.0
 11
272.5552078825483
 21
84.784471267556199
 31
0.0
  0
LINE
  5
2041
  8
3
 10
262.30520788254842
 20
134.58597126755629
 30
0.0
 11
262.3052078825483
 21
84.784471267556199
 31
0.0
  0
LINE
  5
205E
  8
1
 10
267.43020788254819
 20
139.78447126755631
 30
0.0
 11
267.43020788254819
 21
21.784471267556231
 31
0.0
  0
LINE
  5
284D
  8
0
 10
133.55456353553049
 20
84.784471267556199
 30
0.0
 11
133.55456353553049
 21
68.784471267556199
 31
0.0
  0
LINE
  5
284E
  8
0
 10
199.4302078825483
 20
84.784471267556199
 30
0.0
 11
199.4302078825483
 21
68.784471267556199
 31
0.0
  0
LINE
  5
2851
  8
0
 10
121.4302078825483
 20
81.784471267556185
 30
0.0
 11
121.4302078825483
 21
68.784471267556199
 31
0.0
  0
LINE
  5
2852
  8
0
 10
126.6263603052556
 20
84.784471267556199
 30
0.0
 11
121.4302078825483
 21
81.784471267556185
 31
0.0
  0
LINE
  5
2853
  8
0
 10
121.4302078825483
 20
68.784471267556199
 30
0.0
 11
201.4302078825483
 21
68.784471267556199
 31
0.0
  0
LINE
  5
2854
  8
0
 10
126.6263603052556
 20
84.784471267556199
 30
0.0
 11
201.43020788254819
 21
84.784471267556199
 31
0.0
  0
LINE
  5
2855
  8
0
 10
201.4302078825483
 20
84.784471267556199
 30
0.0
 11
201.4302078825483
 21
68.784471267556199
 31
0.0
  0
LINE
  5
2874
  8
2
 10
166.43020788254839
 20
84.784471267556256
 30
0.0
 11
166.43020788254839
 21
73.784471267556256
 31
0.0
  0
LINE
  5
2875
  8
2
 10
166.43020788254839
 20
84.784471267556256
 30
0.0
 11
166.43020788254839
 21
73.784471267556256
 31
0.0
  0
LINE
  5
2876
  8
2
 10
201.4302078825483
 20
73.784471267556256
 30
0.0
 11
166.43020788254839
 21
73.784471267556256
 31
0.0
  0
LINE
  5
2889
  8
2
 10
134.93020788254839
 20
84.784471267556256
 30
0.0
 11
134.93020788254839
 21
68.784471267556256
 31
0.0
  0
LINE
  5
288A
  8
2
 10
172.9302078825483
 20
73.784471267556256
 30
0.0
 11
172.9302078825483
 21
84.784471267556256
 31
0.0
  0
ARC
  5
294B
  8
0
 10
141.43020788254839
 20
197.9483752015291
 30
0.0
 40
6.5
 50
90.0
 51
270.0
  0
LINE
  5
294C
  8
0
 10
155.1718776333507
 20
191.44837520152919
 30
0.0
 11
141.43020788254839
 21
191.4483752015291
 31
0.0
  0
LINE
  5
294D
  8
0
 10
141.43020788254839
 20
204.4483752015291
 30
0.0
 11
155.1718776333507
 21
204.44837520152919
 31
0.0
  0
LINE
  5
294E
  8
0
 10
201.4302078825483
 20
211.9483752015295
 30
0.0
 11
201.4302078825483
 21
183.9483752015295
 31
0.0
  0
LINE
  5
294F
  8
0
 10
199.4302078825483
 20
181.9483752015295
 30
0.0
 11
201.4302078825483
 21
183.9483752015295
 31
0.0
  0
LINE
  5
2950
  8
0
 10
133.55456353553049
 20
181.94837520152919
 30
0.0
 11
199.4302078825483
 21
181.9483752015295
 31
0.0
  0
LINE
  5
2951
  8
0
 10
126.6263603052556
 20
185.94837520152871
 30
0.0
 11
133.55456353553049
 21
181.94837520152919
 31
0.0
  0
LINE
  5
2952
  8
0
 10
126.6263603052556
 20
185.94837520152871
 30
0.0
 11
126.6263603052554
 21
209.9483752015293
 31
0.0
  0
LINE
  5
2953
  8
0
 10
126.6263603052554
 20
209.9483752015293
 30
0.0
 11
133.55456353553049
 21
213.9483752015293
 31
0.0
  0
LINE
  5
2954
  8
0
 10
199.4302078825483
 20
213.9483752015295
 30
0.0
 11
201.4302078825483
 21
211.9483752015295
 31
0.0
  0
LINE
  5
2955
  8
0
 10
133.55456353553049
 20
213.9483752015293
 30
0.0
 11
199.4302078825483
 21
213.9483752015295
 31
0.0
  0
LINE
  5
2956
  8
0
 10
126.6263603052556
 20
185.94837520152871
 30
0.0
 11
121.4302078825483
 21
188.94837520152899
 31
0.0
  0
LINE
  5
2957
  8
0
 10
121.4302078825483
 20
188.94837520152899
 30
0.0
 11
121.4302078825483
 21
206.94837520152899
 31
0.0
  0
LINE
  5
2958
  8
0
 10
126.6263603052554
 20
209.9483752015293
 30
0.0
 11
121.4302078825483
 21
206.94837520152899
 31
0.0
  0
ARC
  5
2961
  8
0
 10
190.4302078825483
 20
197.9483752015295
 30
0.0
 40
12.50000000000002
 50
331.64236342367428
 51
28.357636576327849
  0
ARC
  5
2981
  8
2
 10
166.43020788254839
 20
197.94837520152919
 30
0.0
 40
6.500000000000056
 50
270.0
 51
90.0
  0
LINE
  5
2983
  8
2
 10
201.4302078825483
 20
191.44837520152959
 30
0.0
 11
155.1718776333507
 21
191.44837520152919
 31
0.0
  0
LINE
  5
2984
  8
2
 10
201.4302078825483
 20
204.44837520152959
 30
0.0
 11
155.1718776333507
 21
204.44837520152919
 31
0.0
  0
LINE
  5
29CF
  8
0
 10
46.43020788254853
 20
81.784471267555915
 30
0.0
 11
46.43020788254853
 21
68.784471267556199
 31
0.0
  0
LINE
  5
29D1
  8
0
 10
39.430207882548189
 20
84.784471267556199
 30
0.0
 11
39.430207882548189
 21
68.784471267556199
 31
0.0
  0
LINE
  5
29D3
  8
0
 10
43.430207882548252
 20
84.784471267556199
 30
0.0
 11
46.43020788254853
 21
81.784471267555915
 31
0.0
  0
LINE
  5
29D4
  8
0
 10
67.430207882548757
 20
84.784471267556199
 30
0.0
 11
64.43020788254853
 21
81.784471267556185
 31
0.0
  0
LINE
  5
29D5
  8
0
 10
64.43020788254853
 20
81.784471267556185
 30
0.0
 11
46.43020788254853
 21
81.784471267555915
 31
0.0
  0
LINE
  5
29D7
  8
0
 10
64.43020788254853
 20
81.784471267556185
 30
0.0
 11
64.43020788254853
 21
68.784471267556199
 31
0.0
  0
LINE
  5
29D9
  8
0
 10
71.430207882548189
 20
84.784471267556199
 30
0.0
 11
71.430207882548189
 21
68.784471267556199
 31
0.0
  0
LINE
  5
29DA
  8
0
 10
39.430207882548189
 20
84.784471267556199
 30
0.0
 11
71.430207882548189
 21
84.784471267556199
 31
0.0
  0
LINE
  5
29DB
  8
0
 10
39.430207882548132
 20
68.784471267556199
 30
0.0
 11
71.430207882548189
 21
68.784471267556199
 31
0.0
  0
LINE
  5
2AC5
  8
0
 10
261.43020788254819
 20
73.784471267556199
 30
0.0
 11
261.43020788254819
 21
68.784471267556199
 31
0.0
  0
LINE
  5
2AC6
  8
0
 10
273.43020788254819
 20
68.784471267556199
 30
0.0
 11
273.43020788254819
 21
73.784471267556199
 31
0.0
  0
LINE
  5
2AEC
  8
0
 10
281.43020788254819
 20
84.784471267556199
 30
0.0
 11
281.43020788254819
 21
68.784471267556199
 31
0.0
  0
LINE
  5
2AEE
  8
0
 10
283.43020788254819
 20
84.784471267556199
 30
0.0
 11
283.43020788254819
 21
68.784471267556199
 31
0.0
  0
LINE
  5
2AF0
  8
0
 10
260.93020788254819
 20
73.784471267556199
 30
0.0
 11
260.93020788254819
 21
68.784471267556199
 31
0.0
  0
LINE
  5
2AF1
  8
0
 10
253.43020788254819
 20
84.784471267556199
 30
0.0
 11
253.43020788254819
 21
68.784471267556199
 31
0.0
  0
LINE
  5
2AF2
  8
0
 10
273.93020788254819
 20
73.784471267556199
 30
0.0
 11
273.93020788254819
 21
68.784471267556199
 31
0.0
  0
LINE
  5
2AF3
  8
0
 10
260.93020788254819
 20
73.784471267556199
 30
0.0
 11
273.93020788254819
 21
73.784471267556199
 31
0.0
  0
LINE
  5
2AF7
  8
0
 10
251.43020788254819
 20
84.784471267556199
 30
0.0
 11
251.43020788254819
 21
68.784471267556199
 31
0.0
  0
LINE
  5
2AF8
  8
0
 10
251.43020788254819
 20
84.784471267556199
 30
0.0
 11
283.43020788254819
 21
84.784471267556199
 31
0.0
  0
LINE
  5
2AF9
  8
0
 10
251.43020788254819
 20
68.784471267556199
 30
0.0
 11
283.43020788254819
 21
68.784471267556199
 31
0.0
  0
TEXT
  5
2E61
  8
0
 62
     3
 10
0.0
 20
0.0
 30
0.0
 40
10.0
  1
BJ153-12080B1-T
  7
STANDARD1
  0
ENDSEC
  0
EOF
