  0
SECTION
  2
HEADER
  9
$ACADVER
  1
AC1009
  9
$INSBASE
 10
82.638099999999994
 20
103.82319099999999
 30
0.0
  9
$EXTMIN
 10
0.0
 20
-2.960436562073669
 30
0.0
  9
$EXTMAX
 10
256.81142695246882
 20
218.79104167096699
 30
0.0
  9
$LIMMIN
 10
0.0
 20
0.0
  9
$LIMMAX
 10
375.0
 20
270.0
  9
$ORTHOMODE
 70
     1
  9
$REGENMODE
 70
     1
  9
$FILLMODE
 70
     1
  9
$QTEXTMODE
 70
     0
  9
$MIRRTEXT
 70
     0
  9
$DRAGMODE
 70
     2
  9
$LTSCALE
 40
10.0
  9
$OSMODE
 70
  3071
  9
$ATTMODE
 70
     1
  9
$TEXTSIZE
 40
0.06
  9
$TRACEWID
 40
0.05
  9
$TEXTSTYLE
  7
STANDARD
  9
$CLAYER
  8
0
  9
$CELTYPE
  6
BYLAYER
  9
$CECOLOR
 62
   256
  9
$DIMSCALE
 40
1.0
  9
$DIMASZ
 40
3.0
  9
$DIMEXO
 40
2.0
  9
$DIMDLI
 40
10.0
  9
$DIMRND
 40
0.0
  9
$DIMDLE
 40
0.0
  9
$DIMEXE
 40
2.0
  9
$DIMTP
 40
0.0
  9
$DIMTM
 40
0.0
  9
$DIMTXT
 40
3.0
  9
$DIMCEN
 40
0.0
  9
$DIMTSZ
 40
0.0
  9
$DIMTOL
 70
     0
  9
$DIMLIM
 70
     0
  9
$DIMTIH
 70
     0
  9
$DIMTOH
 70
     0
  9
$DIMSE1
 70
     0
  9
$DIMSE2
 70
     0
  9
$DIMTAD
 70
     1
  9
$DIMZIN
 70
     0
  9
$DIMBLK
  1

  9
$DIMASO
 70
     0
  9
$DIMSHO
 70
     0
  9
$DIMPOST
  1

  9
$DIMAPOST
  1

  9
$DIMALT
 70
     0
  9
$DIMALTD
 70
     2
  9
$DIMALTF
 40
25.399999999999999
  9
$DIMLFAC
 40
1.0
  9
$DIMTOFL
 70
     1
  9
$DIMTVP
 40
1.6000000000000001
  9
$DIMTIX
 70
     1
  9
$DIMSOXD
 70
     0
  9
$DIMSAH
 70
     0
  9
$DIMBLK1
  1

  9
$DIMBLK2
  1

  9
$DIMSTYLE
  2
STANDARD
  9
$DIMCLRD
 70
     0
  9
$DIMCLRE
 70
     0
  9
$DIMCLRT
 70
     0
  9
$DIMTFAC
 40
1.0
  9
$DIMGAP
 40
0.09
  9
$LUNITS
 70
     2
  9
$LUPREC
 70
     4
  9
$SKETCHINC
 40
0.1
  9
$FILLETRAD
 40
0.0
  9
$AUNITS
 70
     0
  9
$AUPREC
 70
     4
  9
$MENU
  1
E:\r13\win\SUPPORT\ACAD
  9
$ELEVATION
 40
0.0
  9
$PELEVATION
 40
0.0
  9
$THICKNESS
 40
0.0
  9
$LIMCHECK
 70
     0
  9
$BLIPMODE
 70
     0
  9
$CHAMFERA
 40
0.0
  9
$CHAMFERB
 40
0.0
  9
$SKPOLY
 70
     0
  9
$TDCREATE
 40
2449840.348113426
  9
$TDUPDATE
 40
2456597.636350533
  9
$TDINDWG
 40
0.061985625
  9
$TDUSRTIMER
 40
0.061985625
  9
$USRTIMER
 70
     1
  9
$ANGBASE
 50
0.0
  9
$ANGDIR
 70
     0
  9
$PDMODE
 70
     1
  9
$PDSIZE
 40
0.0
  9
$PLINEWID
 40
0.0
  9
$COORDS
 70
     1
  9
$SPLFRAME
 70
     0
  9
$SPLINETYPE
 70
     6
  9
$SPLINESEGS
 70
     8
  9
$ATTDIA
 70
     0
  9
$ATTREQ
 70
     1
  9
$HANDLING
 70
     1
  9
$HANDSEED
  5
24EB
  9
$SURFTAB1
 70
     6
  9
$SURFTAB2
 70
     6
  9
$SURFTYPE
 70
     6
  9
$SURFU
 70
     6
  9
$SURFV
 70
     6
  9
$UCSNAME
  2

  9
$UCSORG
 10
0.0
 20
0.0
 30
0.0
  9
$UCSXDIR
 10
1.0
 20
0.0
 30
0.0
  9
$UCSYDIR
 10
0.0
 20
1.0
 30
0.0
  9
$PUCSNAME
  2

  9
$PUCSORG
 10
0.0
 20
0.0
 30
0.0
  9
$PUCSXDIR
 10
1.0
 20
0.0
 30
0.0
  9
$PUCSYDIR
 10
0.0
 20
1.0
 30
0.0
  9
$USERI1
 70
     3
  9
$USERI2
 70
     1
  9
$USERI3
 70
     0
  9
$USERI4
 70
     0
  9
$USERI5
 70
     0
  9
$USERR1
 40
1.0
  9
$USERR2
 40
3.0
  9
$USERR3
 40
3.0
  9
$USERR4
 40
3.0
  9
$USERR5
 40
10.0
  9
$WORLDVIEW
 70
     1
  9
$SHADEDGE
 70
     3
  9
$SHADEDIF
 70
    70
  9
$TILEMODE
 70
     1
  9
$MAXACTVP
 70
    16
  9
$PLIMCHECK
 70
     0
  9
$PEXTMIN
 10
1.0000000000000000E+020
 20
1.0000000000000000E+020
 30
1.0000000000000000E+020
  9
$PEXTMAX
 10
-1.0000000000000000E+020
 20
-1.0000000000000000E+020
 30
-1.0000000000000000E+020
  9
$PLIMMIN
 10
0.0
 20
0.0
  9
$PLIMMAX
 10
12.0
 20
9.0
  9
$UNITMODE
 70
     0
  9
$VISRETAIN
 70
     0
  9
$PLINEGEN
 70
     0
  9
$PSLTSCALE
 70
     0
  0
ENDSEC
  0
SECTION
  2
TABLES
  0
TABLE
  2
VPORT
 70
     1
  0
VPORT
  2
*ACTIVE
 70
     0
 10
0.0
 20
0.0
 11
1.0
 21
1.0
 12
195.0581083320873
 22
133.5127261426681
 13
0.0
 23
0.0
 14
5.0
 24
5.0
 15
10.0
 25
10.0
 16
0.0
 26
0.0
 36
1.0
 17
0.0
 27
0.0
 37
0.0
 40
275.42274993631997
 41
1.831871345029239
 42
50.0
 43
0.0
 44
0.0
 50
0.0
 51
0.0
 71
     0
 72
   100
 73
     1
 74
     0
 75
     0
 76
     0
 77
     0
 78
     0
  0
ENDTAB
  0
TABLE
  2
LTYPE
 70
     4
  0
LTYPE
  2
CONTINUOUS
 70
     0
  3
Solid Line
 72
    65
 73
     0
 40
0.0
  0
LTYPE
  2
CENTER
 70
     0
  3
____ _ ____ _ ____ _ ____ _ ____ _ ____ _ ____
 72
    65
 73
     4
 40
2.0
 49
1.25
 49
-0.25
 49
0.25
 49
-0.25
  0
LTYPE
  2
HIDDEN
 70
     0
  3
__ __ __ __ __ __ __ __ __ __ __ __ __ __ __ __
 72
    65
 73
     2
 40
0.375
 49
0.25
 49
-0.125
  0
LTYPE
  2
PHANTOM2
 70
     0
  3
___ _ _ ___ _ _ ___ _ _ ___ _ _
 72
    65
 73
     6
 40
1.25
 49
0.625
 49
-0.125
 49
0.125
 49
-0.125
 49
0.125
 49
-0.125
  0
ENDTAB
  0
TABLE
  2
LAYER
 70
     5
  0
LAYER
  2
0
 70
     0
 62
     7
  6
CONTINUOUS
  0
LAYER
  2
1
 70
     0
 62
     1
  6
CENTER
  0
LAYER
  2
2
 70
     0
 62
     2
  6
HIDDEN
  0
LAYER
  2
3
 70
     0
 62
     3
  6
CONTINUOUS
  0
LAYER
  2
DEFPOINTS
 70
     0
 62
     7
  6
CONTINUOUS
  0
ENDTAB
  0
TABLE
  2
STYLE
 70
     2
  0
STYLE
  2
STANDARD
 70
     0
 40
0.0
 41
1.0
 50
0.0
 71
     0
 42
0.06
  3
TXT
  4
BIGFONT
  0
STYLE
  2
STANDARD1
 70
     0
 40
0.0
 41
1.0
 50
0.0
 71
     0
 42
3.0
  3
txt
  4

  0
ENDTAB
  0
TABLE
  2
VIEW
 70
     0
  0
ENDTAB
  0
TABLE
  2
UCS
 70
     0
  0
ENDTAB
  0
TABLE
  2
APPID
 70
     3
  0
APPID
  2
ACAD
 70
     0
  0
APPID
  2
ACAD_MLEADERVER
 70
     0
  0
APPID
  2
ACAD_NAV_VCDISPLAY
 70
     0
  0
ENDTAB
  0
TABLE
  2
DIMSTYLE
 70
     1
  0
DIMSTYLE
  2
STANDARD
 70
     0
  3

  4

  5

  6

  7

 40
1.0
 41
0.18
 42
0.0625
 43
0.38
 44
0.18
 45
0.0
 46
0.0
 47
0.0
 48
0.0
140
0.18
141
0.09
142
0.0
143
25.399999999999999
144
1.0
145
0.0
146
1.0
147
0.09
 71
     0
 72
     0
 73
     1
 74
     1
 75
     0
 76
     0
 77
     0
 78
     0
170
     0
171
     2
172
     0
173
     0
174
     0
175
     0
176
     0
177
     0
178
     0
  0
ENDTAB
  0
ENDSEC
  0
SECTION
  2
BLOCKS
  0
BLOCK
  8
0
  2
$MODEL_SPACE
 70
     0
 10
0.0
 20
0.0
 30
0.0
  3
$MODEL_SPACE
  1

  0
ENDBLK
  5
223
  8
0
  0
BLOCK
 67
     1
  8
0
  2
$PAPER_SPACE
 70
     0
 10
0.0
 20
0.0
 30
0.0
  3
$PAPER_SPACE
  1

  0
ENDBLK
  5
221
 67
     1
  8
0
  0
ENDSEC
  0
SECTION
  2
ENTITIES
  0
POLYLINE
  5
610
  8
0
 10
247.31142695246879
 20
72.615219495335623
 30
0.0
 66
     1
 70
     8
  0
VERTEX
  8
0
  5
23E7
 10
247.311
 20
72.6152
 30
0.000000
  70
    32
  0
VERTEX
  8
0
  5
23E8
 10
247.311
 20
72.6164
 30
0.000000
  70
    32
  0
VERTEX
  8
0
  5
23E9
 10
247.311
 20
72.6176
 30
0.000000
  70
    32
  0
VERTEX
  8
0
  5
23EA
 10
247.311
 20
72.6189
 30
0.000000
  70
    32
  0
VERTEX
  8
0
  5
23EB
 10
247.311
 20
72.6201
 30
0.000000
  70
    32
  0
VERTEX
  8
0
  5
23EC
 10
247.311
 20
72.6213
 30
0.000000
  70
    32
  0
VERTEX
  8
0
  5
23ED
 10
247.311
 20
72.6225
 30
0.000000
  70
    32
  0
VERTEX
  8
0
  5
23EE
 10
247.311
 20
72.6237
 30
0.000000
  70
    32
  0
VERTEX
  8
0
  5
23EF
 10
247.311
 20
72.6249
 30
0.000000
  70
    32
  0
VERTEX
  8
0
  5
23F0
 10
247.311
 20
72.6261
 30
0.000000
  70
    32
  0
VERTEX
  8
0
  5
23F1
 10
247.310
 20
72.6273
 30
0.000000
  70
    32
  0
VERTEX
  8
0
  5
23F2
 10
247.310
 20
72.6285
 30
0.000000
  70
    32
  0
VERTEX
  8
0
  5
23F3
 10
247.310
 20
72.6298
 30
0.000000
  70
    32
  0
VERTEX
  8
0
  5
23F4
 10
247.310
 20
72.6310
 30
0.000000
  70
    32
  0
VERTEX
  8
0
  5
23F5
 10
247.310
 20
72.6322
 30
0.000000
  70
    32
  0
VERTEX
  8
0
  5
23F6
 10
247.309
 20
72.6334
 30
0.000000
  70
    32
  0
VERTEX
  8
0
  5
23F7
 10
247.309
 20
72.6346
 30
0.000000
  70
    32
  0
VERTEX
  8
0
  5
23F8
 10
247.309
 20
72.6358
 30
0.000000
  70
    32
  0
VERTEX
  8
0
  5
23F9
 10
247.308
 20
72.6370
 30
0.000000
  70
    32
  0
VERTEX
  8
0
  5
23FA
 10
247.308
 20
72.6382
 30
0.000000
  70
    32
  0
VERTEX
  8
0
  5
23FB
 10
247.308
 20
72.6394
 30
0.000000
  70
    32
  0
VERTEX
  8
0
  5
23FC
 10
247.307
 20
72.6407
 30
0.000000
  70
    32
  0
VERTEX
  8
0
  5
23FD
 10
247.307
 20
72.6419
 30
0.000000
  70
    32
  0
VERTEX
  8
0
  5
23FE
 10
247.306
 20
72.6431
 30
0.000000
  70
    32
  0
VERTEX
  8
0
  5
23FF
 10
247.306
 20
72.6443
 30
0.000000
  70
    32
  0
VERTEX
  8
0
  5
2400
 10
247.306
 20
72.6455
 30
0.000000
  70
    32
  0
VERTEX
  8
0
  5
2401
 10
247.305
 20
72.6467
 30
0.000000
  70
    32
  0
VERTEX
  8
0
  5
2402
 10
247.305
 20
72.6479
 30
0.000000
  70
    32
  0
VERTEX
  8
0
  5
2403
 10
247.304
 20
72.6491
 30
0.000000
  70
    32
  0
VERTEX
  8
0
  5
2404
 10
247.304
 20
72.6503
 30
0.000000
  70
    32
  0
VERTEX
  8
0
  5
2405
 10
247.303
 20
72.6515
 30
0.000000
  70
    32
  0
VERTEX
  8
0
  5
2406
 10
247.302
 20
72.6528
 30
0.000000
  70
    32
  0
VERTEX
  8
0
  5
2407
 10
247.302
 20
72.6540
 30
0.000000
  70
    32
  0
VERTEX
  8
0
  5
2408
 10
247.301
 20
72.6552
 30
0.000000
  70
    32
  0
VERTEX
  8
0
  5
2409
 10
247.301
 20
72.6564
 30
0.000000
  70
    32
  0
VERTEX
  8
0
  5
240A
 10
247.300
 20
72.6576
 30
0.000000
  70
    32
  0
VERTEX
  8
0
  5
240B
 10
247.299
 20
72.6588
 30
0.000000
  70
    32
  0
VERTEX
  8
0
  5
240C
 10
247.299
 20
72.6600
 30
0.000000
  70
    32
  0
VERTEX
  8
0
  5
240D
 10
247.298
 20
72.6612
 30
0.000000
  70
    32
  0
VERTEX
  8
0
  5
240E
 10
247.297
 20
72.6624
 30
0.000000
  70
    32
  0
VERTEX
  8
0
  5
240F
 10
247.296
 20
72.6636
 30
0.000000
  70
    32
  0
VERTEX
  8
0
  5
2410
 10
247.296
 20
72.6648
 30
0.000000
  70
    32
  0
VERTEX
  8
0
  5
2411
 10
247.295
 20
72.6661
 30
0.000000
  70
    32
  0
VERTEX
  8
0
  5
2412
 10
247.294
 20
72.6673
 30
0.000000
  70
    32
  0
VERTEX
  8
0
  5
2413
 10
247.293
 20
72.6685
 30
0.000000
  70
    32
  0
VERTEX
  8
0
  5
2414
 10
247.293
 20
72.6697
 30
0.000000
  70
    32
  0
VERTEX
  8
0
  5
2415
 10
247.292
 20
72.6709
 30
0.000000
  70
    32
  0
VERTEX
  8
0
  5
2416
 10
247.291
 20
72.6721
 30
0.000000
  70
    32
  0
VERTEX
  8
0
  5
2417
 10
247.290
 20
72.6733
 30
0.000000
  70
    32
  0
VERTEX
  8
0
  5
2418
 10
247.289
 20
72.6745
 30
0.000000
  70
    32
  0
VERTEX
  8
0
  5
2419
 10
247.288
 20
72.6757
 30
0.000000
  70
    32
  0
VERTEX
  8
0
  5
241A
 10
247.287
 20
72.6769
 30
0.000000
  70
    32
  0
VERTEX
  8
0
  5
241B
 10
247.286
 20
72.6781
 30
0.000000
  70
    32
  0
VERTEX
  8
0
  5
241C
 10
247.285
 20
72.6793
 30
0.000000
  70
    32
  0
VERTEX
  8
0
  5
241D
 10
247.284
 20
72.6805
 30
0.000000
  70
    32
  0
VERTEX
  8
0
  5
241E
 10
247.283
 20
72.6818
 30
0.000000
  70
    32
  0
VERTEX
  8
0
  5
241F
 10
247.282
 20
72.6830
 30
0.000000
  70
    32
  0
VERTEX
  8
0
  5
2420
 10
247.281
 20
72.6842
 30
0.000000
  70
    32
  0
VERTEX
  8
0
  5
2421
 10
247.280
 20
72.6854
 30
0.000000
  70
    32
  0
VERTEX
  8
0
  5
2422
 10
247.279
 20
72.6866
 30
0.000000
  70
    32
  0
VERTEX
  8
0
  5
2423
 10
247.278
 20
72.6878
 30
0.000000
  70
    32
  0
VERTEX
  8
0
  5
2424
 10
247.277
 20
72.6890
 30
0.000000
  70
    32
  0
VERTEX
  8
0
  5
2425
 10
247.276
 20
72.6902
 30
0.000000
  70
    32
  0
VERTEX
  8
0
  5
2426
 10
247.274
 20
72.6914
 30
0.000000
  70
    32
  0
VERTEX
  8
0
  5
2427
 10
247.273
 20
72.6926
 30
0.000000
  70
    32
  0
VERTEX
  8
0
  5
2428
 10
247.272
 20
72.6938
 30
0.000000
  70
    32
  0
VERTEX
  8
0
  5
2429
 10
247.271
 20
72.6950
 30
0.000000
  70
    32
  0
VERTEX
  8
0
  5
242A
 10
247.270
 20
72.6962
 30
0.000000
  70
    32
  0
VERTEX
  8
0
  5
242B
 10
247.268
 20
72.6974
 30
0.000000
  70
    32
  0
VERTEX
  8
0
  5
242C
 10
247.267
 20
72.6986
 30
0.000000
  70
    32
  0
VERTEX
  8
0
  5
242D
 10
247.266
 20
72.6998
 30
0.000000
  70
    32
  0
VERTEX
  8
0
  5
242E
 10
247.264
 20
72.7010
 30
0.000000
  70
    32
  0
VERTEX
  8
0
  5
242F
 10
247.263
 20
72.7022
 30
0.000000
  70
    32
  0
VERTEX
  8
0
  5
2430
 10
247.262
 20
72.7034
 30
0.000000
  70
    32
  0
VERTEX
  8
0
  5
2431
 10
247.260
 20
72.7046
 30
0.000000
  70
    32
  0
VERTEX
  8
0
  5
2432
 10
247.259
 20
72.7058
 30
0.000000
  70
    32
  0
VERTEX
  8
0
  5
2433
 10
247.258
 20
72.7070
 30
0.000000
  70
    32
  0
VERTEX
  8
0
  5
2434
 10
247.256
 20
72.7082
 30
0.000000
  70
    32
  0
VERTEX
  8
0
  5
2435
 10
247.255
 20
72.7094
 30
0.000000
  70
    32
  0
VERTEX
  8
0
  5
2436
 10
247.253
 20
72.7106
 30
0.000000
  70
    32
  0
VERTEX
  8
0
  5
2437
 10
247.252
 20
72.7118
 30
0.000000
  70
    32
  0
VERTEX
  8
0
  5
2438
 10
247.250
 20
72.7130
 30
0.000000
  70
    32
  0
VERTEX
  8
0
  5
2439
 10
247.249
 20
72.7142
 30
0.000000
  70
    32
  0
VERTEX
  8
0
  5
243A
 10
247.247
 20
72.7154
 30
0.000000
  70
    32
  0
VERTEX
  8
0
  5
243B
 10
247.246
 20
72.7166
 30
0.000000
  70
    32
  0
VERTEX
  8
0
  5
243C
 10
247.244
 20
72.7178
 30
0.000000
  70
    32
  0
VERTEX
  8
0
  5
243D
 10
247.242
 20
72.7190
 30
0.000000
  70
    32
  0
VERTEX
  8
0
  5
243E
 10
247.241
 20
72.7202
 30
0.000000
  70
    32
  0
VERTEX
  8
0
  5
243F
 10
247.239
 20
72.7214
 30
0.000000
  70
    32
  0
VERTEX
  8
0
  5
2440
 10
247.238
 20
72.7226
 30
0.000000
  70
    32
  0
VERTEX
  8
0
  5
2441
 10
247.236
 20
72.7238
 30
0.000000
  70
    32
  0
VERTEX
  8
0
  5
2442
 10
247.234
 20
72.7250
 30
0.000000
  70
    32
  0
VERTEX
  8
0
  5
2443
 10
247.232
 20
72.7262
 30
0.000000
  70
    32
  0
VERTEX
  8
0
  5
2444
 10
247.231
 20
72.7274
 30
0.000000
  70
    32
  0
VERTEX
  8
0
  5
2445
 10
247.229
 20
72.7286
 30
0.000000
  70
    32
  0
VERTEX
  8
0
  5
2446
 10
247.227
 20
72.7298
 30
0.000000
  70
    32
  0
VERTEX
  8
0
  5
2447
 10
247.225
 20
72.7310
 30
0.000000
  70
    32
  0
VERTEX
  8
0
  5
2448
 10
247.224
 20
72.7322
 30
0.000000
  70
    32
  0
VERTEX
  8
0
  5
2449
 10
247.222
 20
72.7334
 30
0.000000
  70
    32
  0
VERTEX
  8
0
  5
244A
 10
247.220
 20
72.7346
 30
0.000000
  70
    32
  0
VERTEX
  8
0
  5
244B
 10
247.218
 20
72.7358
 30
0.000000
  70
    32
  0
VERTEX
  8
0
  5
244C
 10
247.216
 20
72.7370
 30
0.000000
  70
    32
  0
VERTEX
  8
0
  5
244D
 10
247.214
 20
72.7382
 30
0.000000
  70
    32
  0
VERTEX
  8
0
  5
244E
 10
247.213
 20
72.7394
 30
0.000000
  70
    32
  0
VERTEX
  8
0
  5
244F
 10
247.211
 20
72.7406
 30
0.000000
  70
    32
  0
VERTEX
  8
0
  5
2450
 10
247.209
 20
72.7417
 30
0.000000
  70
    32
  0
VERTEX
  8
0
  5
2451
 10
247.207
 20
72.7429
 30
0.000000
  70
    32
  0
VERTEX
  8
0
  5
2452
 10
247.205
 20
72.7441
 30
0.000000
  70
    32
  0
VERTEX
  8
0
  5
2453
 10
247.203
 20
72.7453
 30
0.000000
  70
    32
  0
VERTEX
  8
0
  5
2454
 10
247.201
 20
72.7465
 30
0.000000
  70
    32
  0
VERTEX
  8
0
  5
2455
 10
247.199
 20
72.7477
 30
0.000000
  70
    32
  0
VERTEX
  8
0
  5
2456
 10
247.197
 20
72.7489
 30
0.000000
  70
    32
  0
VERTEX
  8
0
  5
2457
 10
247.195
 20
72.7501
 30
0.000000
  70
    32
  0
VERTEX
  8
0
  5
2458
 10
247.192
 20
72.7513
 30
0.000000
  70
    32
  0
VERTEX
  8
0
  5
2459
 10
247.190
 20
72.7525
 30
0.000000
  70
    32
  0
VERTEX
  8
0
  5
245A
 10
247.188
 20
72.7537
 30
0.000000
  70
    32
  0
VERTEX
  8
0
  5
245B
 10
247.186
 20
72.7548
 30
0.000000
  70
    32
  0
VERTEX
  8
0
  5
245C
 10
247.184
 20
72.7560
 30
0.000000
  70
    32
  0
VERTEX
  8
0
  5
245D
 10
247.182
 20
72.7572
 30
0.000000
  70
    32
  0
VERTEX
  8
0
  5
245E
 10
247.179
 20
72.7584
 30
0.000000
  70
    32
  0
VERTEX
  8
0
  5
245F
 10
247.177
 20
72.7596
 30
0.000000
  70
    32
  0
VERTEX
  8
0
  5
2460
 10
247.175
 20
72.7608
 30
0.000000
  70
    32
  0
VERTEX
  8
0
  5
2461
 10
247.173
 20
72.7620
 30
0.000000
  70
    32
  0
VERTEX
  8
0
  5
2462
 10
247.171
 20
72.7631
 30
0.000000
  70
    32
  0
VERTEX
  8
0
  5
2463
 10
247.168
 20
72.7643
 30
0.000000
  70
    32
  0
VERTEX
  8
0
  5
2464
 10
247.166
 20
72.7655
 30
0.000000
  70
    32
  0
VERTEX
  8
0
  5
2465
 10
247.164
 20
72.7667
 30
0.000000
  70
    32
  0
VERTEX
  8
0
  5
2466
 10
247.161
 20
72.7679
 30
0.000000
  70
    32
  0
VERTEX
  8
0
  5
2467
 10
247.159
 20
72.7691
 30
0.000000
  70
    32
  0
SEQEND
  8
0
  5
2468
  0
POLYLINE
  5
611
  8
0
 10
234.46398652344547
 20
72.769065817872757
 30
0.0
 66
     1
 70
     8
  0
VERTEX
  8
0
  5
2469
 10
234.464
 20
72.7691
 30
0.000000
  70
    32
  0
VERTEX
  8
0
  5
246A
 10
234.462
 20
72.7679
 30
0.000000
  70
    32
  0
VERTEX
  8
0
  5
246B
 10
234.459
 20
72.7667
 30
0.000000
  70
    32
  0
VERTEX
  8
0
  5
246C
 10
234.457
 20
72.7655
 30
0.000000
  70
    32
  0
VERTEX
  8
0
  5
246D
 10
234.455
 20
72.7643
 30
0.000000
  70
    32
  0
VERTEX
  8
0
  5
246E
 10
234.452
 20
72.7631
 30
0.000000
  70
    32
  0
VERTEX
  8
0
  5
246F
 10
234.450
 20
72.7620
 30
0.000000
  70
    32
  0
VERTEX
  8
0
  5
2470
 10
234.448
 20
72.7608
 30
0.000000
  70
    32
  0
VERTEX
  8
0
  5
2471
 10
234.446
 20
72.7596
 30
0.000000
  70
    32
  0
VERTEX
  8
0
  5
2472
 10
234.443
 20
72.7584
 30
0.000000
  70
    32
  0
VERTEX
  8
0
  5
2473
 10
234.441
 20
72.7572
 30
0.000000
  70
    32
  0
VERTEX
  8
0
  5
2474
 10
234.439
 20
72.7560
 30
0.000000
  70
    32
  0
VERTEX
  8
0
  5
2475
 10
234.437
 20
72.7548
 30
0.000000
  70
    32
  0
VERTEX
  8
0
  5
2476
 10
234.435
 20
72.7537
 30
0.000000
  70
    32
  0
VERTEX
  8
0
  5
2477
 10
234.433
 20
72.7525
 30
0.000000
  70
    32
  0
VERTEX
  8
0
  5
2478
 10
234.430
 20
72.7513
 30
0.000000
  70
    32
  0
VERTEX
  8
0
  5
2479
 10
234.428
 20
72.7501
 30
0.000000
  70
    32
  0
VERTEX
  8
0
  5
247A
 10
234.426
 20
72.7489
 30
0.000000
  70
    32
  0
VERTEX
  8
0
  5
247B
 10
234.424
 20
72.7477
 30
0.000000
  70
    32
  0
VERTEX
  8
0
  5
247C
 10
234.422
 20
72.7465
 30
0.000000
  70
    32
  0
VERTEX
  8
0
  5
247D
 10
234.420
 20
72.7453
 30
0.000000
  70
    32
  0
VERTEX
  8
0
  5
247E
 10
234.418
 20
72.7441
 30
0.000000
  70
    32
  0
VERTEX
  8
0
  5
247F
 10
234.416
 20
72.7429
 30
0.000000
  70
    32
  0
VERTEX
  8
0
  5
2480
 10
234.414
 20
72.7417
 30
0.000000
  70
    32
  0
VERTEX
  8
0
  5
2481
 10
234.412
 20
72.7406
 30
0.000000
  70
    32
  0
VERTEX
  8
0
  5
2482
 10
234.410
 20
72.7394
 30
0.000000
  70
    32
  0
VERTEX
  8
0
  5
2483
 10
234.408
 20
72.7382
 30
0.000000
  70
    32
  0
VERTEX
  8
0
  5
2484
 10
234.407
 20
72.7370
 30
0.000000
  70
    32
  0
VERTEX
  8
0
  5
2485
 10
234.405
 20
72.7358
 30
0.000000
  70
    32
  0
VERTEX
  8
0
  5
2486
 10
234.403
 20
72.7346
 30
0.000000
  70
    32
  0
VERTEX
  8
0
  5
2487
 10
234.401
 20
72.7334
 30
0.000000
  70
    32
  0
VERTEX
  8
0
  5
2488
 10
234.399
 20
72.7322
 30
0.000000
  70
    32
  0
VERTEX
  8
0
  5
2489
 10
234.397
 20
72.7310
 30
0.000000
  70
    32
  0
VERTEX
  8
0
  5
248A
 10
234.396
 20
72.7298
 30
0.000000
  70
    32
  0
VERTEX
  8
0
  5
248B
 10
234.394
 20
72.7286
 30
0.000000
  70
    32
  0
VERTEX
  8
0
  5
248C
 10
234.392
 20
72.7274
 30
0.000000
  70
    32
  0
VERTEX
  8
0
  5
248D
 10
234.390
 20
72.7262
 30
0.000000
  70
    32
  0
VERTEX
  8
0
  5
248E
 10
234.389
 20
72.7250
 30
0.000000
  70
    32
  0
VERTEX
  8
0
  5
248F
 10
234.387
 20
72.7238
 30
0.000000
  70
    32
  0
VERTEX
  8
0
  5
2490
 10
234.385
 20
72.7226
 30
0.000000
  70
    32
  0
VERTEX
  8
0
  5
2491
 10
234.384
 20
72.7214
 30
0.000000
  70
    32
  0
VERTEX
  8
0
  5
2492
 10
234.382
 20
72.7202
 30
0.000000
  70
    32
  0
VERTEX
  8
0
  5
2493
 10
234.380
 20
72.7190
 30
0.000000
  70
    32
  0
VERTEX
  8
0
  5
2494
 10
234.379
 20
72.7178
 30
0.000000
  70
    32
  0
VERTEX
  8
0
  5
2495
 10
234.377
 20
72.7166
 30
0.000000
  70
    32
  0
VERTEX
  8
0
  5
2496
 10
234.376
 20
72.7154
 30
0.000000
  70
    32
  0
VERTEX
  8
0
  5
2497
 10
234.374
 20
72.7142
 30
0.000000
  70
    32
  0
VERTEX
  8
0
  5
2498
 10
234.373
 20
72.7130
 30
0.000000
  70
    32
  0
VERTEX
  8
0
  5
2499
 10
234.371
 20
72.7118
 30
0.000000
  70
    32
  0
VERTEX
  8
0
  5
249A
 10
234.370
 20
72.7106
 30
0.000000
  70
    32
  0
VERTEX
  8
0
  5
249B
 10
234.368
 20
72.7094
 30
0.000000
  70
    32
  0
VERTEX
  8
0
  5
249C
 10
234.367
 20
72.7082
 30
0.000000
  70
    32
  0
VERTEX
  8
0
  5
249D
 10
234.365
 20
72.7070
 30
0.000000
  70
    32
  0
VERTEX
  8
0
  5
249E
 10
234.364
 20
72.7058
 30
0.000000
  70
    32
  0
VERTEX
  8
0
  5
249F
 10
234.363
 20
72.7046
 30
0.000000
  70
    32
  0
VERTEX
  8
0
  5
24A0
 10
234.361
 20
72.7034
 30
0.000000
  70
    32
  0
VERTEX
  8
0
  5
24A1
 10
234.360
 20
72.7022
 30
0.000000
  70
    32
  0
VERTEX
  8
0
  5
24A2
 10
234.358
 20
72.7010
 30
0.000000
  70
    32
  0
VERTEX
  8
0
  5
24A3
 10
234.357
 20
72.6998
 30
0.000000
  70
    32
  0
VERTEX
  8
0
  5
24A4
 10
234.356
 20
72.6986
 30
0.000000
  70
    32
  0
VERTEX
  8
0
  5
24A5
 10
234.355
 20
72.6974
 30
0.000000
  70
    32
  0
VERTEX
  8
0
  5
24A6
 10
234.353
 20
72.6962
 30
0.000000
  70
    32
  0
VERTEX
  8
0
  5
24A7
 10
234.352
 20
72.6950
 30
0.000000
  70
    32
  0
VERTEX
  8
0
  5
24A8
 10
234.351
 20
72.6938
 30
0.000000
  70
    32
  0
VERTEX
  8
0
  5
24A9
 10
234.350
 20
72.6926
 30
0.000000
  70
    32
  0
VERTEX
  8
0
  5
24AA
 10
234.348
 20
72.6914
 30
0.000000
  70
    32
  0
VERTEX
  8
0
  5
24AB
 10
234.347
 20
72.6902
 30
0.000000
  70
    32
  0
VERTEX
  8
0
  5
24AC
 10
234.346
 20
72.6890
 30
0.000000
  70
    32
  0
VERTEX
  8
0
  5
24AD
 10
234.345
 20
72.6878
 30
0.000000
  70
    32
  0
VERTEX
  8
0
  5
24AE
 10
234.344
 20
72.6866
 30
0.000000
  70
    32
  0
VERTEX
  8
0
  5
24AF
 10
234.343
 20
72.6854
 30
0.000000
  70
    32
  0
VERTEX
  8
0
  5
24B0
 10
234.342
 20
72.6842
 30
0.000000
  70
    32
  0
VERTEX
  8
0
  5
24B1
 10
234.341
 20
72.6830
 30
0.000000
  70
    32
  0
VERTEX
  8
0
  5
24B2
 10
234.340
 20
72.6818
 30
0.000000
  70
    32
  0
VERTEX
  8
0
  5
24B3
 10
234.339
 20
72.6805
 30
0.000000
  70
    32
  0
VERTEX
  8
0
  5
24B4
 10
234.338
 20
72.6793
 30
0.000000
  70
    32
  0
VERTEX
  8
0
  5
24B5
 10
234.337
 20
72.6781
 30
0.000000
  70
    32
  0
VERTEX
  8
0
  5
24B6
 10
234.336
 20
72.6769
 30
0.000000
  70
    32
  0
VERTEX
  8
0
  5
24B7
 10
234.335
 20
72.6757
 30
0.000000
  70
    32
  0
VERTEX
  8
0
  5
24B8
 10
234.334
 20
72.6745
 30
0.000000
  70
    32
  0
VERTEX
  8
0
  5
24B9
 10
234.333
 20
72.6733
 30
0.000000
  70
    32
  0
VERTEX
  8
0
  5
24BA
 10
234.332
 20
72.6721
 30
0.000000
  70
    32
  0
VERTEX
  8
0
  5
24BB
 10
234.331
 20
72.6709
 30
0.000000
  70
    32
  0
VERTEX
  8
0
  5
24BC
 10
234.330
 20
72.6697
 30
0.000000
  70
    32
  0
VERTEX
  8
0
  5
24BD
 10
234.330
 20
72.6685
 30
0.000000
  70
    32
  0
VERTEX
  8
0
  5
24BE
 10
234.329
 20
72.6673
 30
0.000000
  70
    32
  0
VERTEX
  8
0
  5
24BF
 10
234.328
 20
72.6661
 30
0.000000
  70
    32
  0
VERTEX
  8
0
  5
24C0
 10
234.327
 20
72.6648
 30
0.000000
  70
    32
  0
VERTEX
  8
0
  5
24C1
 10
234.326
 20
72.6636
 30
0.000000
  70
    32
  0
VERTEX
  8
0
  5
24C2
 10
234.326
 20
72.6624
 30
0.000000
  70
    32
  0
VERTEX
  8
0
  5
24C3
 10
234.325
 20
72.6612
 30
0.000000
  70
    32
  0
VERTEX
  8
0
  5
24C4
 10
234.324
 20
72.6600
 30
0.000000
  70
    32
  0
VERTEX
  8
0
  5
24C5
 10
234.324
 20
72.6588
 30
0.000000
  70
    32
  0
VERTEX
  8
0
  5
24C6
 10
234.323
 20
72.6576
 30
0.000000
  70
    32
  0
VERTEX
  8
0
  5
24C7
 10
234.322
 20
72.6564
 30
0.000000
  70
    32
  0
VERTEX
  8
0
  5
24C8
 10
234.322
 20
72.6552
 30
0.000000
  70
    32
  0
VERTEX
  8
0
  5
24C9
 10
234.321
 20
72.6540
 30
0.000000
  70
    32
  0
VERTEX
  8
0
  5
24CA
 10
234.320
 20
72.6528
 30
0.000000
  70
    32
  0
VERTEX
  8
0
  5
24CB
 10
234.320
 20
72.6515
 30
0.000000
  70
    32
  0
VERTEX
  8
0
  5
24CC
 10
234.319
 20
72.6503
 30
0.000000
  70
    32
  0
VERTEX
  8
0
  5
24CD
 10
234.319
 20
72.6491
 30
0.000000
  70
    32
  0
VERTEX
  8
0
  5
24CE
 10
234.318
 20
72.6479
 30
0.000000
  70
    32
  0
VERTEX
  8
0
  5
24CF
 10
234.318
 20
72.6467
 30
0.000000
  70
    32
  0
VERTEX
  8
0
  5
24D0
 10
234.317
 20
72.6455
 30
0.000000
  70
    32
  0
VERTEX
  8
0
  5
24D1
 10
234.317
 20
72.6443
 30
0.000000
  70
    32
  0
VERTEX
  8
0
  5
24D2
 10
234.316
 20
72.6431
 30
0.000000
  70
    32
  0
VERTEX
  8
0
  5
24D3
 10
234.316
 20
72.6419
 30
0.000000
  70
    32
  0
VERTEX
  8
0
  5
24D4
 10
234.316
 20
72.6407
 30
0.000000
  70
    32
  0
VERTEX
  8
0
  5
24D5
 10
234.315
 20
72.6394
 30
0.000000
  70
    32
  0
VERTEX
  8
0
  5
24D6
 10
234.315
 20
72.6382
 30
0.000000
  70
    32
  0
VERTEX
  8
0
  5
24D7
 10
234.314
 20
72.6370
 30
0.000000
  70
    32
  0
VERTEX
  8
0
  5
24D8
 10
234.314
 20
72.6358
 30
0.000000
  70
    32
  0
VERTEX
  8
0
  5
24D9
 10
234.314
 20
72.6346
 30
0.000000
  70
    32
  0
VERTEX
  8
0
  5
24DA
 10
234.314
 20
72.6334
 30
0.000000
  70
    32
  0
VERTEX
  8
0
  5
24DB
 10
234.313
 20
72.6322
 30
0.000000
  70
    32
  0
VERTEX
  8
0
  5
24DC
 10
234.313
 20
72.6310
 30
0.000000
  70
    32
  0
VERTEX
  8
0
  5
24DD
 10
234.313
 20
72.6298
 30
0.000000
  70
    32
  0
VERTEX
  8
0
  5
24DE
 10
234.313
 20
72.6285
 30
0.000000
  70
    32
  0
VERTEX
  8
0
  5
24DF
 10
234.312
 20
72.6273
 30
0.000000
  70
    32
  0
VERTEX
  8
0
  5
24E0
 10
234.312
 20
72.6261
 30
0.000000
  70
    32
  0
VERTEX
  8
0
  5
24E1
 10
234.312
 20
72.6249
 30
0.000000
  70
    32
  0
VERTEX
  8
0
  5
24E2
 10
234.312
 20
72.6237
 30
0.000000
  70
    32
  0
VERTEX
  8
0
  5
24E3
 10
234.312
 20
72.6225
 30
0.000000
  70
    32
  0
VERTEX
  8
0
  5
24E4
 10
234.312
 20
72.6213
 30
0.000000
  70
    32
  0
VERTEX
  8
0
  5
24E5
 10
234.312
 20
72.6201
 30
0.000000
  70
    32
  0
VERTEX
  8
0
  5
24E6
 10
234.312
 20
72.6189
 30
0.000000
  70
    32
  0
VERTEX
  8
0
  5
24E7
 10
234.311
 20
72.6176
 30
0.000000
  70
    32
  0
VERTEX
  8
0
  5
24E8
 10
234.311
 20
72.6164
 30
0.000000
  70
    32
  0
VERTEX
  8
0
  5
24E9
 10
234.311
 20
72.6152
 30
0.000000
  70
    32
  0
SEQEND
  8
0
  5
24EA
  0
POLYLINE
  5
612
  8
0
 66
     1
 10
0.0
 20
0.0
 30
0.0
 70
   128
  0
VERTEX
  5
2345
  8
0
 10
246.81142695246879
 20
72.139528934999021
 30
0.0
  0
VERTEX
  5
2346
  8
0
 10
247.0780487338009
 20
72.561755835544318
 30
0.0
  0
VERTEX
  5
2347
  8
0
 10
247.158867381492
 20
72.769065817872715
 30
0.0
  0
SEQEND
  5
2348
  8
0
  0
POLYLINE
  5
613
  8
0
 66
     1
 10
0.0
 20
0.0
 30
0.0
 70
   128
  0
VERTEX
  5
2349
  8
0
 10
234.4639865234455
 20
72.769065817872786
 30
0.0
  0
VERTEX
  5
234A
  8
0
 10
234.61995426236101
 20
72.411003100256039
 30
0.0
  0
VERTEX
  5
234B
  8
0
 10
234.81142695246879
 20
72.172402485125758
 30
0.0
  0
SEQEND
  5
234C
  8
0
  0
LINE
  5
615
  8
0
 10
234.31142695246859
 20
70.79104167096682
 30
0.0
 11
234.31142695246859
 21
75.79104167096682
 31
0.0
  0
LINE
  5
616
  8
0
 10
234.31142695246859
 20
75.79104167096682
 30
0.0
 11
247.31142695246851
 21
75.79104167096682
 31
0.0
  0
LINE
  5
617
  8
0
 10
247.31142695246851
 20
70.79104167096682
 30
0.0
 11
247.31142695246851
 21
75.79104167096682
 31
0.0
  0
LINE
  5
61A
  8
0
 10
224.81142695246851
 20
86.791041670966706
 30
0.0
 11
256.81142695246882
 21
86.791041670966933
 31
0.0
  0
LINE
  5
61C
  8
0
 10
246.81142695246879
 20
87.29104167096682
 30
0.0
 11
253.81142695246879
 21
87.29104167096682
 31
0.0
  0
LINE
  5
61D
  8
0
 10
227.81142695246879
 20
87.29104167096682
 30
0.0
 11
234.81142695246879
 21
87.29104167096682
 31
0.0
  0
LINE
  5
61E
  8
0
 10
228.31142695246879
 20
90.79104167096682
 30
0.0
 11
234.81142695246879
 21
90.79104167096682
 31
0.0
  0
LINE
  5
61F
  8
0
 10
246.81142695246879
 20
90.79104167096682
 30
0.0
 11
253.31142695246879
 21
90.79104167096682
 31
0.0
  0
LINE
  5
620
  8
0
 10
253.81142695246879
 20
90.291041670966806
 30
0.0
 11
246.81142695246879
 21
90.291041670966806
 31
0.0
  0
LINE
  5
621
  8
0
 10
234.81142695246879
 20
90.291041670966806
 30
0.0
 11
227.81142695246879
 21
90.291041670966806
 31
0.0
  0
LINE
  5
622
  8
0
 10
231.31142695246879
 20
94.291041670966806
 30
0.0
 11
231.31142695246891
 21
107.00236653637199
 31
0.0
  0
LINE
  5
623
  8
0
 10
250.31142695246871
 20
94.291041670966806
 30
0.0
 11
250.31142695246871
 21
107.00236653637209
 31
0.0
  0
POLYLINE
  5
625
  8
0
 66
     1
 10
0.0
 20
0.0
 30
0.0
 70
   128
  0
VERTEX
  5
234D
  8
0
 10
234.81142695246879
 20
106.8935959050964
 30
0.0
  0
VERTEX
  5
234E
  8
0
 10
233.51405130886789
 20
106.7454706718113
 30
0.0
  0
VERTEX
  5
234F
  8
0
 10
231.31142695246879
 20
106.15386076034009
 30
0.0
  0
SEQEND
  5
2350
  8
0
  0
POLYLINE
  5
626
  8
0
 66
     1
 10
0.0
 20
0.0
 30
0.0
 70
   128
  0
VERTEX
  5
2351
  8
0
 10
250.31142695246871
 20
106.15386076034009
 30
0.0
  0
VERTEX
  5
2352
  8
0
 10
247.82329590505111
 20
106.7988609592402
 30
0.0
  0
VERTEX
  5
2353
  8
0
 10
246.81142695246879
 20
106.928533754209
 30
0.0
  0
SEQEND
  5
2354
  8
0
  0
LINE
  5
628
  8
0
 10
246.81142695246879
 20
107.29104167096681
 30
0.0
 11
249.81142695246879
 21
107.29104167096681
 31
0.0
  0
LINE
  5
629
  8
0
 10
231.81142695246879
 20
107.29104167096681
 30
0.0
 11
234.81142695246879
 21
107.29104167096681
 31
0.0
  0
LINE
  5
62A
  8
0
 10
246.81142695246879
 20
94.291041670966806
 30
0.0
 11
253.81142695246879
 21
94.291041670966806
 31
0.0
  0
LINE
  5
62B
  8
0
 10
227.81142695246879
 20
94.291041670966806
 30
0.0
 11
234.81142695246879
 21
94.291041670966806
 31
0.0
  0
LINE
  5
62C
  8
0
 10
246.81142695246879
 20
91.291041670966834
 30
0.0
 11
253.81142695246879
 21
91.291041670966834
 31
0.0
  0
LINE
  5
62D
  8
0
 10
227.81142695246879
 20
91.291041670966834
 30
0.0
 11
234.81142695246879
 21
91.291041670966834
 31
0.0
  0
LINE
  5
62E
  8
0
 10
235.3887772216583
 20
120.79104167096681
 30
0.0
 11
246.2340766832792
 21
120.79104167096681
 31
0.0
  0
LINE
  5
62F
  8
0
 10
246.81142695246879
 20
119.79104167096681
 30
0.0
 11
234.81142695246879
 21
119.79104167096681
 31
0.0
  0
LINE
  5
630
  8
0
 10
244.4114269524687
 20
69.405401024911725
 30
0.0
 11
237.21142695246891
 21
69.405401024911725
 31
0.0
  0
LINE
  5
632
  8
0
 10
231.81142695246879
 20
68.79104167096682
 30
0.0
 11
249.81142695246879
 21
68.79104167096682
 31
0.0
  0
LINE
  5
633
  8
0
 10
228.31142695246879
 20
55.79104167096682
 30
0.0
 11
253.31142695246879
 21
55.79104167096682
 31
0.0
  0
LINE
  5
634
  8
0
 10
228.31142695246879
 20
61.791041670966813
 30
0.0
 11
253.31142695246879
 21
61.791041670966813
 31
0.0
  0
LINE
  5
635
  8
0
 10
245.7379269524688
 20
136.79104167096679
 30
0.0
 11
235.8849269524687
 21
136.79104167096679
 31
0.0
  0
LINE
  5
636
  8
0
 10
246.81142695246879
 20
135.7175416709668
 30
0.0
 11
234.81142695246879
 21
135.7175416709668
 31
0.0
  0
LINE
  5
637
  8
0
 10
236.8293761448997
 20
69.625978161505827
 30
0.0
 11
236.06142695246879
 21
69.625978161505827
 31
0.0
  0
LINE
  5
638
  8
0
 10
245.56142695246879
 20
69.625978161505827
 30
0.0
 11
244.7934777600378
 21
69.625978161505827
 31
0.0
  0
ARC
  5
639
  8
0
 10
240.81142695246831
 20
36.791041670966372
 30
0.0
 40
8.6068286842487964
 50
0.0000000000032569
 51
179.99999999999261
  0
LINE
  5
63A
  8
0
 10
245.56142695246879
 20
46.712609087458809
 30
0.0
 11
236.06142695246831
 21
46.712609087458809
 31
0.0
  0
LINE
  5
63B
  8
0
 10
229.81142695246879
 20
28.79104167096682
 30
0.0
 11
229.81142695246879
 21
36.79104167096682
 31
0.0
  0
LINE
  5
63D
  8
0
 10
251.81142695246879
 20
36.79104167096682
 30
0.0
 11
251.81142695246879
 21
28.79104167096682
 31
0.0
  0
LINE
  5
63F
  8
0
 10
251.7457810714827
 20
33.191041670966797
 30
0.0
 11
251.7457810714827
 21
36.79104167096682
 31
0.0
  0
LINE
  5
640
  8
0
 10
251.81142695246879
 20
36.79104167096682
 30
0.0
 11
229.81142695246811
 21
36.79104167096682
 31
0.0
  0
LINE
  5
641
  8
0
 10
229.8770728334546
 20
36.79104167096682
 30
0.0
 11
229.8770728334546
 21
33.191041670966797
 31
0.0
  0
LINE
  5
644
  8
0
 10
251.81142695246879
 20
33.191041670966797
 30
0.0
 11
251.7457810714827
 21
33.191041670966797
 31
0.0
  0
POLYLINE
  5
645
  8
0
 66
     1
 10
0.0
 20
0.0
 30
0.0
 70
   128
  0
VERTEX
  5
2355
  8
0
 10
242.37094610913411
 20
28.79104167096682
 30
0.0
  0
VERTEX
  5
2356
  8
0
 10
244.5170059553563
 20
28.819244420951922
 30
0.0
  0
VERTEX
  5
2357
  8
0
 10
246.6630658015786
 20
29.003133486784641
 30
0.0
  0
VERTEX
  5
2358
  8
0
 10
248.09538211864259
 20
29.315349220016291
 30
0.0
  0
VERTEX
  5
2359
  8
0
 10
249.48909220895641
 20
29.882644423191611
 30
0.0
  0
VERTEX
  5
235A
  8
0
 10
250.65239982189181
 20
30.733262537035159
 30
0.0
  0
VERTEX
  5
235B
  8
0
 10
251.1165893958823
 20
31.279404541679579
 30
0.0
  0
VERTEX
  5
235C
  8
0
 10
251.48083701591079
 20
31.926491623802061
 30
0.0
  0
VERTEX
  5
235D
  8
0
 10
251.73782069303431
 20
32.968904832116671
 30
0.0
  0
VERTEX
  5
235E
  8
0
 10
251.7457810714827
 20
33.191041670966797
 30
0.0
  0
SEQEND
  5
235F
  8
0
  0
POLYLINE
  5
647
  8
0
 66
     1
 10
0.0
 20
0.0
 30
0.0
 70
   128
  0
VERTEX
  5
2360
  8
0
 10
229.8770728334546
 20
33.191041670966797
 30
0.0
  0
VERTEX
  5
2361
  8
0
 10
229.9687789795714
 20
32.440330328986477
 30
0.0
  0
VERTEX
  5
2362
  8
0
 10
230.3770789642206
 20
31.475193282149291
 30
0.0
  0
VERTEX
  5
2363
  8
0
 10
231.10605633225279
 20
30.604545486952361
 30
0.0
  0
VERTEX
  5
2364
  8
0
 10
231.804801173671
 20
30.075375240164021
 30
0.0
  0
VERTEX
  5
2365
  8
0
 10
232.60109433566481
 20
29.653343568038281
 30
0.0
  0
VERTEX
  5
2366
  8
0
 10
233.94710868575731
 20
29.201678397751721
 30
0.0
  0
VERTEX
  5
2367
  8
0
 10
235.37987734359629
 20
28.946134894465668
 30
0.0
  0
VERTEX
  5
2368
  8
0
 10
237.30911967030491
 20
28.812507610538429
 30
0.0
  0
VERTEX
  5
2369
  8
0
 10
239.25190779580319
 20
28.79104167096682
 30
0.0
  0
SEQEND
  5
236A
  8
0
  0
LINE
  5
648
  8
0
 10
229.8770728334546
 20
33.191041670966797
 30
0.0
 11
229.81142695246879
 21
33.191041670966797
 31
0.0
  0
LINE
  5
64A
  8
0
 10
251.81142695246879
 20
28.79104167096682
 30
0.0
 11
229.81142695246879
 21
28.79104167096682
 31
0.0
  0
LINE
  5
64D
  8
0
 10
227.81142695246879
 20
90.291041670966806
 30
0.0
 11
227.81142695246879
 21
87.29104167096682
 31
0.0
  0
LINE
  5
64E
  8
0
 10
253.81142695246879
 20
87.29104167096682
 30
0.0
 11
253.81142695246879
 21
90.291041670966806
 31
0.0
  0
LINE
  5
64F
  8
0
 10
253.31142695246879
 20
86.791041670966806
 30
0.0
 11
253.81142695246879
 21
87.29104167096682
 31
0.0
  0
LINE
  5
650
  8
0
 10
227.81142695246879
 20
87.29104167096682
 30
0.0
 11
228.31142695246879
 21
86.791041670966806
 31
0.0
  0
LINE
  5
651
  8
0
 10
228.31142695246879
 20
90.79104167096682
 30
0.0
 11
227.81142695246879
 21
90.291041670966806
 31
0.0
  0
LINE
  5
652
  8
0
 10
253.81142695246879
 20
90.291041670966806
 30
0.0
 11
253.31142695246879
 21
90.79104167096682
 31
0.0
  0
LINE
  5
653
  8
0
 10
231.81142695246879
 20
107.29104167096681
 30
0.0
 11
231.31142695246879
 21
107.00236653637199
 31
0.0
  0
LINE
  5
654
  8
0
 10
250.31142695246871
 20
107.00236653637199
 30
0.0
 11
249.81142695246879
 21
107.29104167096681
 31
0.0
  0
POLYLINE
  5
655
  8
0
 66
     1
 10
0.0
 20
0.0
 30
0.0
 70
   128
  0
VERTEX
  5
236B
  8
0
 10
227.81142695246879
 20
91.291041670966834
 30
0.0
  0
VERTEX
  5
236C
  8
0
 10
228.47127599872289
 20
90.983571731636957
 30
0.0
  0
VERTEX
  5
236D
  8
0
 10
228.90710049815769
 20
90.79104167096682
 30
0.0
  0
SEQEND
  5
236E
  8
0
  0
POLYLINE
  5
656
  8
0
 66
     1
 10
0.0
 20
0.0
 30
0.0
 70
   128
  0
VERTEX
  5
236F
  8
0
 10
252.7157534067799
 20
90.79104167096682
 30
0.0
  0
VERTEX
  5
2370
  8
0
 10
253.1515779062145
 20
90.983571731636957
 30
0.0
  0
VERTEX
  5
2371
  8
0
 10
253.81142695246879
 20
91.291041670966834
 30
0.0
  0
SEQEND
  5
2372
  8
0
  0
LINE
  5
657
  8
0
 10
253.81142695246879
 20
91.291041670966834
 30
0.0
 11
253.81142695246879
 21
94.291041670966806
 31
0.0
  0
LINE
  5
658
  8
0
 10
227.81142695246879
 20
94.291041670966806
 30
0.0
 11
227.81142695246879
 21
91.291041670966834
 31
0.0
  0
LINE
  5
659
  8
0
 10
237.21142695246891
 20
69.405401024911725
 30
0.0
 11
237.21142695246891
 21
68.79104167096682
 31
0.0
  0
LINE
  5
65A
  8
0
 10
244.4114269524687
 20
68.79104167096682
 30
0.0
 11
244.4114269524687
 21
69.405401024911725
 31
0.0
  0
LINE
  5
65B
  8
0
 10
235.3887772216583
 20
120.79104167096681
 30
0.0
 11
234.81142695246879
 21
119.79104167096681
 31
0.0
  0
LINE
  5
65C
  8
0
 10
246.81142695246879
 20
119.79104167096681
 30
0.0
 11
246.2340766832792
 21
120.79104167096681
 31
0.0
  0
LINE
  5
65D
  8
0
 10
246.81142695246879
 20
86.791041670966806
 30
0.0
 11
246.81142695246879
 21
119.79104167096681
 31
0.0
  0
LINE
  5
65E
  8
0
 10
246.81142695246879
 20
70.79104167096682
 30
0.0
 11
246.81142695246879
 21
75.79104167096682
 31
0.0
  0
LINE
  5
65F
  8
0
 10
234.81142695246879
 20
75.79104167096682
 30
0.0
 11
234.81142695246879
 21
70.79104167096682
 31
0.0
  0
LINE
  5
660
  8
0
 10
234.81142695246879
 20
119.79104167096681
 30
0.0
 11
234.81142695246879
 21
86.791041670966806
 31
0.0
  0
LINE
  5
661
  8
0
 10
244.4114269524687
 20
69.405401024911725
 30
0.0
 11
246.81142695246879
 21
70.79104167096682
 31
0.0
  0
LINE
  5
662
  8
0
 10
234.81142695246879
 20
70.79104167096682
 30
0.0
 11
237.21142695246891
 21
69.405401024911725
 31
0.0
  0
LINE
  5
663
  8
0
 10
249.81142695246879
 20
61.791041670966813
 30
0.0
 11
249.81142695246879
 21
68.79104167096682
 31
0.0
  0
LINE
  5
664
  8
0
 10
231.81142695246879
 20
68.79104167096682
 30
0.0
 11
231.81142695246879
 21
61.791041670966813
 31
0.0
  0
LINE
  5
665
  8
0
 10
253.31142695246879
 20
55.79104167096682
 30
0.0
 11
253.31142695246879
 21
61.791041670966813
 31
0.0
  0
LINE
  5
666
  8
0
 10
228.31142695246879
 20
61.791041670966813
 30
0.0
 11
228.31142695246879
 21
55.79104167096682
 31
0.0
  0
LINE
  5
667
  8
0
 10
236.06142695246879
 20
55.79104167096682
 30
0.0
 11
236.06142695246879
 21
46.712609087458809
 31
0.0
  0
LINE
  5
668
  8
0
 10
236.06142695246879
 20
69.625978161505827
 30
0.0
 11
236.06142695246879
 21
68.79104167096682
 31
0.0
  0
LINE
  5
669
  8
0
 10
245.56142695246879
 20
68.79104167096682
 30
0.0
 11
245.56142695246879
 21
69.625978161505827
 31
0.0
  0
LINE
  5
66A
  8
0
 10
245.56142695246879
 20
46.712609087458809
 30
0.0
 11
245.56142695246879
 21
55.79104167096682
 31
0.0
  0
LINE
  5
66B
  8
0
 10
234.81142695246879
 20
135.7175416709668
 30
0.0
 11
234.81142695246879
 21
119.79104167096671
 31
0.0
  0
LINE
  5
66C
  8
0
 10
246.81142695246879
 20
119.79104167096691
 30
0.0
 11
246.81142695246879
 21
135.7175416709668
 31
0.0
  0
LINE
  5
66D
  8
0
 10
235.8849269524687
 20
136.79104167096679
 30
0.0
 11
234.81142695246879
 21
135.7175416709668
 31
0.0
  0
LINE
  5
66E
  8
0
 10
246.81142695246879
 20
135.7175416709668
 30
0.0
 11
245.7379269524688
 21
136.79104167096679
 31
0.0
  0
LINE
  5
66F
  8
0
 10
245.56142695246879
 20
69.625978161505827
 30
0.0
 11
245.9454015486842
 21
70.291041670966763
 31
0.0
  0
LINE
  5
670
  8
0
 10
235.6774523562533
 20
70.291041670966877
 30
0.0
 11
236.06142695246879
 21
69.625978161505827
 31
0.0
  0
ARC
  5
671
  8
0
 10
240.81142695246831
 20
36.791041670966372
 30
0.0
 40
11.00000000000041
 50
0.0000000000024427
 51
64.416998022601049
  0
ARC
  5
672
  8
0
 10
240.81142695246831
 20
36.791041670966372
 30
0.0
 40
11.00000000000024
 50
115.5830019773986
 51
179.9999999999975
  0
LINE
  5
6C5
  8
1
 10
45.811426952468423
 20
141.79104167096679
 30
0.0
 11
45.81142695246853
 21
23.791041670966791
 31
0.0
  0
LINE
  5
6C8
  8
3
 10
40.68642695246853
 20
136.5925416709668
 30
0.0
 11
40.68642695246853
 21
107.29104167096681
 31
0.0
  0
LINE
  5
6C9
  8
3
 10
50.93642695246853
 20
136.5925416709668
 30
0.0
 11
50.93642695246853
 21
107.29104167096681
 31
0.0
  0
LINE
  5
6D4
  8
0
 10
32.811426952468537
 20
87.29104167096682
 30
0.0
 11
58.811426952468537
 21
87.29104167096682
 31
0.0
  0
LINE
  5
6D5
  8
0
 10
33.311426952468537
 20
90.79104167096682
 30
0.0
 11
58.31142695246853
 21
90.79104167096682
 31
0.0
  0
LINE
  5
6D6
  8
0
 10
58.811426952468537
 20
90.291041670966806
 30
0.0
 11
32.811426952468537
 21
90.291041670966806
 31
0.0
  0
LINE
  5
6D7
  8
0
 10
55.31142695246853
 20
94.291041670966806
 30
0.0
 11
55.31142695246853
 21
107.00236653637199
 31
0.0
  0
LINE
  5
6D8
  8
0
 10
45.81142695246853
 20
94.291041670966806
 30
0.0
 11
45.81142695246853
 21
106.15386076034009
 31
0.0
  0
LINE
  5
6D9
  8
0
 10
36.311426952468537
 20
94.291041670966806
 30
0.0
 11
36.311426952468537
 21
107.00236653637199
 31
0.0
  0
ARC
  5
6DA
  8
0
 10
50.561426952468537
 20
93.030795480152733
 30
0.0
 40
13.956265343853939
 50
70.101865707357135
 51
109.89813429264279
  0
ARC
  5
6DD
  8
0
 10
41.061426952468537
 20
93.030795480152278
 30
0.0
 40
13.95626534385438
 50
70.101865707357135
 51
109.89813429264279
  0
LINE
  5
6DE
  8
0
 10
36.811426952468537
 20
107.29104167096681
 30
0.0
 11
54.811426952468537
 21
107.29104167096681
 31
0.0
  0
LINE
  5
6DF
  8
0
 10
32.811426952468537
 20
94.291041670966806
 30
0.0
 11
58.811426952468537
 21
94.291041670966806
 31
0.0
  0
LINE
  5
6E0
  8
0
 10
32.811426952468537
 20
91.291041670966834
 30
0.0
 11
58.811426952468537
 21
91.291041670966834
 31
0.0
  0
LINE
  5
6E1
  8
0
 10
50.561426952468537
 20
68.79104167096682
 30
0.0
 11
54.811426952468302
 21
68.79104167096682
 31
0.0
  0
LINE
  5
6E2
  8
0
 10
36.81142695246831
 20
68.79104167096682
 30
0.0
 11
41.061426952468537
 21
68.79104167096682
 31
0.0
  0
LINE
  5
6E3
  8
0
 10
50.561426952468537
 20
61.791041670966813
 30
0.0
 11
58.31142695246831
 21
61.791041670966813
 31
0.0
  0
LINE
  5
6E4
  8
0
 10
33.31142695246831
 20
61.791041670966813
 30
0.0
 11
41.061426952468537
 21
61.791041670966813
 31
0.0
  0
LINE
  5
6E5
  8
0
 10
50.561426952468537
 20
55.79104167096682
 30
0.0
 11
58.31142695246831
 21
55.79104167096682
 31
0.0
  0
LINE
  5
6E6
  8
0
 10
33.31142695246831
 20
55.79104167096682
 30
0.0
 11
41.061426952468537
 21
55.79104167096682
 31
0.0
  0
LINE
  5
6E7
  8
0
 10
50.561426952468537
 20
69.625978161505827
 30
0.0
 11
45.81142695246853
 21
69.625978161505827
 31
0.0
  0
LINE
  5
6E8
  8
0
 10
45.81142695246853
 20
69.625978161505827
 30
0.0
 11
41.061426952468537
 21
69.625978161505827
 31
0.0
  0
LINE
  5
6EA
  8
0
 10
50.73792695246869
 20
136.79104167096679
 30
0.0
 11
40.884926952468497
 21
136.79104167096679
 31
0.0
  0
LINE
  5
6EC
  8
0
 10
51.811426952468651
 20
135.7175416709668
 30
0.0
 11
39.811426952468537
 21
135.7175416709668
 31
0.0
  0
ARC
  5
6ED
  8
0
 10
45.811426952468977
 20
36.791041670966372
 30
0.0
 40
8.6068286842488675
 50
0.0000000000032569
 51
179.9999999999967
  0
LINE
  5
6EF
  8
0
 10
50.561426952468537
 20
46.712609087458837
 30
0.0
 11
41.061426952468537
 21
46.712609087458809
 31
0.0
  0
LINE
  5
6F0
  8
0
 10
56.811426952468537
 20
36.79104167096682
 30
0.0
 11
56.811426952468537
 21
28.791041670966791
 31
0.0
  0
LINE
  5
6F2
  8
0
 10
34.811426952468423
 20
28.791041670966791
 30
0.0
 11
34.811426952468537
 21
36.79104167096682
 31
0.0
  0
LINE
  5
6F4
  8
0
 10
56.745781071482718
 20
33.191041670966797
 30
0.0
 11
56.745781071482718
 21
36.79104167096682
 31
0.0
  0
LINE
  5
6F5
  8
0
 10
56.811426952468537
 20
36.79104167096682
 30
0.0
 11
34.811426952468537
 21
36.791041670966791
 31
0.0
  0
LINE
  5
6F6
  8
0
 10
34.877072833454577
 20
36.79104167096682
 30
0.0
 11
34.877072833454577
 21
33.191041670966797
 31
0.0
  0
LINE
  5
6F9
  8
0
 10
56.811426952468537
 20
33.191041670966797
 30
0.0
 11
56.745781071482718
 21
33.191041670966797
 31
0.0
  0
POLYLINE
  5
6FA
  8
0
 66
     1
 10
0.0
 20
0.0
 30
0.0
 70
   128
  0
VERTEX
  5
2373
  8
0
 10
47.370946109134131
 20
28.79104167096682
 30
0.0
  0
VERTEX
  5
2374
  8
0
 10
49.517005955356353
 20
28.819244420951922
 30
0.0
  0
VERTEX
  5
2375
  8
0
 10
51.663065801578568
 20
29.003133486784641
 30
0.0
  0
VERTEX
  5
2376
  8
0
 10
53.09538211864254
 20
29.315349220016291
 30
0.0
  0
VERTEX
  5
2377
  8
0
 10
54.489092208956322
 20
29.882644423191611
 30
0.0
  0
VERTEX
  5
2378
  8
0
 10
55.652399821891777
 20
30.733262537035159
 30
0.0
  0
VERTEX
  5
2379
  8
0
 10
56.116589395882208
 20
31.279404541679579
 30
0.0
  0
VERTEX
  5
237A
  8
0
 10
56.480837015910652
 20
31.926491623802061
 30
0.0
  0
VERTEX
  5
237B
  8
0
 10
56.737820693034223
 20
32.968904832116671
 30
0.0
  0
VERTEX
  5
237C
  8
0
 10
56.745781071482718
 20
33.191041670966797
 30
0.0
  0
SEQEND
  5
237D
  8
0
  0
LINE
  5
6FD
  8
0
 10
56.811426952468537
 20
28.79104167096682
 30
0.0
 11
34.811426952468537
 21
28.79104167096682
 31
0.0
  0
POLYLINE
  5
6FE
  8
0
 66
     1
 10
0.0
 20
0.0
 30
0.0
 70
   128
  0
VERTEX
  5
237E
  8
0
 10
34.877072833454577
 20
33.191041670966797
 30
0.0
  0
VERTEX
  5
237F
  8
0
 10
34.968778979571432
 20
32.440330328986477
 30
0.0
  0
VERTEX
  5
2380
  8
0
 10
35.377078964220338
 20
31.475193282149291
 30
0.0
  0
VERTEX
  5
2381
  8
0
 10
36.10605633225282
 20
30.604545486952361
 30
0.0
  0
VERTEX
  5
2382
  8
0
 10
36.804801173670967
 20
30.075375240164021
 30
0.0
  0
VERTEX
  5
2383
  8
0
 10
37.601094335664811
 20
29.653343568038281
 30
0.0
  0
VERTEX
  5
2384
  8
0
 10
38.94710868575703
 20
29.201678397751781
 30
0.0
  0
VERTEX
  5
2385
  8
0
 10
40.379877343596263
 20
28.946134894465729
 30
0.0
  0
VERTEX
  5
2386
  8
0
 10
42.30911967030476
 20
28.812507610538429
 30
0.0
  0
VERTEX
  5
2387
  8
0
 10
44.251907795803042
 20
28.79104167096682
 30
0.0
  0
SEQEND
  5
2388
  8
0
  0
LINE
  5
6FF
  8
0
 10
34.877072833454577
 20
33.191041670966797
 30
0.0
 11
34.811426952468537
 21
33.191041670966797
 31
0.0
  0
LINE
  5
701
  8
0
 10
58.31142695246853
 20
86.791041670966806
 30
0.0
 11
58.811426952468537
 21
87.29104167096682
 31
0.0
  0
LINE
  5
702
  8
0
 10
32.811426952468537
 20
87.29104167096682
 30
0.0
 11
33.311426952468537
 21
86.791041670966806
 31
0.0
  0
LINE
  5
703
  8
0
 10
32.811426952468537
 20
90.291041670966806
 30
0.0
 11
32.811426952468537
 21
87.29104167096682
 31
0.0
  0
LINE
  5
704
  8
0
 10
58.811426952468537
 20
87.29104167096682
 30
0.0
 11
58.811426952468537
 21
90.291041670966806
 31
0.0
  0
LINE
  5
705
  8
0
 10
33.311426952468537
 20
90.79104167096682
 30
0.0
 11
32.811426952468537
 21
90.291041670966806
 31
0.0
  0
LINE
  5
706
  8
0
 10
58.811426952468537
 20
90.291041670966806
 30
0.0
 11
58.31142695246853
 21
90.79104167096682
 31
0.0
  0
LINE
  5
707
  8
0
 10
36.811426952468537
 20
107.29104167096681
 30
0.0
 11
36.311426952468537
 21
107.00236653637199
 31
0.0
  0
LINE
  5
708
  8
0
 10
55.31142695246853
 20
107.00236653637199
 30
0.0
 11
54.811426952468537
 21
107.29104167096681
 31
0.0
  0
POLYLINE
  5
709
  8
0
 66
     1
 10
0.0
 20
0.0
 30
0.0
 70
   128
  0
VERTEX
  5
2389
  8
0
 10
32.811426952468537
 20
91.291041670966834
 30
0.0
  0
VERTEX
  5
238A
  8
0
 10
33.471275998722717
 20
90.983571731636957
 30
0.0
  0
VERTEX
  5
238B
  8
0
 10
33.907100498157547
 20
90.79104167096682
 30
0.0
  0
SEQEND
  5
238C
  8
0
  0
POLYLINE
  5
70A
  8
0
 66
     1
 10
0.0
 20
0.0
 30
0.0
 70
   128
  0
VERTEX
  5
238D
  8
0
 10
57.71575340677952
 20
90.79104167096682
 30
0.0
  0
VERTEX
  5
238E
  8
0
 10
58.15157790621447
 20
90.983571731636957
 30
0.0
  0
VERTEX
  5
238F
  8
0
 10
58.811426952468537
 20
91.291041670966834
 30
0.0
  0
SEQEND
  5
2390
  8
0
  0
LINE
  5
70B
  8
0
 10
58.811426952468537
 20
91.291041670966834
 30
0.0
 11
58.811426952468537
 21
94.291041670966806
 31
0.0
  0
LINE
  5
70C
  8
0
 10
32.811426952468537
 20
94.291041670966806
 30
0.0
 11
32.811426952468537
 21
91.291041670966834
 31
0.0
  0
LINE
  5
70D
  8
0
 10
50.945401548684231
 20
70.291041670967033
 30
0.0
 11
51.81142695246831
 21
70.79104167096682
 31
0.0
  0
LINE
  5
70E
  8
0
 10
39.81142695246831
 20
70.79104167096682
 30
0.0
 11
40.677452356253177
 21
70.291041670966592
 31
0.0
  0
LINE
  5
70F
  8
0
 10
54.811426952468302
 20
61.791041670966813
 30
0.0
 11
54.811426952468302
 21
68.79104167096682
 31
0.0
  0
LINE
  5
710
  8
0
 10
36.81142695246831
 20
68.79104167096682
 30
0.0
 11
36.81142695246831
 21
61.791041670966813
 31
0.0
  0
LINE
  5
711
  8
0
 10
58.31142695246831
 20
55.79104167096682
 30
0.0
 11
58.31142695246831
 21
61.791041670966813
 31
0.0
  0
LINE
  5
712
  8
0
 10
33.31142695246831
 20
61.791041670966813
 30
0.0
 11
33.31142695246831
 21
55.79104167096682
 31
0.0
  0
LINE
  5
713
  8
0
 10
41.061426952468537
 20
69.625978161505827
 30
0.0
 11
41.061426952468537
 21
46.712609087458809
 31
0.0
  0
LINE
  5
714
  8
0
 10
50.561426952468537
 20
46.712609087458809
 30
0.0
 11
50.561426952468537
 21
69.625978161505827
 31
0.0
  0
LINE
  5
715
  8
0
 10
39.811426952468537
 20
135.7175416709668
 30
0.0
 11
39.811426952468537
 21
107.29104167096681
 31
0.0
  0
LINE
  5
716
  8
0
 10
51.811426952468537
 20
107.29104167096681
 30
0.0
 11
51.811426952468537
 21
135.7175416709668
 31
0.0
  0
LINE
  5
717
  8
0
 10
50.561426952468537
 20
69.625978161505827
 30
0.0
 11
51.234076683278893
 21
70.79104167096682
 31
0.0
  0
LINE
  5
718
  8
0
 10
40.388777221658181
 20
70.79104167096682
 30
0.0
 11
41.061426952468537
 21
69.625978161505827
 31
0.0
  0
LINE
  5
719
  8
0
 10
40.884926952468497
 20
136.79104167096679
 30
0.0
 11
39.811426952468537
 21
135.7175416709668
 31
0.0
  0
LINE
  5
71A
  8
0
 10
51.811426952468537
 20
135.7175416709668
 30
0.0
 11
50.73792695246857
 21
136.79104167096679
 31
0.0
  0
ARC
  5
71B
  8
0
 10
45.811426952468977
 20
36.791041670966372
 30
0.0
 40
11.00000000000024
 50
0.0000000000024427
 51
64.416998022601405
  0
ARC
  5
71C
  8
0
 10
45.811426952468977
 20
36.791041670966372
 30
0.0
 40
11.00000000000041
 50
115.58300197739889
 51
179.9999999999975
  0
LINE
  5
71D
  8
1
 10
106.81142695246839
 20
202.79104167096691
 30
0.0
 11
181.31142695246851
 21
202.79104167096679
 31
0.0
  0
CIRCLE
  5
71E
  8
3
 10
163.81142695246851
 20
202.79104167096691
 30
0.0
 40
5.1249999999999432
  0
CIRCLE
  5
71F
  8
3
 10
139.81142695246851
 20
202.79104167096671
 30
0.0
 40
5.125
  0
CIRCLE
  5
72F
  8
0
 10
139.81142695246851
 20
202.79104167096671
 30
0.0
 40
13.0
  0
LINE
  5
730
  8
0
 10
134.32659939516699
 20
193.29104167096671
 30
0.0
 11
128.84177183786571
 21
202.79104167096671
 31
0.0
  0
LINE
  5
731
  8
0
 10
145.29625450976999
 20
193.29104167096671
 30
0.0
 11
134.32659939516699
 21
193.29104167096671
 31
0.0
  0
LINE
  5
732
  8
0
 10
150.78108206707131
 20
202.79104167096671
 30
0.0
 11
145.29625450976999
 21
193.29104167096671
 31
0.0
  0
LINE
  5
733
  8
0
 10
145.29625450976999
 20
212.29104167096671
 30
0.0
 11
150.78108206707131
 21
202.79104167096671
 31
0.0
  0
LINE
  5
734
  8
0
 10
134.32659939516699
 20
212.29104167096671
 30
0.0
 11
145.29625450976999
 21
212.29104167096671
 31
0.0
  0
LINE
  5
735
  8
0
 10
128.84177183786571
 20
202.79104167096671
 30
0.0
 11
134.32659939516699
 21
212.29104167096671
 31
0.0
  0
CIRCLE
  5
737
  8
0
 10
139.81142695246851
 20
202.79104167096671
 30
0.0
 40
8.9999999999999432
  0
LINE
  5
739
  8
0
 10
162.0793761448997
 20
205.79104167096679
 30
0.0
 11
160.3473253373308
 21
202.79104167096679
 31
0.0
  0
LINE
  5
73A
  8
0
 10
167.27552856760639
 20
202.79104167096679
 30
0.0
 11
165.54347776003729
 21
205.79104167096679
 31
0.0
  0
LINE
  5
73B
  8
0
 10
165.54347776003729
 20
199.79104167096679
 30
0.0
 11
167.27552856760639
 21
202.79104167096679
 31
0.0
  0
LINE
  5
73C
  8
0
 10
162.0793761448997
 20
199.79104167096679
 30
0.0
 11
165.54347776003729
 21
199.79104167096679
 31
0.0
  0
LINE
  5
73D
  8
0
 10
160.3473253373308
 20
202.79104167096679
 30
0.0
 11
162.0793761448997
 21
199.79104167096679
 31
0.0
  0
LINE
  5
73E
  8
0
 10
165.54347776003729
 20
205.79104167096679
 30
0.0
 11
162.0793761448997
 21
205.79104167096679
 31
0.0
  0
CIRCLE
  5
73F
  8
0
 10
163.81142695246851
 20
202.79104167096679
 30
0.0
 40
6.0
  0
CIRCLE
  5
742
  8
0
 10
139.81142695246851
 20
202.79104167096671
 30
0.0
 40
6.0
  0
LINE
  5
79B
  8
1
 10
163.81142695246839
 20
50.791041670966791
 30
0.0
 11
163.81142695246859
 21
125.79104167096681
 31
0.0
  0
LINE
  5
79F
  8
1
 10
139.81142695246871
 20
141.79104167096679
 30
0.0
 11
139.81142695246851
 21
23.79104167096682
 31
0.0
  0
LINE
  5
7A1
  8
3
 10
158.68642695246871
 20
120.79104167096681
 30
0.0
 11
158.68642695246871
 21
86.791041670966806
 31
0.0
  0
LINE
  5
7A2
  8
3
 10
168.93642695246851
 20
120.79104167096681
 30
0.0
 11
168.93642695246851
 21
86.791041670966806
 31
0.0
  0
LINE
  5
7A3
  8
3
 10
134.68642695246851
 20
136.5925416709668
 30
0.0
 11
134.68642695246851
 21
107.29104167096681
 31
0.0
  0
LINE
  5
7A4
  8
3
 10
144.93642695246851
 20
136.5925416709668
 30
0.0
 11
144.93642695246851
 21
107.29104167096681
 31
0.0
  0
LINE
  5
7BC
  8
1
 10
125.81142695246849
 20
89.791041670966791
 30
0.0
 11
125.81142695246839
 21
67.791041670966834
 31
0.0
  0
LINE
  5
7C3
  8
0
 10
127.31142695246849
 20
90.79104167096682
 30
0.0
 11
152.31142695246851
 21
90.79104167096682
 31
0.0
  0
LINE
  5
7C4
  8
0
 10
152.81142695246851
 20
90.291041670966806
 30
0.0
 11
126.81142695246849
 21
90.291041670966806
 31
0.0
  0
LINE
  5
7C5
  8
0
 10
126.81142695246849
 20
87.29104167096682
 30
0.0
 11
152.81142695246851
 21
87.29104167096682
 31
0.0
  0
LINE
  5
7C6
  8
0
 10
150.78108206707131
 20
94.291041670966806
 30
0.0
 11
150.78108206707131
 21
106.15386076034009
 31
0.0
  0
LINE
  5
7C7
  8
0
 10
128.84177183786571
 20
94.291041670966806
 30
0.0
 11
128.84177183786571
 21
106.15386076034009
 31
0.0
  0
ARC
  5
7C8
  8
0
 10
131.58418561651641
 20
102.0106717633163
 30
0.0
 40
4.9685861568853591
 50
56.499069126495328
 51
123.5009308735017
  0
ARC
  5
7C9
  8
0
 10
148.03866828842069
 20
102.0106717633161
 30
0.0
 40
4.9685861568853991
 50
56.499069126498711
 51
123.5009308735017
  0
LINE
  5
7CA
  8
0
 10
130.81142695246851
 20
107.29104167096681
 30
0.0
 11
148.81142695246851
 21
107.29104167096681
 31
0.0
  0
LINE
  5
7CC
  8
0
 10
145.29625450976999
 20
94.291041670966806
 30
0.0
 11
145.29625450976999
 21
106.15386076034009
 31
0.0
  0
ARC
  5
7CD
  8
0
 10
139.81142695246851
 20
88.231789382570284
 30
0.0
 40
18.742571216436939
 50
72.983919892827714
 51
107.0160801071721
  0
LINE
  5
7CE
  8
0
 10
134.32659939516699
 20
94.291041670966806
 30
0.0
 11
134.32659939516699
 21
106.15386076034009
 31
0.0
  0
LINE
  5
7CF
  8
0
 10
126.81142695246849
 20
91.291041670966834
 30
0.0
 11
152.81142695246851
 21
91.291041670966834
 31
0.0
  0
LINE
  5
7D1
  8
0
 10
126.81142695246849
 20
94.291041670966806
 30
0.0
 11
152.81142695246851
 21
94.291041670966806
 31
0.0
  0
LINE
  5
7D3
  8
0
 10
167.41142695246859
 20
69.405401024911725
 30
0.0
 11
160.2114269524686
 21
69.405401024911725
 31
0.0
  0
LINE
  5
7D4
  8
0
 10
158.3887772216583
 20
120.79104167096681
 30
0.0
 11
169.234076683279
 21
120.79104167096681
 31
0.0
  0
LINE
  5
7D5
  8
0
 10
169.81142695246851
 20
119.79104167096681
 30
0.0
 11
157.81142695246851
 21
119.79104167096681
 31
0.0
  0
LINE
  5
7D6
  8
0
 10
154.81142695246851
 20
68.79104167096682
 30
0.0
 11
172.81142695246839
 21
68.79104167096682
 31
0.0
  0
LINE
  5
7D8
  8
0
 10
151.31142695246851
 20
55.79104167096682
 30
0.0
 11
176.31142695246859
 21
55.79104167096682
 31
0.0
  0
LINE
  5
7DA
  8
0
 10
151.31142695246851
 20
61.791041670966813
 30
0.0
 11
176.31142695246851
 21
61.791041670966813
 31
0.0
  0
LINE
  5
7DC
  8
0
 10
144.56142695246851
 20
69.625978161505827
 30
0.0
 11
135.06142695246851
 21
69.625978161505827
 31
0.0
  0
LINE
  5
7DD
  8
0
 10
144.73792695246851
 20
136.79104167096679
 30
0.0
 11
134.8849269524685
 21
136.79104167096679
 31
0.0
  0
LINE
  5
7DE
  8
0
 10
145.81142695246851
 20
135.7175416709668
 30
0.0
 11
133.81142695246851
 21
135.7175416709668
 31
0.0
  0
LINE
  5
7DF
  8
0
 10
128.81142695246851
 20
28.791041670966791
 30
0.0
 11
128.81142695246851
 21
36.79104167096682
 31
0.0
  0
LINE
  5
7E2
  8
0
 10
150.81142695246839
 20
36.79104167096682
 30
0.0
 11
128.81142695246851
 21
36.79104167096682
 31
0.0
  0
LINE
  5
7E4
  8
0
 10
128.87707283345449
 20
36.79104167096682
 30
0.0
 11
128.87707283345449
 21
33.191041670966797
 31
0.0
  0
LINE
  5
7E5
  8
0
 10
150.81142695246851
 20
36.79104167096682
 30
0.0
 11
150.81142695246851
 21
28.791041670966791
 31
0.0
  0
LINE
  5
7E7
  8
0
 10
150.7457810714827
 20
33.191041670966797
 30
0.0
 11
150.7457810714827
 21
36.79104167096682
 31
0.0
  0
LINE
  5
7E8
  8
0
 10
146.66142695246859
 20
45.397870355215218
 30
0.0
 11
146.66142695246819
 21
36.79104167096682
 31
0.0
  0
LINE
  5
7E9
  8
0
 10
132.9614269524686
 20
36.79104167096682
 30
0.0
 11
132.9614269524686
 21
45.397870355215218
 31
0.0
  0
LINE
  5
7EA
  8
0
 10
144.56142695246871
 20
46.712609087458873
 30
0.0
 11
135.06142695246851
 21
46.712609087458873
 31
0.0
  0
LINE
  5
7EC
  8
0
 10
150.81142695246851
 20
33.191041670966797
 30
0.0
 11
150.7457810714827
 21
33.191041670966797
 31
0.0
  0
POLYLINE
  5
7ED
  8
0
 66
     1
 10
0.0
 20
0.0
 30
0.0
 70
   128
  0
VERTEX
  5
2391
  8
0
 10
141.37094610913411
 20
28.79104167096682
 30
0.0
  0
VERTEX
  5
2392
  8
0
 10
143.5170059553563
 20
28.819244420951922
 30
0.0
  0
VERTEX
  5
2393
  8
0
 10
145.66306580157851
 20
29.003133486784641
 30
0.0
  0
VERTEX
  5
2394
  8
0
 10
147.09538211864239
 20
29.315349220016291
 30
0.0
  0
VERTEX
  5
2395
  8
0
 10
148.48909220895621
 20
29.882644423191611
 30
0.0
  0
VERTEX
  5
2396
  8
0
 10
149.65239982189181
 20
30.733262537035099
 30
0.0
  0
VERTEX
  5
2397
  8
0
 10
150.1165893958821
 20
31.279404541679579
 30
0.0
  0
VERTEX
  5
2398
  8
0
 10
150.48083701591051
 20
31.926491623802061
 30
0.0
  0
VERTEX
  5
2399
  8
0
 10
150.73782069303411
 20
32.968904832116671
 30
0.0
  0
VERTEX
  5
239A
  8
0
 10
150.7457810714827
 20
33.191041670966797
 30
0.0
  0
SEQEND
  5
239B
  8
0
  0
POLYLINE
  5
7F0
  8
0
 66
     1
 10
0.0
 20
0.0
 30
0.0
 70
   128
  0
VERTEX
  5
239C
  8
0
 10
128.87707283345449
 20
33.191041670966797
 30
0.0
  0
VERTEX
  5
239D
  8
0
 10
128.9687789795714
 20
32.440330328986533
 30
0.0
  0
VERTEX
  5
239E
  8
0
 10
129.37707896422029
 20
31.475193282149348
 30
0.0
  0
VERTEX
  5
239F
  8
0
 10
130.10605633225279
 20
30.604545486952361
 30
0.0
  0
VERTEX
  5
23A0
  8
0
 10
130.80480117367091
 20
30.075375240164021
 30
0.0
  0
VERTEX
  5
23A1
  8
0
 10
131.60109433566481
 20
29.653343568038281
 30
0.0
  0
VERTEX
  5
23A2
  8
0
 10
132.947108685757
 20
29.201678397751721
 30
0.0
  0
VERTEX
  5
23A3
  8
0
 10
134.37987734359621
 20
28.946134894465668
 30
0.0
  0
VERTEX
  5
23A4
  8
0
 10
136.3091196703046
 20
28.812507610538379
 30
0.0
  0
VERTEX
  5
23A5
  8
0
 10
138.25190779580291
 20
28.79104167096682
 30
0.0
  0
SEQEND
  5
23A6
  8
0
  0
LINE
  5
7F1
  8
0
 10
128.87707283345449
 20
33.191041670966797
 30
0.0
 11
128.81142695246851
 21
33.191041670966797
 31
0.0
  0
LINE
  5
7F2
  8
0
 10
150.81142695246851
 20
28.79104167096682
 30
0.0
 11
128.81142695246851
 21
28.79104167096682
 31
0.0
  0
LINE
  5
7F3
  8
0
 10
126.81142695246849
 20
90.291041670966806
 30
0.0
 11
126.81142695246849
 21
87.29104167096682
 31
0.0
  0
LINE
  5
7F4
  8
0
 10
152.81142695246851
 20
87.29104167096682
 30
0.0
 11
152.81142695246851
 21
90.291041670966806
 31
0.0
  0
LINE
  5
7F5
  8
0
 10
127.31142695246849
 20
90.79104167096682
 30
0.0
 11
126.81142695246849
 21
90.291041670966806
 31
0.0
  0
LINE
  5
7F6
  8
0
 10
152.81142695246851
 20
90.291041670966806
 30
0.0
 11
152.31142695246851
 21
90.79104167096682
 31
0.0
  0
LINE
  5
7F7
  8
0
 10
152.31142695246851
 20
86.791041670966806
 30
0.0
 11
152.81142695246851
 21
87.29104167096682
 31
0.0
  0
LINE
  5
7F8
  8
0
 10
126.81142695246849
 20
87.29104167096682
 30
0.0
 11
127.31142695246849
 21
86.791041670966806
 31
0.0
  0
LINE
  5
7F9
  8
0
 10
130.81142695246851
 20
107.29104167096681
 30
0.0
 11
128.84177183786571
 21
106.15386076034009
 31
0.0
  0
LINE
  5
7FA
  8
0
 10
150.78108206707131
 20
106.15386076034009
 30
0.0
 11
148.81142695246851
 21
107.29104167096681
 31
0.0
  0
POLYLINE
  5
7FB
  8
0
 66
     1
 10
0.0
 20
0.0
 30
0.0
 70
   128
  0
VERTEX
  5
23A7
  8
0
 10
151.71575340677941
 20
90.79104167096682
 30
0.0
  0
VERTEX
  5
23A8
  8
0
 10
152.15157790621441
 20
90.983571731636957
 30
0.0
  0
VERTEX
  5
23A9
  8
0
 10
152.81142695246851
 20
91.291041670966834
 30
0.0
  0
SEQEND
  5
23AA
  8
0
  0
POLYLINE
  5
7FC
  8
0
 66
     1
 10
0.0
 20
0.0
 30
0.0
 70
   128
  0
VERTEX
  5
23AB
  8
0
 10
126.81142695246849
 20
91.291041670966834
 30
0.0
  0
VERTEX
  5
23AC
  8
0
 10
127.4712759987226
 20
90.983571731636957
 30
0.0
  0
VERTEX
  5
23AD
  8
0
 10
127.9071004981576
 20
90.79104167096682
 30
0.0
  0
SEQEND
  5
23AE
  8
0
  0
LINE
  5
7FD
  8
0
 10
152.81142695246851
 20
91.291041670966834
 30
0.0
 11
152.81142695246851
 21
94.291041670966806
 31
0.0
  0
LINE
  5
7FE
  8
0
 10
126.81142695246849
 20
94.291041670966806
 30
0.0
 11
126.81142695246849
 21
91.291041670966834
 31
0.0
  0
LINE
  5
7FF
  8
0
 10
160.2114269524686
 20
69.405401024911725
 30
0.0
 11
160.2114269524686
 21
68.79104167096682
 31
0.0
  0
LINE
  5
800
  8
0
 10
167.41142695246859
 20
68.79104167096682
 30
0.0
 11
167.41142695246859
 21
69.405401024911725
 31
0.0
  0
LINE
  5
801
  8
0
 10
167.41142695246859
 20
69.405401024911725
 30
0.0
 11
169.81142695246851
 21
70.79104167096682
 31
0.0
  0
LINE
  5
802
  8
0
 10
157.81142695246851
 20
70.79104167096682
 30
0.0
 11
160.2114269524686
 21
69.405401024911725
 31
0.0
  0
LINE
  5
803
  8
0
 10
158.3887772216583
 20
120.79104167096681
 30
0.0
 11
157.81142695246851
 21
119.79104167096681
 31
0.0
  0
LINE
  5
804
  8
0
 10
169.81142695246851
 20
119.79104167096681
 30
0.0
 11
169.234076683279
 21
120.79104167096681
 31
0.0
  0
LINE
  5
805
  8
0
 10
169.81142695246851
 20
86.791041670966806
 30
0.0
 11
169.81142695246851
 21
119.79104167096681
 31
0.0
  0
LINE
  5
806
  8
0
 10
157.81142695246851
 20
119.79104167096681
 30
0.0
 11
157.81142695246851
 21
86.791041670966806
 31
0.0
  0
LINE
  5
807
  8
0
 10
172.81142695246851
 20
61.791041670966813
 30
0.0
 11
172.81142695246851
 21
68.79104167096682
 31
0.0
  0
LINE
  5
808
  8
0
 10
154.81142695246851
 20
68.79104167096682
 30
0.0
 11
154.81142695246851
 21
61.791041670966813
 31
0.0
  0
LINE
  5
809
  8
0
 10
176.31142695246851
 20
55.79104167096682
 30
0.0
 11
176.31142695246851
 21
61.791041670966813
 31
0.0
  0
LINE
  5
80A
  8
0
 10
151.31142695246851
 20
61.791041670966813
 30
0.0
 11
151.31142695246851
 21
55.79104167096682
 31
0.0
  0
LINE
  5
80B
  8
0
 10
135.06142695246851
 20
69.625978161505827
 30
0.0
 11
135.06142695246851
 21
46.712609087458873
 31
0.0
  0
LINE
  5
80C
  8
0
 10
144.56142695246851
 20
46.712609087458873
 30
0.0
 11
144.56142695246851
 21
69.625978161505827
 31
0.0
  0
LINE
  5
80D
  8
0
 10
133.81142695246851
 20
135.7175416709668
 30
0.0
 11
133.81142695246851
 21
107.29104167096681
 31
0.0
  0
LINE
  5
80E
  8
0
 10
145.81142695246851
 20
107.29104167096681
 30
0.0
 11
145.81142695246851
 21
135.7175416709668
 31
0.0
  0
LINE
  5
80F
  8
0
 10
144.56142695246851
 20
69.625978161505827
 30
0.0
 11
145.23407668327869
 21
70.79104167096682
 31
0.0
  0
LINE
  5
810
  8
0
 10
134.38877722165819
 20
70.79104167096682
 30
0.0
 11
135.06142695246851
 21
69.625978161505827
 31
0.0
  0
LINE
  5
811
  8
0
 10
134.8849269524685
 20
136.79104167096679
 30
0.0
 11
133.81142695246851
 21
135.7175416709668
 31
0.0
  0
LINE
  5
812
  8
0
 10
145.81142695246851
 20
135.7175416709668
 30
0.0
 11
144.73792695246851
 21
136.79104167096679
 31
0.0
  0
ARC
  5
813
  8
0
 10
139.81142695246851
 20
36.791041670966372
 30
0.0
 40
11.000000000000361
 50
51.484430947522519
 51
64.41699802260122
  0
ARC
  5
814
  8
0
 10
139.81142695246851
 20
36.791041670966372
 30
0.0
 40
11.000000000000391
 50
115.58300197739879
 51
128.51556905247739
  0
LINE
  5
FBA
  8
3
 10
168.93642695246839
 20
70.79104167096682
 30
0.0
 11
168.93642695246851
 21
70.285860185425918
 31
0.0
  0
LINE
  5
FBB
  8
3
 10
158.68642695246871
 20
70.79104167096682
 30
0.0
 11
158.68642695246871
 21
70.285860185425918
 31
0.0
  0
LINE
  5
FBC
  8
3
 10
144.93642695246851
 20
70.79104167096682
 30
0.0
 11
144.93642695246851
 21
70.275497214344114
 31
0.0
  0
LINE
  5
FBD
  8
3
 10
134.68642695246851
 20
70.79104167096682
 30
0.0
 11
134.68642695246851
 21
70.275497214344114
 31
0.0
  0
LINE
  5
FD8
  8
3
 10
50.93642695246853
 20
70.791041670966834
 30
0.0
 11
50.93642695246853
 21
70.275497214344142
 31
0.0
  0
LINE
  5
FD9
  8
3
 10
40.68642695246853
 20
70.79104167096682
 30
0.0
 11
40.68642695246853
 21
70.275497214344142
 31
0.0
  0
LINE
  5
1007
  8
3
 10
245.93642695246879
 20
136.5925416709668
 30
0.0
 11
245.93642695246879
 21
86.791041670966848
 31
0.0
  0
LINE
  5
1008
  8
3
 10
235.68642695246899
 20
136.59254167096719
 30
0.0
 11
235.68642695246899
 21
86.791041670966763
 31
0.0
  0
LINE
  5
1009
  8
3
 10
245.93642695246839
 20
75.79104167096682
 30
0.0
 11
245.93642695246859
 21
70.275497214344142
 31
0.0
  0
LINE
  5
100A
  8
3
 10
235.68642695246851
 20
75.79104167096682
 30
0.0
 11
235.68642695246851
 21
70.275497214344142
 31
0.0
  0
LINE
  5
101A
  8
1
 10
240.81142695246859
 20
141.79104167096679
 30
0.0
 11
240.81142695246879
 21
23.791041670966791
 31
0.0
  0
LINE
  5
1030
  8
1
 10
163.81142695246851
 20
211.79104167096679
 30
0.0
 11
163.81142695246851
 21
193.79104167096679
 31
0.0
  0
LINE
  5
1031
  8
1
 10
139.81142695246851
 20
186.79104167096671
 30
0.0
 11
139.81142695246851
 21
218.79104167096691
 31
0.0
  0
LINE
  5
1046
  8
1
 10
125.81142695246849
 20
212.29104167096679
 30
0.0
 11
125.81142695246849
 21
193.29104167096679
 31
0.0
  0
LINE
  5
178A
  8
0
 10
172.81142695246851
 20
86.791041670966848
 30
0.0
 11
172.81142695246851
 21
70.79104167096682
 31
0.0
  0
LINE
  5
178C
  8
0
 10
174.81142695246851
 20
86.791041670966848
 30
0.0
 11
174.81142695246851
 21
70.79104167096682
 31
0.0
  0
LINE
  5
178D
  8
0
 10
123.9357826054506
 20
86.791041670966848
 30
0.0
 11
123.9357826054506
 21
70.79104167096682
 31
0.0
  0
LINE
  5
1790
  8
0
 10
111.81142695246849
 20
83.791041670966834
 30
0.0
 11
111.81142695246849
 21
70.79104167096682
 31
0.0
  0
LINE
  5
1791
  8
0
 10
117.00757937517569
 20
86.791041670966848
 30
0.0
 11
111.81142695246849
 21
83.791041670966834
 31
0.0
  0
LINE
  5
1792
  8
0
 10
117.00757937517569
 20
86.791041670966848
 30
0.0
 11
174.81142695246851
 21
86.791041670966848
 31
0.0
  0
LINE
  5
1793
  8
0
 10
111.81142695246849
 20
70.79104167096682
 30
0.0
 11
174.81142695246851
 21
70.79104167096682
 31
0.0
  0
LINE
  5
17A5
  8
2
 10
174.81142695246851
 20
75.79104167096682
 30
0.0
 11
139.81142695246851
 21
75.79104167096682
 31
0.0
  0
LINE
  5
17BC
  8
2
 10
119.31142695246849
 20
86.791041670966848
 30
0.0
 11
119.31142695246849
 21
70.79104167096682
 31
0.0
  0
LINE
  5
17BD
  8
2
 10
146.31142695246851
 20
75.79104167096682
 30
0.0
 11
146.31142695246851
 21
86.791041670966848
 31
0.0
  0
ARC
  5
1882
  8
0
 10
125.81142695246849
 20
202.79104167096691
 30
0.0
 40
6.5
 50
90.0
 51
270.0
  0
LINE
  5
1883
  8
0
 10
128.55309670327091
 20
196.29104167096691
 30
0.0
 11
125.81142695246849
 21
196.29104167096691
 31
0.0
  0
LINE
  5
1884
  8
0
 10
125.81142695246849
 20
209.29104167096679
 30
0.0
 11
128.5530967032708
 21
209.29104167096691
 31
0.0
  0
LINE
  5
1885
  8
0
 10
123.9357826054506
 20
218.79104167096699
 30
0.0
 11
172.81142695246851
 21
218.79104167096699
 31
0.0
  0
LINE
  5
1886
  8
0
 10
172.81142695246851
 20
218.79104167096699
 30
0.0
 11
174.81142695246851
 21
216.79104167096719
 31
0.0
  0
LINE
  5
1887
  8
0
 10
174.81142695246851
 20
216.79104167096719
 30
0.0
 11
174.81142695246851
 21
188.79104167096719
 31
0.0
  0
LINE
  5
1888
  8
0
 10
172.81142695246851
 20
186.79104167096699
 30
0.0
 11
174.81142695246851
 21
188.79104167096719
 31
0.0
  0
LINE
  5
1889
  8
0
 10
123.9357826054506
 20
186.79104167096699
 30
0.0
 11
172.81142695246851
 21
186.79104167096699
 31
0.0
  0
LINE
  5
188A
  8
0
 10
111.81142695246849
 20
193.79104167096679
 30
0.0
 11
123.9357826054506
 21
186.79104167096699
 31
0.0
  0
LINE
  5
188B
  8
0
 10
117.00757937517569
 20
190.79104167096651
 30
0.0
 11
117.0075793751755
 21
214.79104167096699
 31
0.0
  0
LINE
  5
188C
  8
0
 10
111.81142695246849
 20
211.79104167096659
 30
0.0
 11
123.9357826054506
 21
218.79104167096699
 31
0.0
  0
LINE
  5
188E
  8
0
 10
111.81142695246849
 20
193.79104167096679
 30
0.0
 11
111.81142695246849
 21
211.79104167096691
 31
0.0
  0
ARC
  5
18B0
  8
2
 10
139.81142695246851
 20
202.79104167096679
 30
0.0
 40
6.500000000000056
 50
270.0
 51
90.0
  0
LINE
  5
18B2
  8
2
 10
174.81142695246851
 20
196.2910416709671
 30
0.0
 11
128.5530967032708
 21
196.29104167096679
 31
0.0
  0
LINE
  5
18B3
  8
2
 10
174.81142695246851
 20
209.2910416709671
 30
0.0
 11
128.55309670327071
 21
209.29104167096679
 31
0.0
  0
LINE
  5
1908
  8
0
 10
36.811426952468757
 20
83.791041670966536
 30
0.0
 11
36.811426952468757
 21
70.791041670966791
 31
0.0
  0
LINE
  5
190A
  8
0
 10
29.81142695246854
 20
86.791041670966806
 30
0.0
 11
29.81142695246854
 21
70.791041670966791
 31
0.0
  0
LINE
  5
190C
  8
0
 10
33.811426952468537
 20
86.791041670966806
 30
0.0
 11
36.811426952468757
 21
83.791041670966536
 31
0.0
  0
LINE
  5
190D
  8
0
 10
57.811426952468992
 20
86.791041670966806
 30
0.0
 11
54.811426952468771
 21
83.791041670966834
 31
0.0
  0
LINE
  5
190E
  8
0
 10
54.811426952468771
 20
83.791041670966834
 30
0.0
 11
36.811426952468757
 21
83.791041670966536
 31
0.0
  0
LINE
  5
1910
  8
0
 10
54.811426952468771
 20
83.791041670966834
 30
0.0
 11
54.811426952468771
 21
70.791041670966791
 31
0.0
  0
LINE
  5
1912
  8
0
 10
61.811426952468537
 20
86.791041670966806
 30
0.0
 11
61.811426952468537
 21
70.791041670966791
 31
0.0
  0
LINE
  5
1913
  8
0
 10
29.81142695246843
 20
86.791041670966806
 30
0.0
 11
61.811426952468537
 21
86.791041670966806
 31
0.0
  0
LINE
  5
1914
  8
0
 10
29.81142695246854
 20
70.791041670966791
 30
0.0
 11
61.811426952468537
 21
70.791041670966791
 31
0.0
  0
LINE
  5
1A2C
  8
0
 10
254.81142695246891
 20
86.791041670966806
 30
0.0
 11
254.81142695246891
 21
70.791041670966791
 31
0.0
  0
LINE
  5
1A2E
  8
0
 10
256.81142695246871
 20
86.791041670966806
 30
0.0
 11
256.81142695246871
 21
70.791041670966791
 31
0.0
  0
LINE
  5
1A30
  8
0
 10
226.81142695246891
 20
86.791041670966806
 30
0.0
 11
226.81142695246891
 21
70.791041670966791
 31
0.0
  0
LINE
  5
1A36
  8
0
 10
224.81142695246871
 20
86.791041670966806
 30
0.0
 11
224.81142695246871
 21
70.791041670966791
 31
0.0
  0
LINE
  5
1A37
  8
0
 10
224.81142695246871
 20
70.791041670966791
 30
0.0
 11
256.81142695246871
 21
70.791041670966791
 31
0.0
  0
ARC
  5
1DBF
  8
0
 10
163.81142695246839
 20
202.7910416709675
 30
0.0
 40
12.50000000000006
 50
331.64236342367462
 51
28.357636576327671
  0
TEXT
  5
22EE
  8
0
 62
     3
 10
0.0
 20
0.0
 30
0.0
 40
10.0
  1
BJ153-12063B1-T
  7
STANDARD1
  0
ENDSEC
  0
EOF
