  0
SECTION
  2
HEADER
  9
$ACADVER
  1
AC1009
  9
$INSBASE
 10
82.638099999999994
 20
103.82319099999999
 30
0.0
  9
$EXTMIN
 10
0.0
 20
-2.960436562073669
 30
0.0
  9
$EXTMAX
 10
221.31568182357509
 20
170.0159235448991
 30
0.0
  9
$LIMMIN
 10
0.0
 20
0.0
  9
$LIMMAX
 10
375.0
 20
270.0
  9
$ORTHOMODE
 70
     1
  9
$REGENMODE
 70
     1
  9
$FILLMODE
 70
     1
  9
$QTEXTMODE
 70
     0
  9
$MIRRTEXT
 70
     0
  9
$DRAGMODE
 70
     2
  9
$LTSCALE
 40
10.0
  9
$OSMODE
 70
  3071
  9
$ATTMODE
 70
     1
  9
$TEXTSIZE
 40
0.06
  9
$TRACEWID
 40
0.05
  9
$TEXTSTYLE
  7
STANDARD
  9
$CLAYER
  8
0
  9
$CELTYPE
  6
BYLAYER
  9
$CECOLOR
 62
   256
  9
$DIMSCALE
 40
1.0
  9
$DIMASZ
 40
3.0
  9
$DIMEXO
 40
2.0
  9
$DIMDLI
 40
10.0
  9
$DIMRND
 40
0.0
  9
$DIMDLE
 40
0.0
  9
$DIMEXE
 40
2.0
  9
$DIMTP
 40
0.0
  9
$DIMTM
 40
0.0
  9
$DIMTXT
 40
3.0
  9
$DIMCEN
 40
0.0
  9
$DIMTSZ
 40
0.0
  9
$DIMTOL
 70
     0
  9
$DIMLIM
 70
     0
  9
$DIMTIH
 70
     0
  9
$DIMTOH
 70
     0
  9
$DIMSE1
 70
     0
  9
$DIMSE2
 70
     0
  9
$DIMTAD
 70
     1
  9
$DIMZIN
 70
     0
  9
$DIMBLK
  1

  9
$DIMASO
 70
     0
  9
$DIMSHO
 70
     0
  9
$DIMPOST
  1

  9
$DIMAPOST
  1

  9
$DIMALT
 70
     0
  9
$DIMALTD
 70
     2
  9
$DIMALTF
 40
25.399999999999999
  9
$DIMLFAC
 40
1.0
  9
$DIMTOFL
 70
     1
  9
$DIMTVP
 40
1.6000000000000001
  9
$DIMTIX
 70
     1
  9
$DIMSOXD
 70
     0
  9
$DIMSAH
 70
     0
  9
$DIMBLK1
  1

  9
$DIMBLK2
  1

  9
$DIMSTYLE
  2
STANDARD
  9
$DIMCLRD
 70
     0
  9
$DIMCLRE
 70
     0
  9
$DIMCLRT
 70
     0
  9
$DIMTFAC
 40
1.0
  9
$DIMGAP
 40
0.09
  9
$LUNITS
 70
     2
  9
$LUPREC
 70
     4
  9
$SKETCHINC
 40
0.1
  9
$FILLETRAD
 40
0.0
  9
$AUNITS
 70
     0
  9
$AUPREC
 70
     4
  9
$MENU
  1
E:\r13\win\SUPPORT\ACAD
  9
$ELEVATION
 40
0.0
  9
$PELEVATION
 40
0.0
  9
$THICKNESS
 40
0.0
  9
$LIMCHECK
 70
     0
  9
$BLIPMODE
 70
     0
  9
$CHAMFERA
 40
0.0
  9
$CHAMFERB
 40
0.0
  9
$SKPOLY
 70
     0
  9
$TDCREATE
 40
2449840.3466898152
  9
$TDUPDATE
 40
2456597.6348333559
  9
$TDINDWG
 40
0.0078377315
  9
$TDUSRTIMER
 40
0.0078377315
  9
$USRTIMER
 70
     1
  9
$ANGBASE
 50
0.0
  9
$ANGDIR
 70
     0
  9
$PDMODE
 70
     1
  9
$PDSIZE
 40
0.0
  9
$PLINEWID
 40
0.0
  9
$COORDS
 70
     1
  9
$SPLFRAME
 70
     0
  9
$SPLINETYPE
 70
     6
  9
$SPLINESEGS
 70
     8
  9
$ATTDIA
 70
     0
  9
$ATTREQ
 70
     1
  9
$HANDLING
 70
     1
  9
$HANDSEED
  5
626
  9
$SURFTAB1
 70
     6
  9
$SURFTAB2
 70
     6
  9
$SURFTYPE
 70
     6
  9
$SURFU
 70
     6
  9
$SURFV
 70
     6
  9
$UCSNAME
  2

  9
$UCSORG
 10
0.0
 20
0.0
 30
0.0
  9
$UCSXDIR
 10
1.0
 20
0.0
 30
0.0
  9
$UCSYDIR
 10
0.0
 20
1.0
 30
0.0
  9
$PUCSNAME
  2

  9
$PUCSORG
 10
0.0
 20
0.0
 30
0.0
  9
$PUCSXDIR
 10
1.0
 20
0.0
 30
0.0
  9
$PUCSYDIR
 10
0.0
 20
1.0
 30
0.0
  9
$USERI1
 70
     3
  9
$USERI2
 70
     1
  9
$USERI3
 70
     0
  9
$USERI4
 70
     0
  9
$USERI5
 70
     0
  9
$USERR1
 40
1.0
  9
$USERR2
 40
3.0
  9
$USERR3
 40
3.0
  9
$USERR4
 40
3.0
  9
$USERR5
 40
10.0
  9
$WORLDVIEW
 70
     1
  9
$SHADEDGE
 70
     3
  9
$SHADEDIF
 70
    70
  9
$TILEMODE
 70
     1
  9
$MAXACTVP
 70
    16
  9
$PLIMCHECK
 70
     0
  9
$PEXTMIN
 10
1.0000000000000000E+020
 20
1.0000000000000000E+020
 30
1.0000000000000000E+020
  9
$PEXTMAX
 10
-1.0000000000000000E+020
 20
-1.0000000000000000E+020
 30
-1.0000000000000000E+020
  9
$PLIMMIN
 10
0.0
 20
0.0
  9
$PLIMMAX
 10
12.0
 20
9.0
  9
$UNITMODE
 70
     0
  9
$VISRETAIN
 70
     0
  9
$PLINEGEN
 70
     0
  9
$PSLTSCALE
 70
     0
  0
ENDSEC
  0
SECTION
  2
TABLES
  0
TABLE
  2
VPORT
 70
     1
  0
VPORT
  2
*ACTIVE
 70
     0
 10
0.0
 20
0.0
 11
1.0
 21
1.0
 12
195.0581083320873
 22
133.5127261426681
 13
0.0
 23
0.0
 14
5.0
 24
5.0
 15
10.0
 25
10.0
 16
0.0
 26
0.0
 36
1.0
 17
0.0
 27
0.0
 37
0.0
 40
275.42274993631997
 41
1.831871345029239
 42
50.0
 43
0.0
 44
0.0
 50
0.0
 51
0.0
 71
     0
 72
   100
 73
     1
 74
     0
 75
     0
 76
     0
 77
     0
 78
     0
  0
ENDTAB
  0
TABLE
  2
LTYPE
 70
     4
  0
LTYPE
  2
CONTINUOUS
 70
     0
  3
Solid Line
 72
    65
 73
     0
 40
0.0
  0
LTYPE
  2
CENTER
 70
     0
  3
____ _ ____ _ ____ _ ____ _ ____ _ ____ _ ____
 72
    65
 73
     4
 40
2.0
 49
1.25
 49
-0.25
 49
0.25
 49
-0.25
  0
LTYPE
  2
HIDDEN
 70
     0
  3
__ __ __ __ __ __ __ __ __ __ __ __ __ __ __ __
 72
    65
 73
     2
 40
0.375
 49
0.25
 49
-0.125
  0
LTYPE
  2
PHANTOM2
 70
     0
  3
___ _ _ ___ _ _ ___ _ _ ___ _ _
 72
    65
 73
     6
 40
1.25
 49
0.625
 49
-0.125
 49
0.125
 49
-0.125
 49
0.125
 49
-0.125
  0
ENDTAB
  0
TABLE
  2
LAYER
 70
     4
  0
LAYER
  2
0
 70
     0
 62
     7
  6
CONTINUOUS
  0
LAYER
  2
1
 70
     0
 62
     1
  6
CENTER
  0
LAYER
  2
2
 70
     0
 62
     2
  6
HIDDEN
  0
LAYER
  2
3
 70
     0
 62
     3
  6
CONTINUOUS
  0
ENDTAB
  0
TABLE
  2
STYLE
 70
     2
  0
STYLE
  2
STANDARD
 70
     0
 40
0.0
 41
1.0
 50
0.0
 71
     0
 42
0.06
  3
TXT
  4
BIGFONT
  0
STYLE
  2
STANDARD1
 70
     0
 40
0.0
 41
1.0
 50
0.0
 71
     0
 42
3.0
  3
txt
  4

  0
ENDTAB
  0
TABLE
  2
VIEW
 70
     0
  0
ENDTAB
  0
TABLE
  2
UCS
 70
     0
  0
ENDTAB
  0
TABLE
  2
APPID
 70
     4
  0
APPID
  2
ACAD
 70
     0
  0
APPID
  2
ACAD_EXEMPT_FROM_CAD_STANDARDS
 70
     0
  0
APPID
  2
ACAD_MLEADERVER
 70
     0
  0
APPID
  2
ACAD_NAV_VCDISPLAY
 70
     0
  0
ENDTAB
  0
TABLE
  2
DIMSTYLE
 70
     1
  0
DIMSTYLE
  2
STANDARD
 70
     0
  3

  4

  5

  6

  7

 40
1.0
 41
0.18
 42
0.0625
 43
0.38
 44
0.18
 45
0.0
 46
0.0
 47
0.0
 48
0.0
140
0.18
141
0.09
142
0.0
143
25.399999999999999
144
1.0
145
0.0
146
1.0
147
0.09
 71
     0
 72
     0
 73
     1
 74
     1
 75
     0
 76
     0
 77
     0
 78
     0
170
     0
171
     2
172
     0
173
     0
174
     0
175
     0
176
     0
177
     0
178
     0
  0
ENDTAB
  0
ENDSEC
  0
SECTION
  2
BLOCKS
  0
BLOCK
  8
0
  2
$MODEL_SPACE
 70
     0
 10
0.0
 20
0.0
 30
0.0
  3
$MODEL_SPACE
  1

  0
ENDBLK
  5
20F
  8
0
  0
BLOCK
 67
     1
  8
0
  2
$PAPER_SPACE
 70
     0
 10
0.0
 20
0.0
 30
0.0
  3
$PAPER_SPACE
  1

  0
ENDBLK
  5
20D
 67
     1
  8
0
  0
ENDSEC
  0
SECTION
  2
ENTITIES
  0
LINE
  5
27D
  8
0
 10
149.81568182357509
 20
81.420233432594713
 30
0.0
 11
88.815681823575105
 21
81.420233432594713
 31
0.0
  0
LINE
  5
27E
  8
0
 10
87.815681823575119
 20
82.420233432594728
 30
0.0
 11
87.815681823575119
 21
90.420233432594713
 31
0.0
  0
LINE
  5
27F
  8
0
 10
93.011833823575117
 20
93.420233432594728
 30
0.0
 11
149.81568182357509
 21
93.420233432594728
 31
0.0
  0
LINE
  5
280
  8
0
 10
150.81568182357509
 20
92.420233432594728
 30
0.0
 11
150.81568182357509
 21
82.420233432594728
 31
0.0
  0
LINE
  5
283
  8
1
 10
99.815681823575133
 20
78.420233432594728
 30
0.0
 11
99.815681823575133
 21
96.420233432594742
 31
0.0
  0
LINE
  5
284
  8
2
 10
150.81568182357509
 20
86.420233432594713
 30
0.0
 11
126.8156818235751
 21
86.420233432594713
 31
0.0
  0
LINE
  5
285
  8
2
 10
131.31568182357509
 20
86.420233432594713
 30
0.0
 11
131.31568182357509
 21
93.420233432594728
 31
0.0
  0
LINE
  5
286
  8
2
 10
95.315681823575119
 20
81.420233432594713
 30
0.0
 11
95.315681823575119
 21
93.420233432594728
 31
0.0
  0
LINE
  5
287
  8
2
 10
146.81568182357509
 20
86.420233432594713
 30
0.0
 11
146.81568182357509
 21
93.420233432594728
 31
0.0
  0
LINE
  5
288
  8
2
 10
146.13918182357509
 20
86.420233432594713
 30
0.0
 11
146.13918182357509
 21
93.420233432594728
 31
0.0
  0
LINE
  5
289
  8
2
 10
139.49218182357509
 20
86.420233432594713
 30
0.0
 11
139.49218182357509
 21
93.420233432594728
 31
0.0
  0
LINE
  5
28A
  8
2
 10
138.81568182357509
 20
86.420233432594713
 30
0.0
 11
138.81568182357509
 21
93.420233432594728
 31
0.0
  0
LINE
  5
28B
  8
0
 10
87.815681823575119
 20
90.420233432594713
 30
0.0
 11
93.011833823575117
 21
93.420233432594728
 31
0.0
  0
LINE
  5
28C
  8
0
 10
149.81568182357509
 20
93.420233432594728
 30
0.0
 11
150.81568182357509
 21
92.420233432594728
 31
0.0
  0
LINE
  5
28D
  8
0
 10
150.81568182357509
 20
82.420233432594728
 30
0.0
 11
149.81568182357509
 21
81.420233432594713
 31
0.0
  0
LINE
  5
28E
  8
0
 10
88.815681823575105
 20
81.420233432594713
 30
0.0
 11
87.815681823575119
 21
82.420233432594728
 31
0.0
  0
LINE
  5
28F
  8
0
 10
95.561165823575124
 20
93.420233432594728
 30
0.0
 11
95.561165823575124
 21
81.420233432594713
 31
0.0
  0
LINE
  5
290
  8
3
 10
38.415681823575113
 20
58.420233432594728
 30
0.0
 11
38.415681823575099
 21
51.420233432594728
 31
0.0
  0
LINE
  5
291
  8
3
 10
45.215681823575117
 20
58.420233432594728
 30
0.0
 11
45.215681823575117
 21
51.420233432594728
 31
0.0
  0
LINE
  5
292
  8
3
 10
45.815681823575119
 20
59.459463432594731
 30
0.0
 11
45.215681823575117
 21
58.420233432594728
 31
0.0
  0
LINE
  5
293
  8
0
 10
37.815681823575119
 20
58.420233432594728
 30
0.0
 11
45.815681823575119
 21
58.420233432594728
 31
0.0
  0
LINE
  5
294
  8
3
 10
37.815681823575119
 20
59.459463432594731
 30
0.0
 11
38.415681823575113
 21
58.420233432594728
 31
0.0
  0
LINE
  5
295
  8
1
 10
41.815681823575112
 20
131.4202334325947
 30
0.0
 11
41.815681823575112
 21
21.420233432594731
 31
0.0
  0
LINE
  5
296
  8
3
 10
45.215681823575117
 20
107.0519814325947
 30
0.0
 11
45.215681823575117
 21
125.8202334325947
 31
0.0
  0
LINE
  5
299
  8
0
 10
37.815681823575119
 20
125.2202334325947
 30
0.0
 11
45.815681823575119
 21
125.2202334325947
 31
0.0
  0
LINE
  5
29A
  8
0
 10
37.815681823575119
 20
27.620233432594731
 30
0.0
 11
45.815681823575119
 21
27.620233432594731
 31
0.0
  0
LINE
  5
29B
  8
0
 10
44.615681823575109
 20
26.420233432594731
 30
0.0
 11
45.815681823575119
 21
27.620233432594731
 31
0.0
  0
LINE
  5
29C
  8
0
 10
37.815681823575119
 20
27.620233432594731
 30
0.0
 11
39.015681823575122
 21
26.420233432594731
 31
0.0
  0
LINE
  5
29D
  8
0
 10
44.615681823575109
 20
126.4202334325947
 30
0.0
 11
45.815681823575119
 21
125.2202334325947
 31
0.0
  0
LINE
  5
29E
  8
0
 10
37.815681823575119
 20
125.2202334325947
 30
0.0
 11
39.015681823575122
 21
126.4202334325947
 31
0.0
  0
LINE
  5
29F
  8
0
 10
45.815681823575119
 20
125.2202334325947
 30
0.0
 11
45.815681823575119
 21
107.0519814325947
 31
0.0
  0
LINE
  5
2A0
  8
0
 10
39.015681823575122
 20
126.4202334325947
 30
0.0
 11
44.615681823575109
 21
126.4202334325947
 31
0.0
  0
LINE
  5
2A1
  8
0
 10
37.815681823575119
 20
27.620233432594731
 30
0.0
 11
37.815681823575119
 21
46.420233432594728
 31
0.0
  0
LINE
  5
2A2
  8
0
 10
44.615681823575109
 20
26.420233432594731
 30
0.0
 11
39.015681823575122
 21
26.420233432594731
 31
0.0
  0
LINE
  5
2A3
  8
3
 10
38.415681823575113
 20
107.0519814325947
 30
0.0
 11
38.415681823575113
 21
125.8202334325947
 31
0.0
  0
LINE
  5
2A5
  8
3
 10
208.41568182357511
 20
56.613688971056263
 30
0.0
 11
208.41568182357511
 21
55.420233432594713
 31
0.0
  0
LINE
  5
2A6
  8
3
 10
215.21568182357501
 20
56.613688971056263
 30
0.0
 11
215.21568182357501
 21
55.420233432594713
 31
0.0
  0
LINE
  5
2AA
  8
1
 10
211.81568182357509
 20
131.4202334325947
 30
0.0
 11
211.81568182357509
 21
21.420233432594731
 31
0.0
  0
LINE
  5
2AB
  8
3
 10
215.2156818235751
 20
109.02023343259469
 30
0.0
 11
215.2156818235751
 21
125.8202334325947
 31
0.0
  0
LINE
  5
2AE
  8
0
 10
207.81568182357509
 20
125.2202334325947
 30
0.0
 11
215.81568182357509
 21
125.2202334325947
 31
0.0
  0
LINE
  5
2AF
  8
0
 10
207.81568182357509
 20
27.620233432594731
 30
0.0
 11
215.81568182357509
 21
27.620233432594731
 31
0.0
  0
LINE
  5
2B0
  8
0
 10
214.6156818235751
 20
26.420233432594731
 30
0.0
 11
215.81568182357509
 21
27.620233432594731
 31
0.0
  0
LINE
  5
2B1
  8
0
 10
207.81568182357509
 20
27.620233432594731
 30
0.0
 11
209.01568182357511
 21
26.420233432594731
 31
0.0
  0
LINE
  5
2B2
  8
0
 10
214.6156818235751
 20
126.4202334325947
 30
0.0
 11
215.81568182357509
 21
125.2202334325947
 31
0.0
  0
LINE
  5
2B3
  8
0
 10
207.81568182357509
 20
125.2202334325947
 30
0.0
 11
209.01568182357511
 21
126.4202334325947
 31
0.0
  0
LINE
  5
2B4
  8
0
 10
215.81568182357509
 20
125.2202334325947
 30
0.0
 11
215.81568182357509
 21
93.420233432594685
 31
0.0
  0
LINE
  5
2B5
  8
0
 10
209.01568182357511
 20
126.4202334325947
 30
0.0
 11
214.6156818235751
 21
126.4202334325947
 31
0.0
  0
LINE
  5
2B6
  8
0
 10
207.81568182357509
 20
27.620233432594731
 30
0.0
 11
207.81568182357509
 21
46.420233432594713
 31
0.0
  0
LINE
  5
2B7
  8
0
 10
214.6156818235751
 20
26.420233432594731
 30
0.0
 11
209.01568182357511
 21
26.420233432594731
 31
0.0
  0
LINE
  5
2B8
  8
3
 10
208.41568182357511
 20
109.02023343259469
 30
0.0
 11
208.41568182357511
 21
125.8202334325947
 31
0.0
  0
LINE
  5
2C5
  8
0
 10
214.51568182357511
 20
56.209543432594728
 30
0.0
 11
214.51568182357511
 21
55.420233432594721
 31
0.0
  0
LINE
  5
2C7
  8
0
 10
215.81568182357509
 20
56.960099432594731
 30
0.0
 11
214.51568182357511
 21
56.209543432594728
 31
0.0
  0
LINE
  5
2C8
  8
0
 10
209.1156818235751
 20
56.209543432594728
 30
0.0
 11
209.1156818235751
 21
55.420233432594721
 31
0.0
  0
LINE
  5
2C9
  8
0
 10
209.1156818235751
 20
56.209543432594728
 30
0.0
 11
214.51568182357511
 21
56.209543432594728
 31
0.0
  0
LINE
  5
2CA
  8
0
 10
207.81568182357509
 20
56.960099432594731
 30
0.0
 11
209.1156818235751
 21
56.209543432594728
 31
0.0
  0
LINE
  5
2CB
  8
0
 10
207.81568182357509
 20
56.960099432594731
 30
0.0
 11
215.81568182357509
 21
56.960099432594731
 31
0.0
  0
LINE
  5
2CC
  8
0
 10
204.81568182357509
 20
50.420233432594721
 30
0.0
 11
218.81568182357509
 21
50.420233432594721
 31
0.0
  0
ARC
  5
2CD
  8
0
 10
218.81568182357509
 20
51.420233432594728
 30
0.0
 40
1.0
 50
180.0
 51
270.0
  0
ARC
  5
2CE
  8
0
 10
204.81568182357509
 20
51.420233432594728
 30
0.0
 40
1.0
 50
270.0
 51
0.0
  0
LINE
  5
2CF
  8
0
 10
219.31568182357509
 20
46.420233432594728
 30
0.0
 11
219.81568182357509
 21
46.920233432594728
 31
0.0
  0
LINE
  5
2D0
  8
0
 10
219.31568182357509
 20
50.420233432594721
 30
0.0
 11
219.81568182357509
 21
49.920233432594721
 31
0.0
  0
LINE
  5
2D1
  8
0
 10
217.31568182357509
 20
55.420233432594721
 30
0.0
 11
217.81568182357509
 21
54.920233432594721
 31
0.0
  0
LINE
  5
2D2
  8
0
 10
205.81568182357509
 20
54.920233432594721
 30
0.0
 11
206.31568182357509
 21
55.420233432594721
 31
0.0
  0
LINE
  5
2D3
  8
0
 10
203.81568182357509
 20
49.920233432594721
 30
0.0
 11
204.31568182357509
 21
50.420233432594721
 31
0.0
  0
LINE
  5
2D4
  8
0
 10
203.81568182357509
 20
46.920233432594728
 30
0.0
 11
204.31568182357509
 21
46.420233432594728
 31
0.0
  0
LINE
  5
2D5
  8
0
 10
203.81568182357509
 20
49.920233432594721
 30
0.0
 11
203.81568182357509
 21
46.920233432594728
 31
0.0
  0
LINE
  5
2D6
  8
0
 10
204.81568182357509
 20
50.420233432594721
 30
0.0
 11
204.31568182357509
 21
50.420233432594721
 31
0.0
  0
LINE
  5
2D7
  8
0
 10
205.81568182357509
 20
54.920233432594721
 30
0.0
 11
205.81568182357509
 21
51.420233432594728
 31
0.0
  0
LINE
  5
2D8
  8
0
 10
217.31568182357509
 20
55.420233432594721
 30
0.0
 11
206.31568182357509
 21
55.420233432594721
 31
0.0
  0
LINE
  5
2D9
  8
0
 10
217.81568182357509
 20
51.420233432594728
 30
0.0
 11
217.81568182357509
 21
54.920233432594721
 31
0.0
  0
LINE
  5
2DA
  8
0
 10
219.31568182357509
 20
50.420233432594721
 30
0.0
 11
218.81568182357509
 21
50.420233432594721
 31
0.0
  0
LINE
  5
2DB
  8
0
 10
219.81568182357509
 20
46.920233432594728
 30
0.0
 11
219.81568182357509
 21
49.920233432594721
 31
0.0
  0
LINE
  5
2DC
  8
0
 10
204.31568182357509
 20
46.420233432594728
 30
0.0
 11
219.31568182357509
 21
46.420233432594728
 31
0.0
  0
LINE
  5
2DD
  8
1
 10
142.81568182357509
 20
43.930828432594723
 30
0.0
 11
142.81568182357509
 21
111.9202334325947
 31
0.0
  0
LINE
  5
2DE
  8
0
 10
145.81568182357509
 20
109.4202334325947
 30
0.0
 11
139.81568182357509
 21
109.4202334325947
 31
0.0
  0
LINE
  5
2DF
  8
0
 10
146.81568182357509
 20
108.4202334325947
 30
0.0
 11
145.81568182357509
 21
109.4202334325947
 31
0.0
  0
LINE
  5
2E0
  8
0
 10
146.81568182357509
 20
108.4202334325947
 30
0.0
 11
138.81568182357509
 21
108.4202334325947
 31
0.0
  0
LINE
  5
2E1
  8
3
 10
146.06568182357509
 20
109.1702334325947
 30
0.0
 11
146.06568182357509
 21
93.420233432594728
 31
0.0
  0
LINE
  5
2E2
  8
0
 10
146.81568182357509
 20
56.960099432594731
 30
0.0
 11
146.81568182357509
 21
81.420233432594713
 31
0.0
  0
LINE
  5
2E3
  8
3
 10
139.56568182357509
 20
109.1702334325947
 30
0.0
 11
139.56568182357509
 21
93.420233432594728
 31
0.0
  0
LINE
  5
2E5
  8
0
 10
138.81568182357509
 20
108.4202334325947
 30
0.0
 11
139.81568182357509
 21
109.4202334325947
 31
0.0
  0
LINE
  5
2E7
  8
0
 10
138.81568182357509
 20
56.960099432594731
 30
0.0
 11
138.81568182357509
 21
81.420233432594713
 31
0.0
  0
LINE
  5
2E8
  8
0
 10
145.51568182357511
 20
56.209543432594728
 30
0.0
 11
145.51568182357511
 21
55.420233432594721
 31
0.0
  0
LINE
  5
2EA
  8
0
 10
146.81568182357509
 20
56.960099432594731
 30
0.0
 11
145.51568182357511
 21
56.209543432594728
 31
0.0
  0
LINE
  5
2EB
  8
0
 10
140.1156818235751
 20
56.209543432594728
 30
0.0
 11
140.1156818235751
 21
55.420233432594721
 31
0.0
  0
LINE
  5
2EC
  8
0
 10
140.1156818235751
 20
56.209543432594728
 30
0.0
 11
145.51568182357511
 21
56.209543432594728
 31
0.0
  0
LINE
  5
2ED
  8
0
 10
138.81568182357509
 20
56.960099432594731
 30
0.0
 11
140.1156818235751
 21
56.209543432594728
 31
0.0
  0
LINE
  5
2EE
  8
0
 10
138.81568182357509
 20
56.960099432594731
 30
0.0
 11
146.81568182357509
 21
56.960099432594731
 31
0.0
  0
LINE
  5
2EF
  8
0
 10
135.81568182357509
 20
50.420233432594721
 30
0.0
 11
149.81568182357509
 21
50.420233432594721
 31
0.0
  0
ARC
  5
2F0
  8
0
 10
149.81568182357509
 20
51.420233432594728
 30
0.0
 40
1.0
 50
180.0
 51
270.0
  0
ARC
  5
2F1
  8
0
 10
135.81568182357509
 20
51.420233432594728
 30
0.0
 40
1.0
 50
270.0
 51
0.0
  0
LINE
  5
2F2
  8
0
 10
150.31568182357509
 20
46.420233432594728
 30
0.0
 11
150.81568182357509
 21
46.920233432594728
 31
0.0
  0
LINE
  5
2F3
  8
0
 10
150.31568182357509
 20
50.420233432594721
 30
0.0
 11
150.81568182357509
 21
49.920233432594721
 31
0.0
  0
LINE
  5
2F4
  8
0
 10
148.31568182357509
 20
55.420233432594721
 30
0.0
 11
148.81568182357509
 21
54.920233432594721
 31
0.0
  0
LINE
  5
2F5
  8
0
 10
136.81568182357509
 20
54.920233432594721
 30
0.0
 11
137.31568182357509
 21
55.420233432594721
 31
0.0
  0
LINE
  5
2F6
  8
0
 10
134.81568182357509
 20
49.920233432594721
 30
0.0
 11
135.31568182357509
 21
50.420233432594721
 31
0.0
  0
LINE
  5
2F7
  8
0
 10
134.81568182357509
 20
46.920233432594728
 30
0.0
 11
135.31568182357509
 21
46.420233432594728
 31
0.0
  0
LINE
  5
2F8
  8
0
 10
134.81568182357509
 20
49.920233432594721
 30
0.0
 11
134.81568182357509
 21
46.920233432594728
 31
0.0
  0
LINE
  5
2F9
  8
0
 10
135.81568182357509
 20
50.420233432594721
 30
0.0
 11
135.31568182357509
 21
50.420233432594721
 31
0.0
  0
LINE
  5
2FA
  8
0
 10
136.81568182357509
 20
54.920233432594721
 30
0.0
 11
136.81568182357509
 21
51.420233432594728
 31
0.0
  0
LINE
  5
2FB
  8
0
 10
148.31568182357509
 20
55.420233432594721
 30
0.0
 11
137.31568182357509
 21
55.420233432594721
 31
0.0
  0
LINE
  5
2FC
  8
0
 10
148.81568182357509
 20
51.420233432594728
 30
0.0
 11
148.81568182357509
 21
54.920233432594721
 31
0.0
  0
LINE
  5
2FD
  8
0
 10
150.31568182357509
 20
50.420233432594721
 30
0.0
 11
149.81568182357509
 21
50.420233432594721
 31
0.0
  0
LINE
  5
2FE
  8
0
 10
150.81568182357509
 20
46.920233432594728
 30
0.0
 11
150.81568182357509
 21
49.920233432594721
 31
0.0
  0
LINE
  5
2FF
  8
0
 10
135.31568182357509
 20
46.420233432594728
 30
0.0
 11
150.31568182357509
 21
46.420233432594728
 31
0.0
  0
LINE
  5
300
  8
3
 10
123.4156818235751
 20
58.420233432594728
 30
0.0
 11
123.4156818235751
 21
51.420233432594713
 31
0.0
  0
LINE
  5
301
  8
3
 10
130.2156818235751
 20
58.420233432594728
 30
0.0
 11
130.2156818235751
 21
51.420233432594713
 31
0.0
  0
LINE
  5
302
  8
3
 10
130.81568182357509
 20
59.459463432594731
 30
0.0
 11
130.2156818235751
 21
58.420233432594728
 31
0.0
  0
LINE
  5
303
  8
0
 10
122.8156818235751
 20
58.420233432594728
 30
0.0
 11
130.81568182357509
 21
58.420233432594728
 31
0.0
  0
LINE
  5
304
  8
3
 10
122.8156818235751
 20
59.459463432594731
 30
0.0
 11
123.4156818235751
 21
58.420233432594728
 31
0.0
  0
LINE
  5
305
  8
1
 10
126.8156818235751
 20
131.4202334325947
 30
0.0
 11
126.8156818235751
 21
21.420233432594731
 31
0.0
  0
LINE
  5
306
  8
3
 10
130.2156818235751
 20
107.0519814325947
 30
0.0
 11
130.2156818235751
 21
125.8202334325947
 31
0.0
  0
LINE
  5
309
  8
0
 10
122.8156818235751
 20
125.2202334325947
 30
0.0
 11
130.81568182357509
 21
125.2202334325947
 31
0.0
  0
LINE
  5
30A
  8
0
 10
122.8156818235751
 20
27.620233432594731
 30
0.0
 11
130.81568182357509
 21
27.620233432594731
 31
0.0
  0
LINE
  5
30B
  8
0
 10
129.6156818235751
 20
26.420233432594731
 30
0.0
 11
130.81568182357509
 21
27.620233432594731
 31
0.0
  0
LINE
  5
30C
  8
0
 10
122.8156818235751
 20
27.620233432594731
 30
0.0
 11
124.01568182357509
 21
26.420233432594731
 31
0.0
  0
LINE
  5
30D
  8
0
 10
129.6156818235751
 20
126.4202334325947
 30
0.0
 11
130.81568182357509
 21
125.2202334325947
 31
0.0
  0
LINE
  5
30E
  8
0
 10
122.8156818235751
 20
125.2202334325947
 30
0.0
 11
124.01568182357509
 21
126.4202334325947
 31
0.0
  0
LINE
  5
30F
  8
0
 10
130.81568182357509
 20
125.2202334325947
 30
0.0
 11
130.81568182357509
 21
107.0519814325947
 31
0.0
  0
LINE
  5
310
  8
0
 10
124.01568182357509
 20
126.4202334325947
 30
0.0
 11
129.6156818235751
 21
126.4202334325947
 31
0.0
  0
LINE
  5
311
  8
0
 10
122.8156818235751
 20
27.620233432594731
 30
0.0
 11
122.8156818235751
 21
46.420233432594728
 31
0.0
  0
LINE
  5
312
  8
0
 10
129.6156818235751
 20
26.420233432594731
 30
0.0
 11
124.01568182357509
 21
26.420233432594731
 31
0.0
  0
LINE
  5
313
  8
3
 10
123.4156818235751
 20
107.0519814325947
 30
0.0
 11
123.4156818235751
 21
125.8202334325947
 31
0.0
  0
LINE
  5
317
  8
0
 10
48.315681823575119
 20
51.275895432594723
 30
0.0
 11
48.065681823575119
 21
51.420233432594728
 31
0.0
  0
ARC
  5
318
  8
0
 10
45.065681823575112
 20
41.888743432594723
 30
0.0
 40
9.3871520000000004
 50
69.743841999999773
 51
110.2561580000002
  0
ARC
  5
319
  8
0
 10
45.065681823575112
 20
55.951723432594733
 30
0.0
 40
9.3871520000000004
 50
249.7438419999998
 51
290.2561580000002
  0
LINE
  5
31A
  8
0
 10
48.315681823575119
 20
46.564571432594732
 30
0.0
 11
48.065681823575119
 21
46.420233432594728
 31
0.0
  0
LINE
  5
31B
  8
0
 10
48.315681823575119
 20
51.275895432594723
 30
0.0
 11
48.315681823575119
 21
46.564571432594732
 31
0.0
  0
LINE
  5
31C
  8
0
 10
41.815681823575112
 20
50.695339432594722
 30
0.0
 11
41.815681823575112
 21
47.145127432594727
 31
0.0
  0
LINE
  5
31D
  8
0
 10
35.315681823575119
 20
51.275895432594723
 30
0.0
 11
35.315681823575119
 21
46.564571432594732
 31
0.0
  0
LINE
  5
31E
  8
0
 10
35.315681823575119
 20
46.564571432594732
 30
0.0
 11
35.565681823575119
 21
46.420233432594728
 31
0.0
  0
ARC
  5
31F
  8
0
 10
38.565681823575119
 20
55.951723432594733
 30
0.0
 40
9.3871520000000004
 50
249.7438419999998
 51
290.2561580000002
  0
ARC
  5
320
  8
0
 10
38.565681823575119
 20
41.888743432594723
 30
0.0
 40
9.3871520000000004
 50
69.743841999999773
 51
110.2561580000002
  0
LINE
  5
321
  8
0
 10
35.315681823575119
 20
51.275895432594723
 30
0.0
 11
35.565681823575119
 21
51.420233432594728
 31
0.0
  0
LINE
  5
322
  8
0
 10
35.565681823575119
 20
51.420233432594728
 30
0.0
 11
48.065681823575119
 21
51.420233432594728
 31
0.0
  0
LINE
  5
323
  8
0
 10
48.065681823575119
 20
46.420233432594728
 30
0.0
 11
35.565681823575119
 21
46.420233432594728
 31
0.0
  0
LINE
  5
324
  8
1
 10
126.8156818235751
 20
170.0159235448991
 30
0.0
 11
126.8156818235751
 21
142.8245433202903
 31
0.0
  0
CIRCLE
  5
326
  8
0
 10
126.8156818235751
 20
156.4202334325947
 30
0.0
 40
9.0
  0
CIRCLE
  5
327
  8
3
 10
126.8156818235751
 20
156.4202334325947
 30
0.0
 40
3.399999999999999
  0
CIRCLE
  5
328
  8
0
 10
126.8156818235751
 20
156.4202334325947
 30
0.0
 40
4.0
  0
LINE
  5
329
  8
0
 10
130.8391928235751
 20
150.38915943259471
 30
0.0
 11
134.05050082357511
 21
155.95130743259469
 31
0.0
  0
LINE
  5
32A
  8
0
 10
134.05050082357511
 20
156.88915943259471
 30
0.0
 11
130.8391928235751
 21
162.45130743259469
 31
0.0
  0
LINE
  5
32B
  8
0
 10
130.02698982357509
 20
162.9202334325947
 30
0.0
 11
123.6043738235751
 21
162.9202334325947
 31
0.0
  0
LINE
  5
32C
  8
0
 10
122.79217082357511
 20
162.45130743259469
 30
0.0
 11
119.5808628235751
 21
156.88915943259471
 31
0.0
  0
LINE
  5
32D
  8
0
 10
119.5808628235751
 20
155.95130743259469
 30
0.0
 11
122.79217082357511
 21
150.38915943259471
 31
0.0
  0
LINE
  5
32E
  8
0
 10
123.6043738235751
 20
149.9202334325947
 30
0.0
 11
130.02698982357509
 21
149.9202334325947
 31
0.0
  0
ARC
  5
32F
  8
0
 10
126.8156818235751
 20
156.4202334325947
 30
0.0
 40
7.25
 50
56.29155499999964
 51
63.70844500000014
  0
ARC
  5
330
  8
0
 10
126.8156818235751
 20
156.4202334325947
 30
0.0
 40
7.25
 50
116.2915549999998
 51
123.7084450000003
  0
ARC
  5
331
  8
0
 10
126.8156818235751
 20
156.4202334325947
 30
0.0
 40
7.25
 50
176.2915550000003
 51
183.70844499999961
  0
ARC
  5
332
  8
0
 10
126.8156818235751
 20
156.4202334325947
 30
0.0
 40
7.25
 50
236.29155499999959
 51
243.70844500000001
  0
ARC
  5
333
  8
0
 10
126.8156818235751
 20
156.4202334325947
 30
0.0
 40
7.25
 50
296.2915549999999
 51
303.70844500000038
  0
ARC
  5
334
  8
0
 10
126.8156818235751
 20
156.4202334325947
 30
0.0
 40
7.25
 50
356.29155500000041
 51
3.7084449999996449
  0
CIRCLE
  5
335
  8
0
 10
126.8156818235751
 20
156.4202334325947
 30
0.0
 40
6.25
  0
LINE
  5
336
  8
0
 10
119.3101288235751
 20
50.695339432594729
 30
0.0
 11
119.3101288235751
 21
47.145127432594727
 31
0.0
  0
LINE
  5
337
  8
0
 10
133.06568182357509
 20
46.420233432594728
 30
0.0
 11
120.5656818235751
 21
46.420233432594728
 31
0.0
  0
LINE
  5
338
  8
0
 10
120.5656818235751
 20
51.420233432594728
 30
0.0
 11
133.06568182357509
 21
51.420233432594728
 31
0.0
  0
ARC
  5
339
  8
0
 10
132.44484682357509
 20
47.953326432594721
 30
0.0
 40
3.3225699999999989
 50
64.384247000000045
 51
124.3842470000003
  0
LINE
  5
33A
  8
0
 10
134.32123482357511
 20
50.695339432594722
 30
0.0
 11
133.06568182357509
 21
51.420233432594728
 31
0.0
  0
LINE
  5
33B
  8
0
 10
134.32123482357511
 20
47.145127432594713
 30
0.0
 11
133.06568182357509
 21
46.420233432594728
 31
0.0
  0
ARC
  5
33C
  8
0
 10
132.44484682357509
 20
49.88714043259472
 30
0.0
 40
3.3225699999999989
 50
235.6157529999997
 51
295.61575299999993
  0
LINE
  5
33D
  8
0
 10
134.32123482357511
 20
50.695339432594722
 30
0.0
 11
134.32123482357511
 21
47.145127432594713
 31
0.0
  0
LINE
  5
33E
  8
0
 10
130.5684588235751
 20
50.695339432594722
 30
0.0
 11
130.5684588235751
 21
47.145127432594727
 31
0.0
  0
LINE
  5
33F
  8
0
 10
123.0629048235751
 20
50.695339432594722
 30
0.0
 11
123.0629048235751
 21
47.145127432594727
 31
0.0
  0
ARC
  5
340
  8
0
 10
126.8156818235751
 20
58.984014432594734
 30
0.0
 40
12.419442999999999
 50
252.41204599999929
 51
287.58795400000082
  0
ARC
  5
341
  8
0
 10
121.1865168235751
 20
49.887140432594741
 30
0.0
 40
3.3225699999999989
 50
244.38424699999999
 51
304.3842470000003
  0
LINE
  5
342
  8
0
 10
119.3101288235751
 20
47.145127432594727
 30
0.0
 11
120.5656818235751
 21
46.420233432594728
 31
0.0
  0
LINE
  5
343
  8
0
 10
119.3101288235751
 20
50.695339432594729
 30
0.0
 11
120.5656818235751
 21
51.420233432594728
 31
0.0
  0
ARC
  5
344
  8
0
 10
126.8156818235751
 20
38.856452432594722
 30
0.0
 40
12.419442999999999
 50
72.412045999999265
 51
107.58795400000071
  0
ARC
  5
345
  8
0
 10
121.1865168235751
 20
47.953326432594729
 30
0.0
 40
3.3225699999999989
 50
55.61575299999965
 51
115.6157529999999
  0
LINE
  5
348
  8
0
 10
51.315681823575112
 20
92.420233432594728
 30
0.0
 11
50.315681823575119
 21
93.420233432594728
 31
0.0
  0
LINE
  5
349
  8
0
 10
50.315681823575119
 20
81.420233432594713
 30
0.0
 11
51.315681823575112
 21
82.420233432594728
 31
0.0
  0
LINE
  5
34A
  8
0
 10
32.315681823575119
 20
82.420233432594728
 30
0.0
 11
33.315681823575119
 21
81.420233432594713
 31
0.0
  0
LINE
  5
34B
  8
0
 10
33.315681823575119
 20
93.420233432594728
 30
0.0
 11
32.315681823575119
 21
92.420233432594728
 31
0.0
  0
LINE
  5
34C
  8
1
 10
41.815681823575112
 20
98.420233432594728
 30
0.0
 11
41.815681823575112
 21
76.420233432594728
 31
0.0
  0
LINE
  5
34D
  8
0
 10
33.315681823575119
 20
93.420233432594728
 30
0.0
 11
50.315681823575119
 21
93.420233432594728
 31
0.0
  0
LINE
  5
34E
  8
0
 10
32.315681823575119
 20
82.420233432594728
 30
0.0
 11
32.315681823575119
 21
92.420233432594728
 31
0.0
  0
LINE
  5
34F
  8
0
 10
50.315681823575119
 20
81.420233432594713
 30
0.0
 11
33.315681823575119
 21
81.420233432594713
 31
0.0
  0
LINE
  5
350
  8
0
 10
51.315681823575112
 20
92.420233432594728
 30
0.0
 11
51.315681823575112
 21
82.420233432594728
 31
0.0
  0
LINE
  5
351
  8
0
 10
36.815681823575119
 20
90.420233432594713
 30
0.0
 11
36.815681823575119
 21
81.420233432594713
 31
0.0
  0
LINE
  5
352
  8
0
 10
46.815681823575112
 20
90.420233432594713
 30
0.0
 11
46.815681823575112
 21
81.420233432594713
 31
0.0
  0
LINE
  5
353
  8
0
 10
46.815681823575112
 20
90.420233432594713
 30
0.0
 11
36.815681823575119
 21
90.420233432594713
 31
0.0
  0
LINE
  5
354
  8
0
 10
33.928930823575122
 20
93.420233432594728
 30
0.0
 11
36.815681823575119
 21
90.420233432594713
 31
0.0
  0
LINE
  5
355
  8
0
 10
49.702432823575123
 20
93.420233432594728
 30
0.0
 11
46.815681823575112
 21
90.420233432594713
 31
0.0
  0
LINE
  5
358
  8
0
 10
202.31568182357509
 20
82.420233432594728
 30
0.0
 11
202.31568182357509
 21
92.420233432594728
 31
0.0
  0
LINE
  5
359
  8
0
 10
203.31568182357509
 20
93.420233432594728
 30
0.0
 11
220.31568182357509
 21
93.420233432594728
 31
0.0
  0
LINE
  5
35A
  8
0
 10
221.31568182357509
 20
92.420233432594728
 30
0.0
 11
221.31568182357509
 21
82.420233432594728
 31
0.0
  0
LINE
  5
35B
  8
0
 10
220.31568182357509
 20
81.420233432594713
 30
0.0
 11
203.31568182357509
 21
81.420233432594713
 31
0.0
  0
LINE
  5
35D
  8
0
 10
207.31568182357509
 20
81.420233432594713
 30
0.0
 11
207.31568182357509
 21
86.420233432594713
 31
0.0
  0
LINE
  5
35E
  8
0
 10
216.31568182357509
 20
81.420233432594713
 30
0.0
 11
216.31568182357509
 21
86.420233432594713
 31
0.0
  0
LINE
  5
35F
  8
0
 10
216.31568182357509
 20
86.420233432594713
 30
0.0
 11
207.31568182357509
 21
86.420233432594713
 31
0.0
  0
LINE
  5
360
  8
0
 10
220.31568182357509
 20
81.420233432594713
 30
0.0
 11
221.31568182357509
 21
82.420233432594728
 31
0.0
  0
LINE
  5
361
  8
0
 10
221.31568182357509
 20
92.420233432594728
 30
0.0
 11
220.31568182357509
 21
93.420233432594728
 31
0.0
  0
LINE
  5
362
  8
0
 10
203.31568182357509
 20
93.420233432594728
 30
0.0
 11
202.31568182357509
 21
92.420233432594728
 31
0.0
  0
LINE
  5
363
  8
0
 10
202.31568182357509
 20
82.420233432594728
 30
0.0
 11
203.31568182357509
 21
81.420233432594713
 31
0.0
  0
LINE
  5
364
  8
0
 10
141.6609808235751
 20
154.4202334325947
 30
0.0
 11
143.97038282357511
 21
154.4202334325947
 31
0.0
  0
LINE
  5
365
  8
0
 10
143.97038282357511
 20
154.4202334325947
 30
0.0
 11
145.1250828235751
 21
156.4202334325947
 31
0.0
  0
LINE
  5
366
  8
0
 10
145.1250828235751
 20
156.4202334325947
 30
0.0
 11
143.97038282357511
 21
158.4202334325947
 31
0.0
  0
LINE
  5
367
  8
0
 10
143.97038282357511
 20
158.4202334325947
 30
0.0
 11
141.6609808235751
 21
158.4202334325947
 31
0.0
  0
LINE
  5
368
  8
0
 10
141.6609808235751
 20
158.4202334325947
 30
0.0
 11
140.50628082357511
 21
156.4202334325947
 31
0.0
  0
LINE
  5
369
  8
0
 10
140.50628082357511
 20
156.4202334325947
 30
0.0
 11
141.6609808235751
 21
154.4202334325947
 31
0.0
  0
LINE
  5
36A
  8
1
 10
142.81568182357509
 20
166.9202334325947
 30
0.0
 11
142.81568182357509
 21
145.9202334325947
 31
0.0
  0
CIRCLE
  5
36C
  8
3
 10
142.81568182357509
 20
156.4202334325947
 30
0.0
 40
3.25
  0
CIRCLE
  5
36D
  8
0
 10
142.81568182357509
 20
156.4202334325947
 30
0.0
 40
4.0
  0
CIRCLE
  5
36E
  8
2
 10
142.81568182357509
 20
156.4202334325947
 30
0.0
 40
6.0
  0
CIRCLE
  5
36F
  8
2
 10
142.81568182357509
 20
156.4202334325947
 30
0.0
 40
8.0
  0
LINE
  5
371
  8
0
 10
150.81568182357509
 20
163.9202334325947
 30
0.0
 11
150.81568182357509
 21
148.9202334325947
 31
0.0
  0
LINE
  5
372
  8
0
 10
95.60991082357512
 20
165.9202334325947
 30
0.0
 11
148.81568182357509
 21
165.9202334325947
 31
0.0
  0
LINE
  5
373
  8
0
 10
87.815681823575119
 20
151.4202334325947
 30
0.0
 11
87.815681823575119
 21
161.4202334325947
 31
0.0
  0
LINE
  5
374
  8
0
 10
148.81568182357509
 20
146.9202334325947
 30
0.0
 11
95.60991082357512
 21
146.9202334325947
 31
0.0
  0
LINE
  5
375
  8
1
 10
155.81568182357509
 20
156.4202334325947
 30
0.0
 11
82.815681823575119
 21
156.4202334325947
 31
0.0
  0
LINE
  5
376
  8
2
 10
150.81568182357509
 20
151.9202334325947
 30
0.0
 11
119.0214531895152
 21
151.9202334325947
 31
0.0
  0
LINE
  5
377
  8
2
 10
150.81568182357509
 20
160.9202334325947
 30
0.0
 11
119.0214531895152
 21
160.9202334325947
 31
0.0
  0
LINE
  5
37A
  8
1
 10
99.815681823575133
 20
149.48827943259471
 30
0.0
 11
99.815681823575133
 21
163.49907043259469
 31
0.0
  0
CIRCLE
  5
37B
  8
3
 10
142.81568182357509
 20
156.4202334325947
 30
0.0
 40
4.0
  0
ARC
  5
37C
  8
2
 10
126.8156818235751
 20
156.4202334325947
 30
0.0
 40
4.5
 50
270.0
 51
90.0
  0
ARC
  5
37D
  8
0
 10
99.815681823575133
 20
156.4202334325947
 30
0.0
 40
4.5
 50
90.0
 51
270.0
  0
LINE
  5
37E
  8
0
 10
119.0214531895152
 20
151.9202334325947
 30
0.0
 11
99.815681823575133
 21
151.9202334325947
 31
0.0
  0
LINE
  5
37F
  8
0
 10
99.815681823575133
 20
160.9202334325947
 30
0.0
 11
119.0214531895152
 21
160.9202334325947
 31
0.0
  0
LINE
  5
380
  8
0
 10
87.815681823575119
 20
151.4202334325947
 30
0.0
 11
95.60991082357512
 21
146.9202334325947
 31
0.0
  0
LINE
  5
381
  8
0
 10
87.815681823575119
 20
161.4202334325947
 30
0.0
 11
95.60991082357512
 21
165.9202334325947
 31
0.0
  0
LINE
  5
382
  8
0
 10
148.81568182357509
 20
146.9202334325947
 30
0.0
 11
150.81568182357509
 21
148.9202334325947
 31
0.0
  0
LINE
  5
383
  8
0
 10
150.81568182357509
 20
163.9202334325947
 30
0.0
 11
148.81568182357509
 21
165.9202334325947
 31
0.0
  0
LINE
  5
384
  8
0
 10
92.815681823575119
 20
163.9202334325947
 30
0.0
 11
92.815681823575119
 21
148.9202334325947
 31
0.0
  0
ARC
  5
385
  8
0
 10
132.25318182357509
 20
104.0519814325947
 30
0.0
 40
3.0256219999999998
 50
53.198083000000508
 51
53.198083000000508
  0
LINE
  5
386
  8
0
 10
134.06568182357509
 20
106.47463143259471
 30
0.0
 11
133.06568182357509
 21
107.0519814325947
 31
0.0
  0
LINE
  5
387
  8
0
 10
119.5656818235751
 20
106.47463143259471
 30
0.0
 11
120.5656818235751
 21
107.0519814325947
 31
0.0
  0
ARC
  5
388
  8
0
 10
121.3781818235751
 20
104.0519814325947
 30
0.0
 40
3.0256219999999998
 50
53.198083000000508
 51
113.19808300000049
  0
ARC
  5
389
  8
0
 10
121.3781818235751
 20
104.0519814325947
 30
0.0
 40
3.0256219999999998
 50
126.80191699999941
 51
126.80191699999941
  0
LINE
  5
38A
  8
0
 10
120.5656818235751
 20
107.0519814325947
 30
0.0
 11
133.06568182357509
 21
107.0519814325947
 31
0.0
  0
LINE
  5
38B
  8
0
 10
134.06568182357509
 20
106.47463143259471
 30
0.0
 11
134.06568182357509
 21
98.951981432594721
 31
0.0
  0
LINE
  5
38C
  8
0
 10
135.81568182357509
 20
98.051981432594715
 30
0.0
 11
135.81568182357509
 21
96.751981432594704
 31
0.0
  0
LINE
  5
38D
  8
0
 10
123.1906818235751
 20
106.47463143259471
 30
0.0
 11
123.1906818235751
 21
98.551981432594715
 31
0.0
  0
LINE
  5
38E
  8
0
 10
117.8156818235751
 20
98.051981432594715
 30
0.0
 11
117.8156818235751
 21
96.751981432594704
 31
0.0
  0
LINE
  5
38F
  8
0
 10
118.3156818235751
 20
98.551981432594715
 30
0.0
 11
135.31568182357509
 21
98.551981432594715
 31
0.0
  0
ARC
  5
390
  8
0
 10
126.8156818235751
 20
95.383191432594714
 30
0.0
 40
11.66879
 50
90.0
 51
108.0988730000004
  0
ARC
  5
392
  8
0
 10
134.4656818235751
 20
98.951981432594721
 30
0.0
 40
0.4
 50
180.0
 51
270.0
  0
LINE
  5
393
  8
0
 10
119.5656818235751
 20
106.47463143259471
 30
0.0
 11
119.5656818235751
 21
98.951981432594721
 31
0.0
  0
ARC
  5
394
  8
0
 10
119.1656818235751
 20
98.951981432594721
 30
0.0
 40
0.4
 50
270.0
 51
0.0
  0
LINE
  5
395
  8
0
 10
135.81568182357509
 20
98.051981432594715
 30
0.0
 11
135.31568182357509
 21
98.551981432594715
 31
0.0
  0
LINE
  5
396
  8
0
 10
118.3156818235751
 20
98.551981432594715
 30
0.0
 11
117.8156818235751
 21
98.051981432594715
 31
0.0
  0
ARC
  5
397
  8
0
 10
126.8156818235751
 20
116.7519814325947
 30
0.0
 40
21.931712000000001
 50
292.0207816974139
 51
294.22774500000008
  0
ARC
  5
399
  8
0
 10
126.8156818235751
 20
116.7519814325947
 30
0.0
 40
21.931712000000001
 50
245.77225499999989
 51
247.9792183025861
  0
LINE
  5
39A
  8
0
 10
117.8156818235751
 20
96.751981432594704
 30
0.0
 11
135.81568182357509
 21
96.751981432594704
 31
0.0
  0
ARC
  5
39B
  8
0
 10
126.8156818235751
 20
95.383191432594714
 30
0.0
 40
11.66879
 50
71.901126999999576
 51
90.0
  0
LINE
  5
39C
  8
0
 10
130.44068182357509
 20
106.47463143259471
 30
0.0
 11
130.44068182357509
 21
98.551981432594715
 31
0.0
  0
ARC
  5
39D
  8
0
 10
132.25318182357509
 20
104.0519814325947
 30
0.0
 40
3.0256219999999998
 50
66.801916999999506
 51
126.80191699999941
  0
LINE
  5
39F
  8
2
 10
122.0656818235751
 20
93.920233432594713
 30
0.0
 11
131.56568182357509
 21
93.920233432594713
 31
0.0
  0
LINE
  5
3A0
  8
2
 10
122.0656818235751
 20
95.146337432594706
 30
0.0
 11
131.56568182357509
 21
95.146337432594706
 31
0.0
  0
LINE
  5
3A1
  8
2
 10
122.0656818235751
 20
93.920233432594713
 30
0.0
 11
121.5656818235751
 21
93.420233432594728
 31
0.0
  0
LINE
  5
3A2
  8
2
 10
122.0656818235751
 20
95.146337432594706
 30
0.0
 11
122.0656818235751
 21
93.920233432594713
 31
0.0
  0
LINE
  5
3A3
  8
2
 10
118.5656818235751
 20
96.420233432594742
 30
0.0
 11
122.0656818235751
 21
95.146337432594706
 31
0.0
  0
LINE
  5
3A4
  8
2
 10
131.56568182357509
 20
93.920233432594713
 30
0.0
 11
132.06568182357509
 21
93.420233432594728
 31
0.0
  0
LINE
  5
3A5
  8
2
 10
131.56568182357509
 20
95.146337432594706
 30
0.0
 11
131.56568182357509
 21
93.920233432594713
 31
0.0
  0
LINE
  5
3A6
  8
2
 10
135.06568182357509
 20
96.420233432594742
 30
0.0
 11
131.56568182357509
 21
95.146337432594706
 31
0.0
  0
LINE
  5
3A7
  8
0
 10
135.81568182357509
 20
95.920233432594728
 30
0.0
 11
135.31568182357509
 21
96.420233432594742
 31
0.0
  0
LINE
  5
3A8
  8
0
 10
135.31568182357509
 20
93.420233432594728
 30
0.0
 11
135.81568182357509
 21
93.920233432594713
 31
0.0
  0
LINE
  5
3A9
  8
0
 10
117.8156818235751
 20
93.920233432594713
 30
0.0
 11
118.3156818235751
 21
93.420233432594728
 31
0.0
  0
LINE
  5
3AA
  8
0
 10
118.3156818235751
 20
96.420233432594742
 30
0.0
 11
117.8156818235751
 21
95.920233432594728
 31
0.0
  0
LINE
  5
3AB
  8
0
 10
117.8156818235751
 20
93.920233432594713
 30
0.0
 11
117.8156818235751
 21
95.920233432594728
 31
0.0
  0
LINE
  5
3AD
  8
0
 10
135.81568182357509
 20
95.920233432594728
 30
0.0
 11
135.81568182357509
 21
93.920233432594713
 31
0.0
  0
LINE
  5
3AE
  8
0
 10
118.3156818235751
 20
96.420233432594742
 30
0.0
 11
135.31568182357509
 21
96.420233432594742
 31
0.0
  0
ARC
  5
3AF
  8
0
 10
48.715650823575118
 20
98.951981432594721
 30
0.0
 40
0.4
 50
180.0
 51
270.0
  0
LINE
  5
3B0
  8
0
 10
41.815650823575112
 20
106.32708743259469
 30
0.0
 11
41.815650823575112
 21
102.77687543259469
 31
0.0
  0
ARC
  5
3B1
  8
0
 10
45.065650823575112
 20
99.403987432594704
 30
0.0
 40
7.6479939999999997
 50
64.852624000000176
 51
115.1473759999998
  0
ARC
  5
3B2
  8
0
 10
38.565650823575112
 20
99.403987432594704
 30
0.0
 40
7.6479939999999997
 50
64.852624000000176
 51
115.1473759999998
  0
LINE
  5
3B3
  8
0
 10
47.91565082357512
 20
107.0519814325947
 30
0.0
 11
48.315650823575112
 21
106.6519814325947
 31
0.0
  0
LINE
  5
3B4
  8
0
 10
35.715650823575118
 20
107.0519814325947
 30
0.0
 11
35.315650823575112
 21
106.6519814325947
 31
0.0
  0
LINE
  5
3B5
  8
0
 10
47.91565082357512
 20
107.0519814325947
 30
0.0
 11
35.715650823575118
 21
107.0519814325947
 31
0.0
  0
LINE
  5
3B6
  8
0
 10
48.315650823575112
 20
98.951981432594721
 30
0.0
 11
48.315650823575112
 21
106.6519814325947
 31
0.0
  0
LINE
  5
3B7
  8
0
 10
41.815650823575112
 20
106.32708743259469
 30
0.0
 11
41.815650823575112
 21
98.551981432594715
 31
0.0
  0
LINE
  5
3B8
  8
0
 10
35.31564482357512
 20
98.951981432594721
 30
0.0
 11
35.31564482357512
 21
106.6519814325947
 31
0.0
  0
ARC
  5
3B9
  8
0
 10
34.915644823575121
 20
98.951981432594721
 30
0.0
 40
0.4
 50
270.0
 51
0.0
  0
LINE
  5
3BA
  8
0
 10
50.815681823575119
 20
98.051981432594715
 30
0.0
 11
50.815681823575119
 21
96.751981432594704
 31
0.0
  0
LINE
  5
3BB
  8
0
 10
32.815681823575119
 20
98.051981432594715
 30
0.0
 11
32.815681823575119
 21
96.751981432594704
 31
0.0
  0
LINE
  5
3BC
  8
0
 10
33.315681823575119
 20
98.551981432594715
 30
0.0
 11
50.315681823575119
 21
98.551981432594715
 31
0.0
  0
LINE
  5
3BD
  8
1
 10
41.815681823575112
 20
112.0519814325947
 30
0.0
 11
41.815681823575112
 21
90.051981432594715
 31
0.0
  0
LINE
  5
3BE
  8
0
 10
50.815681823575119
 20
98.051981432594715
 30
0.0
 11
50.315681823575119
 21
98.551981432594715
 31
0.0
  0
LINE
  5
3BF
  8
0
 10
33.315681823575119
 20
98.551981432594715
 30
0.0
 11
32.815681823575119
 21
98.051981432594715
 31
0.0
  0
ARC
  5
3C0
  8
0
 10
41.815681823575112
 20
116.7519814325947
 30
0.0
 40
21.931712000000001
 50
292.0207816974139
 51
294.22774500000008
  0
ARC
  5
3C2
  8
0
 10
41.815681823575112
 20
116.7519814325947
 30
0.0
 40
21.931712000000001
 50
245.77225499999989
 51
247.9792183025861
  0
LINE
  5
3C3
  8
0
 10
32.815681823575119
 20
96.751981432594704
 30
0.0
 11
50.815681823575119
 21
96.751981432594704
 31
0.0
  0
LINE
  5
3C4
  8
1
 10
41.815681823575112
 20
99.420233432594728
 30
0.0
 11
41.815681823575112
 21
90.420233432594713
 31
0.0
  0
LINE
  5
3C5
  8
2
 10
37.065681823575119
 20
93.920233432594713
 30
0.0
 11
46.565681823575119
 21
93.920233432594713
 31
0.0
  0
LINE
  5
3C6
  8
2
 10
37.065681823575119
 20
95.146337432594706
 30
0.0
 11
46.565681823575119
 21
95.146337432594706
 31
0.0
  0
LINE
  5
3C7
  8
2
 10
37.065681823575119
 20
93.920233432594713
 30
0.0
 11
36.565681823575119
 21
93.420233432594728
 31
0.0
  0
LINE
  5
3C8
  8
2
 10
37.065681823575119
 20
95.146337432594706
 30
0.0
 11
37.065681823575119
 21
93.920233432594713
 31
0.0
  0
LINE
  5
3C9
  8
2
 10
33.565681823575119
 20
96.420233432594742
 30
0.0
 11
37.065681823575119
 21
95.146337432594706
 31
0.0
  0
LINE
  5
3CA
  8
2
 10
46.565681823575119
 20
93.920233432594713
 30
0.0
 11
47.065681823575119
 21
93.420233432594728
 31
0.0
  0
LINE
  5
3CB
  8
2
 10
46.565681823575119
 20
95.146337432594706
 30
0.0
 11
46.565681823575119
 21
93.920233432594713
 31
0.0
  0
LINE
  5
3CC
  8
2
 10
50.065681823575112
 20
96.420233432594742
 30
0.0
 11
46.565681823575119
 21
95.146337432594706
 31
0.0
  0
LINE
  5
3CD
  8
0
 10
50.815681823575119
 20
95.920233432594728
 30
0.0
 11
50.315681823575119
 21
96.420233432594742
 31
0.0
  0
LINE
  5
3CE
  8
0
 10
50.315681823575119
 20
93.420233432594728
 30
0.0
 11
50.815681823575119
 21
93.920233432594713
 31
0.0
  0
LINE
  5
3CF
  8
0
 10
32.815681823575119
 20
93.920233432594713
 30
0.0
 11
33.315681823575119
 21
93.420233432594728
 31
0.0
  0
LINE
  5
3D0
  8
0
 10
33.315681823575119
 20
96.420233432594742
 30
0.0
 11
32.815681823575119
 21
95.920233432594728
 31
0.0
  0
LINE
  5
3D1
  8
0
 10
32.815681823575119
 20
93.920233432594713
 30
0.0
 11
32.815681823575119
 21
95.920233432594728
 31
0.0
  0
LINE
  5
3D3
  8
0
 10
50.815681823575119
 20
95.920233432594728
 30
0.0
 11
50.815681823575119
 21
93.920233432594713
 31
0.0
  0
LINE
  5
3D4
  8
0
 10
33.315681823575119
 20
96.420233432594742
 30
0.0
 11
50.315681823575119
 21
96.420233432594742
 31
0.0
  0
ARC
  5
3D5
  8
0
 10
218.71565082357509
 20
98.951981432594721
 30
0.0
 40
0.4
 50
180.0
 51
270.0
  0
ARC
  5
3D7
  8
0
 10
215.06565082357511
 20
99.403987432594704
 30
0.0
 40
7.6479939999999997
 50
64.852624000001072
 51
84.372015205391065
  0
ARC
  5
3D8
  8
0
 10
208.56565082357511
 20
99.403987432594704
 30
0.0
 40
7.6479939999999997
 50
95.627518065233645
 51
115.1473759999989
  0
LINE
  5
3D9
  8
0
 10
217.91565082357511
 20
107.0519814325947
 30
0.0
 11
218.3156508235752
 21
106.6519814325947
 31
0.0
  0
LINE
  5
3DA
  8
0
 10
205.71565082357509
 20
107.0519814325947
 30
0.0
 11
205.31565082357511
 21
106.6519814325947
 31
0.0
  0
LINE
  5
3DB
  8
0
 10
217.91565082357511
 20
107.0519814325947
 30
0.0
 11
215.81568182357509
 21
107.0519814325947
 31
0.0
  0
LINE
  5
3DC
  8
0
 10
218.3156508235752
 20
98.951981432594721
 30
0.0
 11
218.3156508235752
 21
106.6519814325947
 31
0.0
  0
LINE
  5
3DE
  8
0
 10
205.3156448235751
 20
98.951981432594721
 30
0.0
 11
205.3156448235751
 21
106.6519814325947
 31
0.0
  0
ARC
  5
3DF
  8
0
 10
204.91564482357509
 20
98.951981432594721
 30
0.0
 40
0.4
 50
270.0
 51
0.0
  0
LINE
  5
3E0
  8
0
 10
220.81568182357509
 20
98.051981432594715
 30
0.0
 11
220.81568182357509
 21
96.751981432594704
 31
0.0
  0
LINE
  5
3E1
  8
0
 10
202.81568182357509
 20
98.051981432594715
 30
0.0
 11
202.81568182357509
 21
96.751981432594704
 31
0.0
  0
LINE
  5
3E2
  8
0
 10
203.31568182357509
 20
98.551981432594715
 30
0.0
 11
207.81568182357509
 21
98.551981432594687
 31
0.0
  0
LINE
  5
3E4
  8
0
 10
220.81568182357509
 20
98.051981432594715
 30
0.0
 11
220.31568182357509
 21
98.551981432594715
 31
0.0
  0
LINE
  5
3E5
  8
0
 10
203.31568182357509
 20
98.551981432594715
 30
0.0
 11
202.81568182357509
 21
98.051981432594715
 31
0.0
  0
ARC
  5
3E8
  8
0
 10
211.81568182357509
 20
116.7519814325947
 30
0.0
 40
21.931712000000001
 50
245.7722550000008
 51
247.9792183025861
  0
LINE
  5
3E9
  8
0
 10
202.81568182357509
 20
96.751981432594704
 30
0.0
 11
207.81568182357509
 21
96.751981432594704
 31
0.0
  0
LINE
  5
3F3
  8
0
 10
220.81568182357509
 20
95.920233432594728
 30
0.0
 11
220.31568182357509
 21
96.420233432594742
 31
0.0
  0
LINE
  5
3F4
  8
0
 10
220.31568182357509
 20
93.420233432594728
 30
0.0
 11
220.81568182357509
 21
93.920233432594713
 31
0.0
  0
LINE
  5
3F5
  8
0
 10
202.81568182357509
 20
93.920233432594713
 30
0.0
 11
203.31568182357509
 21
93.420233432594728
 31
0.0
  0
LINE
  5
3F6
  8
0
 10
203.31568182357509
 20
96.420233432594742
 30
0.0
 11
202.81568182357509
 21
95.920233432594728
 31
0.0
  0
LINE
  5
3F7
  8
0
 10
202.81568182357509
 20
93.920233432594713
 30
0.0
 11
202.81568182357509
 21
95.920233432594728
 31
0.0
  0
LINE
  5
3F9
  8
0
 10
220.81568182357509
 20
95.920233432594728
 30
0.0
 11
220.81568182357509
 21
93.920233432594713
 31
0.0
  0
LINE
  5
3FA
  8
0
 10
203.31568182357509
 20
96.420233432594742
 30
0.0
 11
207.81568182357509
 21
96.420233432594742
 31
0.0
  0
LINE
  5
3FB
  8
0
 10
146.81568182357509
 20
93.420233432594728
 30
0.0
 11
146.81568182357509
 21
108.4202334325947
 31
0.0
  0
LINE
  5
3FC
  8
3
 10
146.06568182357509
 20
81.420233432594713
 30
0.0
 11
146.06568182357509
 21
56.527086432594722
 31
0.0
  0
LINE
  5
3FD
  8
3
 10
139.56568182357509
 20
81.420233432594713
 30
0.0
 11
139.56568182357509
 21
56.527086432594722
 31
0.0
  0
LINE
  5
3FE
  8
0
 10
138.81568182357509
 20
93.420233432594728
 30
0.0
 11
138.81568182357509
 21
108.4202334325947
 31
0.0
  0
LINE
  5
3FF
  8
0
 10
122.8156818235751
 20
107.0519814325947
 30
0.0
 11
122.8156818235751
 21
125.2202334325947
 31
0.0
  0
LINE
  5
400
  8
0
 10
130.81568182357509
 20
81.420233432594742
 30
0.0
 11
130.81568182357509
 21
51.420233432594728
 31
0.0
  0
LINE
  5
401
  8
3
 10
123.4156818235751
 20
46.420233432594728
 30
0.0
 11
123.4156818235751
 21
27.020233432594718
 31
0.0
  0
LINE
  5
402
  8
0
 10
122.8156818235751
 20
51.420233432594728
 30
0.0
 11
122.8156818235751
 21
81.420233432594742
 31
0.0
  0
LINE
  5
403
  8
0
 10
130.81568182357509
 20
46.420233432594728
 30
0.0
 11
130.81568182357509
 21
27.620233432594731
 31
0.0
  0
LINE
  5
404
  8
3
 10
130.2156818235751
 20
46.420233432594728
 30
0.0
 11
130.2156818235751
 21
27.020233432594718
 31
0.0
  0
LINE
  5
406
  8
0
 10
215.81568182357509
 20
81.420233432594742
 30
0.0
 11
215.81568182357509
 21
55.420233432594713
 31
0.0
  0
LINE
  5
408
  8
3
 10
215.06568182357509
 20
81.420233432594713
 30
0.0
 11
215.06568182357509
 21
56.527086432594722
 31
0.0
  0
LINE
  5
409
  8
3
 10
208.56568182357509
 20
81.420233432594713
 30
0.0
 11
208.56568182357509
 21
56.527086432594722
 31
0.0
  0
LINE
  5
40A
  8
0
 10
207.81568182357509
 20
93.420233432594685
 30
0.0
 11
207.81568182357509
 21
125.2202334325947
 31
0.0
  0
LINE
  5
40C
  8
0
 10
215.81568182357509
 20
46.420233432594713
 30
0.0
 11
215.81568182357509
 21
27.620233432594731
 31
0.0
  0
LINE
  5
40D
  8
3
 10
215.21568182357501
 20
46.420233432594728
 30
0.0
 11
215.2156818235751
 21
27.020233432594718
 31
0.0
  0
LINE
  5
40E
  8
3
 10
208.41568182357511
 20
46.420233432594728
 30
0.0
 11
208.41568182357511
 21
27.020233432594718
 31
0.0
  0
LINE
  5
40F
  8
0
 10
207.81568182357509
 20
55.420233432594713
 30
0.0
 11
207.81568182357509
 21
81.420233432594742
 31
0.0
  0
LINE
  5
464
  8
0
 10
37.815681823575098
 20
107.0519814325947
 30
0.0
 11
37.815681823575119
 21
125.2202334325947
 31
0.0
  0
LINE
  5
465
  8
0
 10
45.815681823575133
 20
81.420233432594742
 30
0.0
 11
45.815681823575119
 21
51.420233432594728
 31
0.0
  0
LINE
  5
466
  8
3
 10
38.415681823575099
 20
46.420233432594728
 30
0.0
 11
38.415681823575113
 21
27.020233432594718
 31
0.0
  0
LINE
  5
467
  8
0
 10
37.815681823575119
 20
51.420233432594728
 30
0.0
 11
37.815681823575119
 21
81.420233432594742
 31
0.0
  0
LINE
  5
468
  8
0
 10
45.815681823575119
 20
46.420233432594728
 30
0.0
 11
45.815681823575119
 21
27.620233432594731
 31
0.0
  0
LINE
  5
469
  8
3
 10
45.215681823575117
 20
46.420233432594728
 30
0.0
 11
45.215681823575117
 21
27.020233432594718
 31
0.0
  0
LINE
  5
46A
  8
0
 10
34.815681823575119
 20
50.420233432594721
 30
0.0
 11
35.315681823575119
 21
50.420233432594721
 31
0.0
  0
ARC
  5
46B
  8
0
 10
48.815681823575112
 20
51.420233432594728
 30
0.0
 40
1.0
 50
240.00000000000091
 51
270.0
  0
ARC
  5
46C
  8
0
 10
34.815681823575119
 20
51.420233432594728
 30
0.0
 40
1.0
 50
270.0
 51
300.0
  0
LINE
  5
46D
  8
0
 10
49.315681823575119
 20
46.420233432594728
 30
0.0
 11
49.815681823575119
 21
46.920233432594728
 31
0.0
  0
LINE
  5
46E
  8
0
 10
49.315681823575119
 20
50.420233432594721
 30
0.0
 11
49.815681823575119
 21
49.920233432594721
 31
0.0
  0
LINE
  5
46F
  8
0
 10
47.315681823575119
 20
55.420233432594721
 30
0.0
 11
47.815681823575119
 21
54.920233432594721
 31
0.0
  0
LINE
  5
470
  8
0
 10
35.815681823575119
 20
54.920233432594721
 30
0.0
 11
36.315681823575119
 21
55.420233432594721
 31
0.0
  0
LINE
  5
471
  8
0
 10
33.815681823575119
 20
49.920233432594721
 30
0.0
 11
34.315681823575119
 21
50.420233432594721
 31
0.0
  0
LINE
  5
472
  8
0
 10
33.815681823575119
 20
46.920233432594728
 30
0.0
 11
34.315681823575119
 21
46.420233432594728
 31
0.0
  0
LINE
  5
473
  8
0
 10
33.815681823575119
 20
49.920233432594721
 30
0.0
 11
33.815681823575119
 21
46.920233432594728
 31
0.0
  0
LINE
  5
474
  8
0
 10
34.815681823575119
 20
50.420233432594721
 30
0.0
 11
34.315681823575119
 21
50.420233432594721
 31
0.0
  0
LINE
  5
475
  8
0
 10
35.815681823575119
 20
54.920233432594721
 30
0.0
 11
35.815681823575119
 21
51.420233432594728
 31
0.0
  0
LINE
  5
476
  8
0
 10
47.315681823575119
 20
55.420233432594721
 30
0.0
 11
45.815681823575098
 21
55.420233432594721
 31
0.0
  0
LINE
  5
477
  8
0
 10
47.815681823575119
 20
51.420233432594728
 30
0.0
 11
47.815681823575119
 21
54.920233432594721
 31
0.0
  0
LINE
  5
478
  8
0
 10
49.315681823575119
 20
50.420233432594721
 30
0.0
 11
48.815681823575112
 21
50.420233432594721
 31
0.0
  0
LINE
  5
479
  8
0
 10
49.815681823575119
 20
46.920233432594728
 30
0.0
 11
49.815681823575119
 21
49.920233432594721
 31
0.0
  0
LINE
  5
47A
  8
0
 10
34.315681823575119
 20
46.420233432594728
 30
0.0
 11
49.315681823575119
 21
46.420233432594728
 31
0.0
  0
LINE
  5
47B
  8
0
 10
48.315681823575133
 20
50.420233432594721
 30
0.0
 11
48.815681823575112
 21
50.420233432594721
 31
0.0
  0
LINE
  5
47C
  8
0
 10
37.815681823575098
 20
55.420233432594721
 30
0.0
 11
36.315681823575119
 21
55.420233432594721
 31
0.0
  0
LINE
  5
4C6
  8
0
 10
214.81568182357509
 20
109.4202334325947
 30
0.0
 11
208.81568182357509
 21
109.4202334325947
 31
0.0
  0
LINE
  5
4C7
  8
0
 10
215.81568182357509
 20
108.4202334325947
 30
0.0
 11
214.81568182357509
 21
109.4202334325947
 31
0.0
  0
LINE
  5
4C8
  8
0
 10
215.81568182357509
 20
108.4202334325947
 30
0.0
 11
207.81568182357509
 21
108.4202334325947
 31
0.0
  0
LINE
  5
4C9
  8
3
 10
215.06568182357509
 20
109.1702334325947
 30
0.0
 11
215.06568182357509
 21
93.420233432594728
 31
0.0
  0
LINE
  5
4CB
  8
3
 10
208.56568182357509
 20
109.1702334325947
 30
0.0
 11
208.56568182357509
 21
93.420233432594728
 31
0.0
  0
LINE
  5
4CC
  8
0
 10
207.81568182357509
 20
108.4202334325947
 30
0.0
 11
208.81568182357509
 21
109.4202334325947
 31
0.0
  0
LINE
  5
4CE
  8
0
 10
207.81568182357509
 20
107.0519814325947
 30
0.0
 11
205.71565082357509
 21
107.0519814325947
 31
0.0
  0
LINE
  5
4D1
  8
0
 10
215.81568182357509
 20
96.420233432594742
 30
0.0
 11
220.31568182357509
 21
96.420233432594742
 31
0.0
  0
LINE
  5
4D2
  8
0
 10
215.81568182357509
 20
96.751981432594704
 30
0.0
 11
220.81568182357509
 21
96.751981432594704
 31
0.0
  0
LINE
  5
4D3
  8
0
 10
215.81568182357509
 20
98.551981432594687
 30
0.0
 11
220.31568182357509
 21
98.551981432594715
 31
0.0
  0
ARC
  5
4D4
  8
0
 10
211.81561982357519
 20
116.7519814325947
 30
0.0
 40
21.931712000000001
 50
292.02078169741571
 51
294.22774499999832
  0
LINE
  5
4D5
  8
0
 10
204.31012882357521
 20
50.695339432594729
 30
0.0
 11
204.31012882357521
 21
50.414680432594757
 31
0.0
  0
LINE
  5
4D6
  8
0
 10
205.56568182357509
 20
51.420233432594728
 30
0.0
 11
205.81568182357509
 21
51.420233432594728
 31
0.0
  0
LINE
  5
4D7
  8
0
 10
204.31012882357521
 20
50.695339432594729
 30
0.0
 11
205.56568182357509
 21
51.420233432594728
 31
0.0
  0
ARC
  5
4D8
  8
0
 10
206.18651682357509
 20
47.953326432594729
 30
0.0
 40
3.3225699999999989
 50
96.651044102893934
 51
115.6157529999999
  0
LINE
  5
4D9
  8
0
 10
219.32123482357511
 20
50.695339432594729
 30
0.0
 11
219.32123482357511
 21
50.414680432594757
 31
0.0
  0
LINE
  5
4DA
  8
0
 10
218.06568182357509
 20
51.420233432594728
 30
0.0
 11
217.81568182357509
 21
51.420233432594728
 31
0.0
  0
LINE
  5
4DB
  8
0
 10
219.32123482357511
 20
50.695339432594729
 30
0.0
 11
218.06568182357509
 21
51.420233432594728
 31
0.0
  0
ARC
  5
4DC
  8
0
 10
217.44484682357509
 20
47.953326432594729
 30
0.0
 40
3.3225699999999989
 50
64.384247000000045
 51
83.348955897103608
  0
TEXT
  5
5C1
  8
0
 62
     3
 10
0.0
 20
0.0
 30
0.0
 40
10.0
  1
BJ153-08063B2
  7
STANDARD1
  0
ENDSEC
  0
EOF
