  0
SECTION
  2
HEADER
  9
$ACADVER
  1
AC1009
  9
$INSBASE
 10
82.638099999999994
 20
103.82319099999999
 30
0.0
  9
$EXTMIN
 10
0.0
 20
-2.960436562073669
 30
0.0
  9
$EXTMAX
 10
274.5
 20
216.0
 30
0.0
  9
$LIMMIN
 10
0.0
 20
0.0
  9
$LIMMAX
 10
375.0
 20
270.0
  9
$ORTHOMODE
 70
     1
  9
$REGENMODE
 70
     1
  9
$FILLMODE
 70
     1
  9
$QTEXTMODE
 70
     0
  9
$MIRRTEXT
 70
     0
  9
$DRAGMODE
 70
     2
  9
$LTSCALE
 40
10.0
  9
$OSMODE
 70
  3071
  9
$ATTMODE
 70
     1
  9
$TEXTSIZE
 40
0.06
  9
$TRACEWID
 40
0.05
  9
$TEXTSTYLE
  7
STANDARD
  9
$CLAYER
  8
0
  9
$CELTYPE
  6
BYLAYER
  9
$CECOLOR
 62
   256
  9
$DIMSCALE
 40
1.0
  9
$DIMASZ
 40
3.0
  9
$DIMEXO
 40
2.0
  9
$DIMDLI
 40
10.0
  9
$DIMRND
 40
0.0
  9
$DIMDLE
 40
0.0
  9
$DIMEXE
 40
2.0
  9
$DIMTP
 40
0.0
  9
$DIMTM
 40
0.0
  9
$DIMTXT
 40
3.0
  9
$DIMCEN
 40
0.0
  9
$DIMTSZ
 40
0.0
  9
$DIMTOL
 70
     0
  9
$DIMLIM
 70
     0
  9
$DIMTIH
 70
     0
  9
$DIMTOH
 70
     0
  9
$DIMSE1
 70
     0
  9
$DIMSE2
 70
     0
  9
$DIMTAD
 70
     1
  9
$DIMZIN
 70
     8
  9
$DIMBLK
  1

  9
$DIMASO
 70
     0
  9
$DIMSHO
 70
     0
  9
$DIMPOST
  1

  9
$DIMAPOST
  1

  9
$DIMALT
 70
     0
  9
$DIMALTD
 70
     2
  9
$DIMALTF
 40
25.399999999999999
  9
$DIMLFAC
 40
1.0
  9
$DIMTOFL
 70
     1
  9
$DIMTVP
 40
1.6000000000000001
  9
$DIMTIX
 70
     1
  9
$DIMSOXD
 70
     0
  9
$DIMSAH
 70
     0
  9
$DIMBLK1
  1

  9
$DIMBLK2
  1

  9
$DIMSTYLE
  2
STANDARD
  9
$DIMCLRD
 70
     0
  9
$DIMCLRE
 70
     0
  9
$DIMCLRT
 70
     0
  9
$DIMTFAC
 40
1.0
  9
$DIMGAP
 40
0.09
  9
$LUNITS
 70
     2
  9
$LUPREC
 70
     4
  9
$SKETCHINC
 40
0.1
  9
$FILLETRAD
 40
0.0
  9
$AUNITS
 70
     0
  9
$AUPREC
 70
     4
  9
$MENU
  1
E:\r13\win\SUPPORT\ACAD
  9
$ELEVATION
 40
0.0
  9
$PELEVATION
 40
0.0
  9
$THICKNESS
 40
0.0
  9
$LIMCHECK
 70
     0
  9
$BLIPMODE
 70
     0
  9
$CHAMFERA
 40
0.0
  9
$CHAMFERB
 40
0.0
  9
$SKPOLY
 70
     0
  9
$TDCREATE
 40
2449840.3457638891
  9
$TDUPDATE
 40
2456597.6347140861
  9
$TDINDWG
 40
0.1422154514
  9
$TDUSRTIMER
 40
0.1422154514
  9
$USRTIMER
 70
     1
  9
$ANGBASE
 50
0.0
  9
$ANGDIR
 70
     0
  9
$PDMODE
 70
     1
  9
$PDSIZE
 40
0.0
  9
$PLINEWID
 40
0.0
  9
$COORDS
 70
     1
  9
$SPLFRAME
 70
     0
  9
$SPLINETYPE
 70
     6
  9
$SPLINESEGS
 70
     8
  9
$ATTDIA
 70
     0
  9
$ATTREQ
 70
     1
  9
$HANDLING
 70
     1
  9
$HANDSEED
  5
680
  9
$SURFTAB1
 70
     6
  9
$SURFTAB2
 70
     6
  9
$SURFTYPE
 70
     6
  9
$SURFU
 70
     6
  9
$SURFV
 70
     6
  9
$UCSNAME
  2

  9
$UCSORG
 10
0.0
 20
0.0
 30
0.0
  9
$UCSXDIR
 10
1.0
 20
0.0
 30
0.0
  9
$UCSYDIR
 10
0.0
 20
1.0
 30
0.0
  9
$PUCSNAME
  2

  9
$PUCSORG
 10
0.0
 20
0.0
 30
0.0
  9
$PUCSXDIR
 10
1.0
 20
0.0
 30
0.0
  9
$PUCSYDIR
 10
0.0
 20
1.0
 30
0.0
  9
$USERI1
 70
     3
  9
$USERI2
 70
     1
  9
$USERI3
 70
     0
  9
$USERI4
 70
     0
  9
$USERI5
 70
     0
  9
$USERR1
 40
1.0
  9
$USERR2
 40
3.0
  9
$USERR3
 40
3.0
  9
$USERR4
 40
3.0
  9
$USERR5
 40
10.0
  9
$WORLDVIEW
 70
     1
  9
$SHADEDGE
 70
     3
  9
$SHADEDIF
 70
    70
  9
$TILEMODE
 70
     1
  9
$MAXACTVP
 70
    16
  9
$PLIMCHECK
 70
     0
  9
$PEXTMIN
 10
1.0000000000000000E+020
 20
1.0000000000000000E+020
 30
1.0000000000000000E+020
  9
$PEXTMAX
 10
-1.0000000000000000E+020
 20
-1.0000000000000000E+020
 30
-1.0000000000000000E+020
  9
$PLIMMIN
 10
0.0
 20
0.0
  9
$PLIMMAX
 10
12.0
 20
9.0
  9
$UNITMODE
 70
     0
  9
$VISRETAIN
 70
     0
  9
$PLINEGEN
 70
     0
  9
$PSLTSCALE
 70
     0
  0
ENDSEC
  0
SECTION
  2
TABLES
  0
TABLE
  2
VPORT
 70
     1
  0
VPORT
  2
*ACTIVE
 70
     0
 10
0.0
 20
0.0
 11
1.0
 21
1.0
 12
195.0581083320873
 22
133.5127261426681
 13
0.0
 23
0.0
 14
5.0
 24
5.0
 15
10.0
 25
10.0
 16
0.0
 26
0.0
 36
1.0
 17
0.0
 27
0.0
 37
0.0
 40
275.42274993631997
 41
1.831871345029239
 42
50.0
 43
0.0
 44
0.0
 50
0.0
 51
0.0
 71
     0
 72
   100
 73
     1
 74
     0
 75
     0
 76
     0
 77
     0
 78
     0
  0
ENDTAB
  0
TABLE
  2
LTYPE
 70
     4
  0
LTYPE
  2
CONTINUOUS
 70
     0
  3
Solid Line
 72
    65
 73
     0
 40
0.0
  0
LTYPE
  2
CENTER
 70
     0
  3
____ _ ____ _ ____ _ ____ _ ____ _ ____ _ ____
 72
    65
 73
     4
 40
2.0
 49
1.25
 49
-0.25
 49
0.25
 49
-0.25
  0
LTYPE
  2
HIDDEN
 70
     0
  3
__ __ __ __ __ __ __ __ __ __ __ __ __ __ __ __
 72
    65
 73
     2
 40
0.375
 49
0.25
 49
-0.125
  0
LTYPE
  2
PHANTOM2
 70
     0
  3
___ _ _ ___ _ _ ___ _ _ ___ _ _
 72
    65
 73
     6
 40
1.25
 49
0.625
 49
-0.125
 49
0.125
 49
-0.125
 49
0.125
 49
-0.125
  0
ENDTAB
  0
TABLE
  2
LAYER
 70
     4
  0
LAYER
  2
0
 70
     0
 62
     7
  6
CONTINUOUS
  0
LAYER
  2
1
 70
     0
 62
     1
  6
CENTER
  0
LAYER
  2
2
 70
     0
 62
     2
  6
HIDDEN
  0
LAYER
  2
3
 70
     0
 62
     3
  6
CONTINUOUS
  0
ENDTAB
  0
TABLE
  2
STYLE
 70
     2
  0
STYLE
  2
STANDARD
 70
     0
 40
0.0
 41
1.0
 50
0.0
 71
     0
 42
0.06
  3
TXT
  4
BIGFONT
  0
STYLE
  2
STANDARD1
 70
     0
 40
0.0
 41
1.0
 50
0.0
 71
     0
 42
3.0
  3
txt
  4

  0
ENDTAB
  0
TABLE
  2
VIEW
 70
     0
  0
ENDTAB
  0
TABLE
  2
UCS
 70
     0
  0
ENDTAB
  0
TABLE
  2
APPID
 70
     6
  0
APPID
  2
ACAD
 70
     0
  0
APPID
  2
ACAD_DSTYLE_DIMJAG
 70
     0
  0
APPID
  2
ACAD_DSTYLE_DIMTALN
 70
     0
  0
APPID
  2
ACAD_EXEMPT_FROM_CAD_STANDARDS
 70
     0
  0
APPID
  2
ACAD_MLEADERVER
 70
     0
  0
APPID
  2
ACAD_NAV_VCDISPLAY
 70
     0
  0
ENDTAB
  0
TABLE
  2
DIMSTYLE
 70
     1
  0
DIMSTYLE
  2
STANDARD
 70
     0
  3

  4

  5

  6

  7

 40
1.0
 41
0.18
 42
0.0625
 43
0.38
 44
0.18
 45
0.0
 46
0.0
 47
0.0
 48
0.0
140
0.18
141
0.09
142
0.0
143
25.399999999999999
144
1.0
145
0.0
146
1.0
147
0.09
 71
     0
 72
     0
 73
     1
 74
     1
 75
     0
 76
     0
 77
     0
 78
     0
170
     0
171
     2
172
     0
173
     0
174
     0
175
     0
176
     0
177
     0
178
     0
  0
ENDTAB
  0
ENDSEC
  0
SECTION
  2
BLOCKS
  0
BLOCK
  8
0
  2
$MODEL_SPACE
 70
     0
 10
0.0
 20
0.0
 30
0.0
  3
$MODEL_SPACE
  1

  0
ENDBLK
  5
21E
  8
0
  0
BLOCK
 67
     1
  8
0
  2
$PAPER_SPACE
 70
     0
 10
0.0
 20
0.0
 30
0.0
  3
$PAPER_SPACE
  1

  0
ENDBLK
  5
21C
 67
     1
  8
0
  0
ENDSEC
  0
SECTION
  2
ENTITIES
  0
LINE
  5
2DC
  8
0
 10
203.0
 20
115.0
 30
0.0
 11
142.0
 21
115.0
 31
0.0
  0
LINE
  5
2DD
  8
0
 10
141.0
 20
116.0
 30
0.0
 11
141.0
 21
124.0
 31
0.0
  0
LINE
  5
2DE
  8
0
 10
146.19615200000001
 20
127.0
 30
0.0
 11
203.0
 21
127.0
 31
0.0
  0
LINE
  5
2DF
  8
0
 10
204.0
 20
126.0
 30
0.0
 11
204.0
 21
116.0
 31
0.0
  0
LINE
  5
2E0
  8
1
 10
196.0
 20
112.0
 30
0.0
 11
196.0
 21
130.0
 31
0.0
  0
LINE
  5
2E1
  8
1
 10
180.0
 20
112.0
 30
0.0
 11
180.0
 21
130.0
 31
0.0
  0
LINE
  5
2E2
  8
1
 10
153.0
 20
112.0
 30
0.0
 11
153.0
 21
130.0
 31
0.0
  0
LINE
  5
2E3
  8
2
 10
204.0
 20
120.0
 30
0.0
 11
180.0
 21
120.0
 31
0.0
  0
LINE
  5
2E4
  8
2
 10
184.5
 20
120.0
 30
0.0
 11
184.5
 21
127.0
 31
0.0
  0
LINE
  5
2E5
  8
2
 10
148.5
 20
115.0
 30
0.0
 11
148.5
 21
127.0
 31
0.0
  0
LINE
  5
2E6
  8
2
 10
200.0
 20
120.0
 30
0.0
 11
200.0
 21
127.0
 31
0.0
  0
LINE
  5
2E7
  8
2
 10
199.3235
 20
120.0
 30
0.0
 11
199.3235
 21
127.0
 31
0.0
  0
LINE
  5
2E8
  8
2
 10
192.6765
 20
120.0
 30
0.0
 11
192.6765
 21
127.0
 31
0.0
  0
LINE
  5
2E9
  8
2
 10
192.0
 20
120.0
 30
0.0
 11
192.0
 21
127.0
 31
0.0
  0
LINE
  5
2EA
  8
0
 10
141.0
 20
124.0
 30
0.0
 11
146.19615200000001
 21
127.0
 31
0.0
  0
LINE
  5
2EB
  8
0
 10
203.0
 20
127.0
 30
0.0
 11
204.0
 21
126.0
 31
0.0
  0
LINE
  5
2EC
  8
0
 10
204.0
 20
116.0
 30
0.0
 11
203.0
 21
115.0
 31
0.0
  0
LINE
  5
2ED
  8
0
 10
142.0
 20
115.0
 30
0.0
 11
141.0
 21
116.0
 31
0.0
  0
LINE
  5
2EE
  8
0
 10
148.745484
 20
127.0
 30
0.0
 11
148.745484
 21
115.0
 31
0.0
  0
CIRCLE
  5
2EF
  8
0
 10
196.0
 20
200.0
 30
0.0
 40
3.3235000000000001
  0
LINE
  5
2F0
  8
0
 10
204.0
 20
207.5
 30
0.0
 11
204.0
 21
192.5
 31
0.0
  0
LINE
  5
2F1
  8
0
 10
148.794229
 20
209.5
 30
0.0
 11
202.0
 21
209.5
 31
0.0
  0
LINE
  5
2F2
  8
0
 10
141.0
 20
195.0
 30
0.0
 11
141.0
 21
205.0
 31
0.0
  0
LINE
  5
2F3
  8
0
 10
202.0
 20
190.5
 30
0.0
 11
148.794229
 21
190.5
 31
0.0
  0
LINE
  5
2F5
  8
2
 10
204.0
 20
195.5
 30
0.0
 11
172.20577136594
 21
195.5
 31
0.0
  0
LINE
  5
2F6
  8
2
 10
204.0
 20
204.5
 30
0.0
 11
172.20577136594
 21
204.5
 31
0.0
  0
LINE
  5
2F7
  8
1
 10
196.0
 20
193.06804600000001
 30
0.0
 11
196.0
 21
207.39208600000001
 31
0.0
  0
LINE
  5
2F9
  8
1
 10
153.0
 20
193.06804600000001
 30
0.0
 11
153.0
 21
207.07883699999999
 31
0.0
  0
CIRCLE
  5
2FA
  8
3
 10
196.0
 20
200.0
 30
0.0
 40
4.0
  0
ARC
  5
2FB
  8
2
 10
180.0
 20
200.0
 30
0.0
 40
4.5
 50
270.0
 51
90.0
  0
ARC
  5
2FC
  8
0
 10
153.0
 20
200.0
 30
0.0
 40
4.5
 50
90.0
 51
270.0
  0
LINE
  5
2FD
  8
0
 10
172.20577136594
 20
195.5
 30
0.0
 11
153.0
 21
195.5
 31
0.0
  0
LINE
  5
2FE
  8
0
 10
153.0
 20
204.5
 30
0.0
 11
172.20577136594
 21
204.5
 31
0.0
  0
LINE
  5
2FF
  8
0
 10
141.0
 20
195.0
 30
0.0
 11
148.794229
 21
190.5
 31
0.0
  0
LINE
  5
300
  8
0
 10
141.0
 20
205.0
 30
0.0
 11
148.794229
 21
209.5
 31
0.0
  0
LINE
  5
301
  8
0
 10
202.0
 20
190.5
 30
0.0
 11
204.0
 21
192.5
 31
0.0
  0
LINE
  5
302
  8
0
 10
204.0
 20
207.5
 30
0.0
 11
202.0
 21
209.5
 31
0.0
  0
LINE
  5
303
  8
0
 10
146.0
 20
207.5
 30
0.0
 11
146.0
 21
192.5
 31
0.0
  0
LINE
  5
306
  8
1
 10
200.0
 20
213.5
 30
0.0
 11
200.0
 21
186.5
 31
0.0
  0
LINE
  5
308
  8
0
 10
208.5
 20
203.020815
 30
0.0
 11
208.14644699999999
 21
203.874369
 31
0.0
  0
LINE
  5
309
  8
0
 10
208.5
 20
196.979185
 30
0.0
 11
208.5
 21
203.020815
 31
0.0
  0
LINE
  5
30A
  8
0
 10
208.14644699999999
 20
196.125631
 30
0.0
 11
208.5
 21
196.979185
 31
0.0
  0
LINE
  5
30B
  8
0
 10
203.874369
 20
191.85355300000001
 30
0.0
 11
208.14644699999999
 21
196.125631
 31
0.0
  0
LINE
  5
30C
  8
0
 10
203.020815
 20
191.5
 30
0.0
 11
203.874369
 21
191.85355300000001
 31
0.0
  0
LINE
  5
30D
  8
0
 10
203.0
 20
191.5
 30
0.0
 11
203.020815
 21
191.5
 31
0.0
  0
LINE
  5
314
  8
0
 10
203.020815
 20
208.5
 30
0.0
 11
203.0
 21
208.5
 31
0.0
  0
LINE
  5
315
  8
0
 10
203.874369
 20
208.14644699999999
 30
0.0
 11
203.020815
 21
208.5
 31
0.0
  0
LINE
  5
316
  8
0
 10
208.14644699999999
 20
203.874369
 30
0.0
 11
203.874369
 21
208.14644699999999
 31
0.0
  0
LINE
  5
317
  8
1
 10
213.5
 20
200.0
 30
0.0
 11
186.5
 21
200.0
 31
0.0
  0
ARC
  5
318
  8
0
 10
200.0
 20
200.0
 30
0.0
 40
8.0
 50
300.0
 51
59.999999999999972
  0
ARC
  5
319
  8
0
 10
200.0
 20
200.0
 30
0.0
 40
4.0
 50
130.90625807698819
 51
229.09374192301181
  0
LINE
  5
31A
  8
0
 10
116.5
 20
104.855662
 30
0.0
 11
116.25
 21
105.0
 31
0.0
  0
ARC
  5
31B
  8
0
 10
113.25
 20
95.468509999999995
 30
0.0
 40
9.3871520000000004
 50
69.743841999999916
 51
110.2561580000001
  0
ARC
  5
31C
  8
0
 10
113.25
 20
109.53149000000001
 30
0.0
 40
9.3871520000000004
 50
249.74384199999989
 51
290.25615800000008
  0
LINE
  5
31D
  8
0
 10
116.5
 20
100.144338
 30
0.0
 11
116.25
 21
100.0
 31
0.0
  0
LINE
  5
31E
  8
0
 10
116.5
 20
104.855662
 30
0.0
 11
116.5
 21
100.144338
 31
0.0
  0
LINE
  5
31F
  8
0
 10
110.0
 20
104.27510599999999
 30
0.0
 11
110.0
 21
100.72489400000001
 31
0.0
  0
LINE
  5
320
  8
0
 10
103.5
 20
104.855662
 30
0.0
 11
103.5
 21
100.144338
 31
0.0
  0
LINE
  5
321
  8
0
 10
103.5
 20
100.144338
 30
0.0
 11
103.75
 21
100.0
 31
0.0
  0
ARC
  5
322
  8
0
 10
106.75
 20
109.53149000000001
 30
0.0
 40
9.3871520000000004
 50
249.74384199999989
 51
290.25615800000008
  0
ARC
  5
323
  8
0
 10
106.75
 20
95.468509999999995
 30
0.0
 40
9.3871520000000004
 50
69.743841999999916
 51
110.2561580000001
  0
LINE
  5
324
  8
0
 10
103.5
 20
104.855662
 30
0.0
 11
103.75
 21
105.0
 31
0.0
  0
LINE
  5
325
  8
0
 10
103.75
 20
105.0
 30
0.0
 11
116.25
 21
105.0
 31
0.0
  0
LINE
  5
326
  8
0
 10
116.25
 20
100.0
 30
0.0
 11
103.75
 21
100.0
 31
0.0
  0
LINE
  5
327
  8
0
 10
271.5
 20
104.855662
 30
0.0
 11
271.25
 21
105.0
 31
0.0
  0
ARC
  5
328
  8
0
 10
268.25
 20
95.468509999999995
 30
0.0
 40
9.3871520000000004
 50
69.743841999999916
 51
110.2561580000001
  0
ARC
  5
329
  8
0
 10
268.25
 20
109.53149000000001
 30
0.0
 40
9.3871520000000004
 50
249.74384199999989
 51
290.25615800000008
  0
LINE
  5
32A
  8
0
 10
271.5
 20
100.144338
 30
0.0
 11
271.25
 21
100.0
 31
0.0
  0
LINE
  5
32B
  8
0
 10
271.5
 20
104.855662
 30
0.0
 11
271.5
 21
100.144338
 31
0.0
  0
LINE
  5
32C
  8
0
 10
265.0
 20
104.27510599999999
 30
0.0
 11
265.0
 21
100.72489400000001
 31
0.0
  0
LINE
  5
32D
  8
0
 10
258.5
 20
104.855662
 30
0.0
 11
258.5
 21
100.144338
 31
0.0
  0
LINE
  5
32E
  8
0
 10
258.5
 20
100.144338
 30
0.0
 11
258.75
 21
100.0
 31
0.0
  0
ARC
  5
32F
  8
0
 10
261.75
 20
109.53149000000001
 30
0.0
 40
9.3871520000000004
 50
249.74384199999989
 51
290.25615800000008
  0
ARC
  5
330
  8
0
 10
261.75
 20
95.468509999999995
 30
0.0
 40
9.3871520000000004
 50
69.743841999999916
 51
110.2561580000001
  0
LINE
  5
331
  8
0
 10
258.5
 20
104.855662
 30
0.0
 11
258.75
 21
105.0
 31
0.0
  0
LINE
  5
332
  8
0
 10
258.75
 20
105.0
 30
0.0
 11
271.25
 21
105.0
 31
0.0
  0
LINE
  5
333
  8
0
 10
271.25
 20
100.0
 30
0.0
 11
258.75
 21
100.0
 31
0.0
  0
LINE
  5
334
  8
0
 10
192.49444700000001
 20
104.27510599999999
 30
0.0
 11
192.49444700000001
 21
100.72489400000001
 31
0.0
  0
LINE
  5
335
  8
0
 10
206.25
 20
100.0
 30
0.0
 11
193.75
 21
100.0
 31
0.0
  0
LINE
  5
336
  8
0
 10
193.75
 20
105.0
 30
0.0
 11
206.25
 21
105.0
 31
0.0
  0
ARC
  5
337
  8
0
 10
205.629165
 20
101.53309299999999
 30
0.0
 40
3.3225699999999989
 50
64.384247000000116
 51
124.3842470000001
  0
LINE
  5
338
  8
0
 10
207.50555299999999
 20
104.27510599999999
 30
0.0
 11
206.25
 21
105.0
 31
0.0
  0
LINE
  5
339
  8
0
 10
207.50555299999999
 20
100.72489400000001
 30
0.0
 11
206.25
 21
100.0
 31
0.0
  0
ARC
  5
33A
  8
0
 10
205.629165
 20
103.46690700000001
 30
0.0
 40
3.3225699999999989
 50
235.6157529999999
 51
295.61575299999993
  0
LINE
  5
33B
  8
0
 10
207.50555299999999
 20
104.27510599999999
 30
0.0
 11
207.50555299999999
 21
100.72489400000001
 31
0.0
  0
LINE
  5
33C
  8
0
 10
203.75277700000001
 20
104.27510599999999
 30
0.0
 11
203.75277700000001
 21
100.72489400000001
 31
0.0
  0
LINE
  5
33D
  8
0
 10
196.24722299999999
 20
104.27510599999999
 30
0.0
 11
196.24722299999999
 21
100.72489400000001
 31
0.0
  0
ARC
  5
33E
  8
0
 10
200.0
 20
112.56378100000001
 30
0.0
 40
12.419442999999999
 50
252.41204599999941
 51
287.58795400000059
  0
ARC
  5
33F
  8
0
 10
194.370835
 20
103.46690700000001
 30
0.0
 40
3.3225699999999989
 50
244.3842470000001
 51
304.38424700000007
  0
LINE
  5
340
  8
0
 10
192.49444700000001
 20
100.72489400000001
 30
0.0
 11
193.75
 21
100.0
 31
0.0
  0
LINE
  5
341
  8
0
 10
192.49444700000001
 20
104.27510599999999
 30
0.0
 11
193.75
 21
105.0
 31
0.0
  0
ARC
  5
342
  8
0
 10
200.0
 20
92.436218999999994
 30
0.0
 40
12.419442999999999
 50
72.412045999999393
 51
107.58795400000059
  0
ARC
  5
343
  8
0
 10
194.370835
 20
101.53309299999999
 30
0.0
 40
3.3225699999999989
 50
55.61575299999987
 51
115.6157529999999
  0
LINE
  5
344
  8
1
 10
110.0
 20
159.0
 30
0.0
 11
110.0
 21
72.999999999999986
 31
0.0
  0
LINE
  5
345
  8
3
 10
113.40000000000001
 20
140.63174799999999
 30
0.0
 11
113.40000000000001
 21
150.40000000000001
 31
0.0
  0
LINE
  5
348
  8
0
 10
106.0
 20
149.80000000000001
 30
0.0
 11
114.0
 21
149.80000000000001
 31
0.0
  0
LINE
  5
349
  8
0
 10
106.0
 20
89.199999999999989
 30
0.0
 11
114.0
 21
89.199999999999989
 31
0.0
  0
LINE
  5
34A
  8
0
 10
112.8
 20
88.0
 30
0.0
 11
114.0
 21
89.199999999999989
 31
0.0
  0
LINE
  5
34B
  8
0
 10
106.0
 20
89.199999999999989
 30
0.0
 11
107.2
 21
88.0
 31
0.0
  0
LINE
  5
34C
  8
0
 10
112.8
 20
151.0
 30
0.0
 11
114.0
 21
149.80000000000001
 31
0.0
  0
LINE
  5
34D
  8
0
 10
106.0
 20
149.80000000000001
 30
0.0
 11
107.2
 21
151.0
 31
0.0
  0
LINE
  5
34E
  8
0
 10
114.0
 20
149.80000000000001
 30
0.0
 11
114.0
 21
140.63174799999999
 31
0.0
  0
LINE
  5
34F
  8
0
 10
107.2
 20
151.0
 30
0.0
 11
112.8
 21
151.0
 31
0.0
  0
LINE
  5
350
  8
0
 10
106.0
 20
89.199999999999989
 30
0.0
 11
106.0
 21
100.0
 31
0.0
  0
LINE
  5
351
  8
0
 10
112.8
 20
88.0
 30
0.0
 11
107.2
 21
88.0
 31
0.0
  0
LINE
  5
352
  8
3
 10
106.59999999999999
 20
140.63174799999999
 30
0.0
 11
106.59999999999999
 21
150.40000000000001
 31
0.0
  0
LINE
  5
354
  8
3
 10
113.40000000000001
 20
113.0
 30
0.0
 11
113.40000000000001
 21
105.0
 31
0.0
  0
LINE
  5
356
  8
3
 10
106.0
 20
114.03923
 30
0.0
 11
106.59999999999999
 21
113.0
 31
0.0
  0
LINE
  5
357
  8
3
 10
106.59999999999999
 20
113.0
 30
0.0
 11
106.59999999999999
 21
105.0
 31
0.0
  0
LINE
  5
35A
  8
3
 10
268.39999999999998
 20
140.63174799999999
 30
0.0
 11
268.39999999999998
 21
150.40000000000001
 31
0.0
  0
LINE
  5
35D
  8
0
 10
261.0
 20
149.80000000000001
 30
0.0
 11
269.0
 21
149.80000000000001
 31
0.0
  0
LINE
  5
361
  8
0
 10
267.80000000000001
 20
151.0
 30
0.0
 11
269.0
 21
149.80000000000001
 31
0.0
  0
LINE
  5
362
  8
0
 10
261.0
 20
149.80000000000001
 30
0.0
 11
262.19999999999999
 21
151.0
 31
0.0
  0
LINE
  5
364
  8
0
 10
262.19999999999999
 20
151.0
 30
0.0
 11
267.80000000000001
 21
151.0
 31
0.0
  0
LINE
  5
367
  8
3
 10
261.60000000000002
 20
140.63174799999999
 30
0.0
 11
261.60000000000002
 21
150.40000000000001
 31
0.0
  0
LINE
  5
36E
  8
1
 10
180.0
 20
216.0
 30
0.0
 11
180.0
 21
184.0
 31
0.0
  0
LINE
  5
36F
  8
1
 10
196.0
 20
200.0
 30
0.0
 11
135.15190560820761
 21
200.0
 31
0.0
  0
CIRCLE
  5
370
  8
0
 10
180.0
 20
200.0
 30
0.0
 40
9.0
  0
CIRCLE
  5
371
  8
0
 10
180.0
 20
200.0
 30
0.0
 40
3.399999999999999
  0
CIRCLE
  5
372
  8
3
 10
180.0
 20
200.0
 30
0.0
 40
4.0
  0
LINE
  5
373
  8
0
 10
184.02351100000001
 20
193.96892600000001
 30
0.0
 11
187.23481899999999
 21
199.53107399999999
 31
0.0
  0
LINE
  5
374
  8
0
 10
187.23481899999999
 20
200.46892600000001
 30
0.0
 11
184.02351100000001
 21
206.03107399999999
 31
0.0
  0
LINE
  5
375
  8
0
 10
183.211308
 20
206.5
 30
0.0
 11
176.788692
 21
206.5
 31
0.0
  0
LINE
  5
376
  8
0
 10
175.97648899999999
 20
206.03107399999999
 30
0.0
 11
172.76518100000001
 21
200.46892600000001
 31
0.0
  0
LINE
  5
377
  8
0
 10
172.76518100000001
 20
199.53107399999999
 30
0.0
 11
175.97648899999999
 21
193.96892600000001
 31
0.0
  0
LINE
  5
378
  8
0
 10
176.788692
 20
193.5
 30
0.0
 11
183.211308
 21
193.5
 31
0.0
  0
ARC
  5
379
  8
0
 10
180.0
 20
200.0
 30
0.0
 40
7.25
 50
56.291554999999413
 51
63.70844500000031
  0
ARC
  5
37A
  8
0
 10
180.0
 20
200.0
 30
0.0
 40
7.25
 50
116.2915549999997
 51
123.70844500000049
  0
ARC
  5
37B
  8
0
 10
180.0
 20
200.0
 30
0.0
 40
7.25
 50
176.2915550000003
 51
183.70844499999961
  0
ARC
  5
37C
  8
0
 10
180.0
 20
200.0
 30
0.0
 40
7.25
 50
236.29155499999939
 51
243.7084450000003
  0
ARC
  5
37D
  8
0
 10
180.0
 20
200.0
 30
0.0
 40
7.25
 50
296.29155499999968
 51
303.70844500000061
  0
ARC
  5
37E
  8
0
 10
180.0
 20
200.0
 30
0.0
 40
7.25
 50
356.29155500000041
 51
3.7084449999996489
  0
CIRCLE
  5
37F
  8
0
 10
180.0
 20
200.0
 30
0.0
 40
6.25
  0
LINE
  5
380
  8
0
 10
172.49444700000001
 20
104.27510599999999
 30
0.0
 11
172.49444700000001
 21
100.72489400000001
 31
0.0
  0
LINE
  5
381
  8
0
 10
186.25
 20
100.0
 30
0.0
 11
173.75
 21
100.0
 31
0.0
  0
LINE
  5
382
  8
0
 10
173.75
 20
105.0
 30
0.0
 11
186.25
 21
105.0
 31
0.0
  0
ARC
  5
383
  8
0
 10
185.629165
 20
101.53309299999999
 30
0.0
 40
3.3225699999999989
 50
64.384247000000116
 51
124.3842470000001
  0
LINE
  5
384
  8
0
 10
187.50555299999999
 20
104.27510599999999
 30
0.0
 11
186.25
 21
105.0
 31
0.0
  0
LINE
  5
385
  8
0
 10
187.50555299999999
 20
100.72489400000001
 30
0.0
 11
186.25
 21
100.0
 31
0.0
  0
ARC
  5
386
  8
0
 10
185.629165
 20
103.46690700000001
 30
0.0
 40
3.3225699999999989
 50
235.6157529999999
 51
295.61575299999993
  0
LINE
  5
387
  8
0
 10
187.50555299999999
 20
104.27510599999999
 30
0.0
 11
187.50555299999999
 21
100.72489400000001
 31
0.0
  0
LINE
  5
388
  8
0
 10
183.75277700000001
 20
104.27510599999999
 30
0.0
 11
183.75277700000001
 21
100.72489400000001
 31
0.0
  0
LINE
  5
389
  8
0
 10
176.24722299999999
 20
104.27510599999999
 30
0.0
 11
176.24722299999999
 21
100.72489400000001
 31
0.0
  0
ARC
  5
38A
  8
0
 10
180.0
 20
112.56378100000001
 30
0.0
 40
12.419442999999999
 50
252.41204599999941
 51
287.58795400000059
  0
ARC
  5
38B
  8
0
 10
174.370835
 20
103.46690700000001
 30
0.0
 40
3.3225699999999989
 50
244.3842470000001
 51
304.38424700000007
  0
LINE
  5
38C
  8
0
 10
172.49444700000001
 20
100.72489400000001
 30
0.0
 11
173.75
 21
100.0
 31
0.0
  0
LINE
  5
38D
  8
0
 10
172.49444700000001
 20
104.27510599999999
 30
0.0
 11
173.75
 21
105.0
 31
0.0
  0
ARC
  5
38E
  8
0
 10
180.0
 20
92.436218999999994
 30
0.0
 40
12.419442999999999
 50
72.412045999999393
 51
107.58795400000059
  0
ARC
  5
38F
  8
0
 10
174.370835
 20
101.53309299999999
 30
0.0
 40
3.3225699999999989
 50
55.61575299999987
 51
115.6157529999999
  0
LINE
  5
390
  8
0
 10
196.979185
 20
108.582542
 30
0.0
 11
196.125631
 21
108.582542
 31
0.0
  0
LINE
  5
391
  8
0
 10
196.979185
 20
114.417458
 30
0.0
 11
196.125631
 21
114.417458
 31
0.0
  0
LINE
  5
392
  8
0
 10
191.85355300000001
 20
114.417458
 30
0.0
 11
191.5
 21
114.417458
 31
0.0
  0
LINE
  5
393
  8
0
 10
191.85355300000001
 20
108.582542
 30
0.0
 11
191.5
 21
108.582542
 31
0.0
  0
LINE
  5
394
  8
0
 10
191.85355300000001
 20
108.582542
 30
0.0
 11
191.85355300000001
 21
114.417458
 31
0.0
  0
ARC
  5
395
  8
0
 10
193.98959199999999
 20
116.198759
 30
0.0
 40
7.9100839999999986
 50
254.3333540000007
 51
285.66664599999928
  0
ARC
  5
396
  8
0
 10
193.98959199999999
 20
106.801241
 30
0.0
 40
7.9100839999999986
 50
74.333354000000668
 51
105.6666459999993
  0
LINE
  5
397
  8
0
 10
196.125631
 20
108.582542
 30
0.0
 11
196.125631
 21
114.417458
 31
0.0
  0
ARC
  5
398
  8
0
 10
206.01040800000001
 20
116.198759
 30
0.0
 40
7.9100839999999986
 50
254.3333540000007
 51
285.66664599999928
  0
ARC
  5
399
  8
0
 10
200.0
 20
123.96191
 30
0.0
 40
15.673235
 50
258.88743300000033
 51
281.11256699999967
  0
LINE
  5
39A
  8
0
 10
203.874369
 20
108.582542
 30
0.0
 11
203.020815
 21
108.582542
 31
0.0
  0
LINE
  5
39B
  8
0
 10
208.14644699999999
 20
108.582542
 30
0.0
 11
208.5
 21
108.582542
 31
0.0
  0
LINE
  5
39C
  8
0
 10
208.14644699999999
 20
114.417458
 30
0.0
 11
208.5
 21
114.417458
 31
0.0
  0
LINE
  5
39D
  8
0
 10
203.874369
 20
114.417458
 30
0.0
 11
203.020815
 21
114.417458
 31
0.0
  0
ARC
  5
39E
  8
0
 10
200.0
 20
99.038089999999997
 30
0.0
 40
15.673235
 50
78.887433000000343
 51
101.1125669999996
  0
ARC
  5
39F
  8
0
 10
206.01040800000001
 20
106.801241
 30
0.0
 40
7.9100839999999986
 50
74.333354000000668
 51
105.6666459999993
  0
LINE
  5
3A0
  8
0
 10
196.979185
 20
108.582542
 30
0.0
 11
196.979185
 21
114.417458
 31
0.0
  0
LINE
  5
3A1
  8
0
 10
203.020815
 20
108.582542
 30
0.0
 11
203.020815
 21
114.417458
 31
0.0
  0
LINE
  5
3A2
  8
0
 10
203.874369
 20
108.582542
 30
0.0
 11
203.874369
 21
114.417458
 31
0.0
  0
LINE
  5
3A3
  8
0
 10
208.14644699999999
 20
108.582542
 30
0.0
 11
208.14644699999999
 21
114.417458
 31
0.0
  0
ARC
  5
3A4
  8
0
 10
204.40000000000001
 20
115.40000000000001
 30
0.0
 40
0.4
 50
180.0
 51
270.0
  0
LINE
  5
3A6
  8
0
 10
191.5
 20
108.288675
 30
0.0
 11
192.0
 21
108.0
 31
0.0
  0
LINE
  5
3A7
  8
0
 10
191.5
 20
114.711325
 30
0.0
 11
192.0
 21
115.0
 31
0.0
  0
LINE
  5
3A8
  8
0
 10
191.5
 20
108.288675
 30
0.0
 11
191.5
 21
114.711325
 31
0.0
  0
LINE
  5
3A9
  8
0
 10
192.0
 20
108.0
 30
0.0
 11
208.0
 21
108.0
 31
0.0
  0
LINE
  5
3AA
  8
0
 10
208.0
 20
115.0
 30
0.0
 11
192.0
 21
115.0
 31
0.0
  0
LINE
  5
3AB
  8
0
 10
208.5
 20
108.288675
 30
0.0
 11
208.5
 21
114.711325
 31
0.0
  0
LINE
  5
3AC
  8
0
 10
208.5
 20
114.711325
 30
0.0
 11
208.0
 21
115.0
 31
0.0
  0
LINE
  5
3AD
  8
0
 10
208.5
 20
108.288675
 30
0.0
 11
208.0
 21
108.0
 31
0.0
  0
LINE
  5
3B2
  8
0
 10
196.0
 20
108.0
 30
0.0
 11
196.0
 21
105.0
 31
0.0
  0
LINE
  5
3B3
  8
0
 10
197.19999999999999
 20
78.0
 30
0.0
 11
202.80000000000001
 21
78.0
 31
0.0
  0
LINE
  5
3B4
  8
0
 10
196.0
 20
79.200000000000003
 30
0.0
 11
197.19999999999999
 21
78.0
 31
0.0
  0
LINE
  5
3B5
  8
0
 10
196.0
 20
79.200000000000003
 30
0.0
 11
204.0
 21
79.200000000000003
 31
0.0
  0
LINE
  5
3B6
  8
3
 10
196.75
 20
106.0
 30
0.0
 11
196.75
 21
105.0
 31
0.0
  0
LINE
  5
3B7
  8
3
 10
203.25
 20
106.0
 30
0.0
 11
203.25
 21
105.0
 31
0.0
  0
LINE
  5
3B8
  8
0
 10
204.0
 20
79.200000000000003
 30
0.0
 11
202.80000000000001
 21
78.0
 31
0.0
  0
LINE
  5
3B9
  8
0
 10
204.0
 20
108.0
 30
0.0
 11
204.0
 21
105.0
 31
0.0
  0
LINE
  5
3BB
  8
0
 10
204.0
 20
118.5
 30
0.0
 11
204.0
 21
115.40000000000001
 31
0.0
  0
LINE
  5
3BC
  8
3
 10
196.75
 20
106.0
 30
0.0
 11
196.0
 21
107.299038
 31
0.0
  0
LINE
  5
3BD
  8
3
 10
203.25
 20
106.0
 30
0.0
 11
204.0
 21
107.299038
 31
0.0
  0
LINE
  5
3BE
  8
0
 10
196.0
 20
106.0
 30
0.0
 11
204.0
 21
106.0
 31
0.0
  0
LINE
  5
3BF
  8
1
 10
200.0
 20
124.0
 30
0.0
 11
200.0
 21
73.0
 31
0.0
  0
LINE
  5
3C0
  8
1
 10
180.0
 20
159.0
 30
0.0
 11
180.0
 21
80.0
 31
0.0
  0
LINE
  5
3C4
  8
0
 10
176.0
 20
149.80000000000001
 30
0.0
 11
184.0
 21
149.80000000000001
 31
0.0
  0
LINE
  5
3C5
  8
0
 10
176.0
 20
89.199999999999989
 30
0.0
 11
184.0
 21
89.199999999999989
 31
0.0
  0
LINE
  5
3C6
  8
0
 10
182.80000000000001
 20
88.0
 30
0.0
 11
184.0
 21
89.199999999999989
 31
0.0
  0
LINE
  5
3C7
  8
0
 10
176.0
 20
89.199999999999989
 30
0.0
 11
177.19999999999999
 21
88.0
 31
0.0
  0
LINE
  5
3C8
  8
0
 10
182.80000000000001
 20
151.0
 30
0.0
 11
184.0
 21
149.80000000000001
 31
0.0
  0
LINE
  5
3C9
  8
0
 10
176.0
 20
149.80000000000001
 30
0.0
 11
177.19999999999999
 21
151.0
 31
0.0
  0
LINE
  5
3CA
  8
0
 10
184.0
 20
149.80000000000001
 30
0.0
 11
184.0
 21
140.63174799999999
 31
0.0
  0
LINE
  5
3CB
  8
0
 10
177.19999999999999
 20
151.0
 30
0.0
 11
182.80000000000001
 21
151.0
 31
0.0
  0
LINE
  5
3CC
  8
0
 10
176.0
 20
89.199999999999989
 30
0.0
 11
176.0
 21
100.0
 31
0.0
  0
LINE
  5
3CD
  8
0
 10
182.80000000000001
 20
88.0
 30
0.0
 11
177.19999999999999
 21
88.0
 31
0.0
  0
LINE
  5
3D0
  8
3
 10
183.40000000000001
 20
113.0
 30
0.0
 11
183.40000000000001
 21
105.0
 31
0.0
  0
LINE
  5
3D1
  8
3
 10
184.0
 20
114.03923
 30
0.0
 11
183.40000000000001
 21
113.0
 31
0.0
  0
LINE
  5
3D2
  8
3
 10
176.0
 20
114.03923
 30
0.0
 11
176.59999999999999
 21
113.0
 31
0.0
  0
LINE
  5
3D3
  8
3
 10
176.59999999999999
 20
113.0
 30
0.0
 11
176.59999999999999
 21
105.0
 31
0.0
  0
LINE
  5
3D4
  8
0
 10
176.0
 20
113.0
 30
0.0
 11
184.0
 21
113.0
 31
0.0
  0
LINE
  5
3DC
  8
0
 10
204.0
 20
100.0
 30
0.0
 11
204.0
 21
79.200000000000003
 31
0.0
  0
LINE
  5
3DD
  8
3
 10
203.25
 20
100.0
 30
0.0
 11
203.25
 21
78.450000000000003
 31
0.0
  0
LINE
  5
3DE
  8
3
 10
196.75
 20
100.0
 30
0.0
 11
196.75
 21
78.450000000000003
 31
0.0
  0
LINE
  5
3DF
  8
0
 10
196.0
 20
100.0
 30
0.0
 11
196.0
 21
79.200000000000003
 31
0.0
  0
LINE
  5
3E0
  8
0
 10
184.0
 20
100.0
 30
0.0
 11
184.0
 21
89.199999999999989
 31
0.0
  0
LINE
  5
3E1
  8
3
 10
183.40000000000001
 20
100.0
 30
0.0
 11
183.40000000000001
 21
88.599999999999994
 31
0.0
  0
LINE
  5
3E2
  8
3
 10
176.59999999999999
 20
100.0
 30
0.0
 11
176.59999999999999
 21
88.599999999999994
 31
0.0
  0
LINE
  5
3E3
  8
0
 10
176.0
 20
105.0
 30
0.0
 11
176.0
 21
115.0
 31
0.0
  0
ARC
  5
3E4
  8
0
 10
185.4375
 20
137.63174799999999
 30
0.0
 40
3.0256219999999998
 50
53.198083000000722
 51
53.198083000000722
  0
LINE
  5
3E5
  8
0
 10
187.25
 20
140.05439799999999
 30
0.0
 11
186.25
 21
140.63174799999999
 31
0.0
  0
LINE
  5
3E6
  8
0
 10
172.75
 20
140.05439799999999
 30
0.0
 11
173.75
 21
140.63174799999999
 31
0.0
  0
ARC
  5
3E7
  8
0
 10
174.5625
 20
137.63174799999999
 30
0.0
 40
3.0256219999999998
 50
53.198083000000722
 51
113.19808300000059
  0
ARC
  5
3E8
  8
0
 10
174.5625
 20
137.63174799999999
 30
0.0
 40
3.0256219999999998
 50
126.80191699999919
 51
126.80191699999919
  0
LINE
  5
3E9
  8
0
 10
173.75
 20
140.63174799999999
 30
0.0
 11
186.25
 21
140.63174799999999
 31
0.0
  0
LINE
  5
3EA
  8
0
 10
187.25
 20
140.05439799999999
 30
0.0
 11
187.25
 21
132.53174799999999
 31
0.0
  0
LINE
  5
3EB
  8
0
 10
189.0
 20
131.63174799999999
 30
0.0
 11
189.0
 21
130.331748
 31
0.0
  0
LINE
  5
3EC
  8
0
 10
176.375
 20
140.05439799999999
 30
0.0
 11
176.375
 21
132.13174799999999
 31
0.0
  0
LINE
  5
3ED
  8
0
 10
171.0
 20
131.63174799999999
 30
0.0
 11
171.0
 21
130.331748
 31
0.0
  0
LINE
  5
3EE
  8
0
 10
171.5
 20
132.13174799999999
 30
0.0
 11
188.5
 21
132.13174799999999
 31
0.0
  0
ARC
  5
3EF
  8
0
 10
180.0
 20
128.96295799999999
 30
0.0
 40
11.66879
 50
90.0
 51
108.09887300000059
  0
ARC
  5
3F1
  8
0
 10
187.65000000000001
 20
132.53174799999999
 30
0.0
 40
0.4
 50
180.0
 51
270.0
  0
LINE
  5
3F2
  8
0
 10
172.75
 20
140.05439799999999
 30
0.0
 11
172.75
 21
132.53174799999999
 31
0.0
  0
ARC
  5
3F3
  8
0
 10
172.34999999999999
 20
132.53174799999999
 30
0.0
 40
0.4
 50
270.0
 51
0.0
  0
LINE
  5
3F4
  8
0
 10
189.0
 20
131.63174799999999
 30
0.0
 11
188.5
 21
132.13174799999999
 31
0.0
  0
LINE
  5
3F5
  8
0
 10
171.5
 20
132.13174799999999
 30
0.0
 11
171.0
 21
131.63174799999999
 31
0.0
  0
ARC
  5
3F6
  8
0
 10
180.0
 20
150.33174799999989
 30
0.0
 40
21.931712000000001
 50
292.0207816974139
 51
294.22774500000008
  0
ARC
  5
3F8
  8
0
 10
180.0
 20
150.33174799999989
 30
0.0
 40
21.931712000000001
 50
245.77225499999989
 51
247.9792183025861
  0
LINE
  5
3F9
  8
0
 10
171.0
 20
130.331748
 30
0.0
 11
189.0
 21
130.331748
 31
0.0
  0
ARC
  5
3FA
  8
0
 10
180.0
 20
128.96295799999999
 30
0.0
 40
11.66879
 50
71.901126999999406
 51
90.0
  0
LINE
  5
3FB
  8
0
 10
183.625
 20
140.05439799999999
 30
0.0
 11
183.625
 21
132.13174799999999
 31
0.0
  0
ARC
  5
3FC
  8
0
 10
185.4375
 20
137.63174799999999
 30
0.0
 40
3.0256219999999998
 50
66.801916999999364
 51
126.80191699999919
  0
LINE
  5
3FD
  8
3
 10
176.59999999999999
 20
140.63174799999999
 30
0.0
 11
176.59999999999999
 21
150.40000000000001
 31
0.0
  0
LINE
  5
3FE
  8
0
 10
176.0
 20
140.63174799999999
 30
0.0
 11
176.0
 21
149.80000000000001
 31
0.0
  0
LINE
  5
3FF
  8
0
 10
184.0
 20
115.0
 30
0.0
 11
184.0
 21
105.0
 31
0.0
  0
LINE
  5
400
  8
3
 10
183.40000000000001
 20
140.63174799999999
 30
0.0
 11
183.40000000000001
 21
150.40000000000001
 31
0.0
  0
LINE
  5
401
  8
1
 10
180.0
 20
133.0
 30
0.0
 11
180.0
 21
124.0
 31
0.0
  0
LINE
  5
40A
  8
0
 10
189.0
 20
129.5
 30
0.0
 11
188.5
 21
130.0
 31
0.0
  0
LINE
  5
40B
  8
0
 10
188.5
 20
127.0
 30
0.0
 11
189.0
 21
127.5
 31
0.0
  0
LINE
  5
40C
  8
0
 10
171.0
 20
127.5
 30
0.0
 11
171.5
 21
127.0
 31
0.0
  0
LINE
  5
40D
  8
0
 10
171.5
 20
130.0
 30
0.0
 11
171.0
 21
129.5
 31
0.0
  0
LINE
  5
40E
  8
0
 10
171.0
 20
127.5
 30
0.0
 11
171.0
 21
129.5
 31
0.0
  0
LINE
  5
40F
  8
0
 10
188.5
 20
127.0
 30
0.0
 11
171.5
 21
127.0
 31
0.0
  0
LINE
  5
410
  8
0
 10
189.0
 20
129.5
 30
0.0
 11
189.0
 21
127.5
 31
0.0
  0
LINE
  5
411
  8
0
 10
171.5
 20
130.0
 30
0.0
 11
188.5
 21
130.0
 31
0.0
  0
LINE
  5
414
  8
0
 10
119.5
 20
126.0
 30
0.0
 11
118.5
 21
127.0
 31
0.0
  0
LINE
  5
415
  8
0
 10
118.5
 20
115.0
 30
0.0
 11
119.5
 21
116.0
 31
0.0
  0
LINE
  5
416
  8
0
 10
100.5
 20
116.0
 30
0.0
 11
101.5
 21
115.0
 31
0.0
  0
LINE
  5
417
  8
0
 10
101.5
 20
127.0
 30
0.0
 11
100.5
 21
126.0
 31
0.0
  0
LINE
  5
419
  8
0
 10
101.5
 20
127.0
 30
0.0
 11
118.5
 21
127.0
 31
0.0
  0
LINE
  5
41A
  8
0
 10
100.5
 20
116.0
 30
0.0
 11
100.5
 21
126.0
 31
0.0
  0
LINE
  5
41B
  8
0
 10
118.5
 20
115.0
 30
0.0
 11
101.5
 21
115.0
 31
0.0
  0
LINE
  5
41C
  8
0
 10
119.5
 20
126.0
 30
0.0
 11
119.5
 21
116.0
 31
0.0
  0
LINE
  5
41D
  8
0
 10
105.0
 20
124.0
 30
0.0
 11
105.0
 21
115.0
 31
0.0
  0
LINE
  5
41E
  8
0
 10
115.0
 20
124.0
 30
0.0
 11
115.0
 21
115.0
 31
0.0
  0
LINE
  5
41F
  8
0
 10
115.0
 20
124.0
 30
0.0
 11
105.0
 21
124.0
 31
0.0
  0
LINE
  5
420
  8
0
 10
102.113249
 20
127.0
 30
0.0
 11
105.0
 21
124.0
 31
0.0
  0
LINE
  5
421
  8
0
 10
117.886751
 20
127.0
 30
0.0
 11
115.0
 21
124.0
 31
0.0
  0
LINE
  5
422
  8
0
 10
114.0
 20
100.0
 30
0.0
 11
114.0
 21
89.199999999999989
 31
0.0
  0
LINE
  5
423
  8
3
 10
113.40000000000001
 20
100.0
 30
0.0
 11
113.40000000000001
 21
88.599999999999994
 31
0.0
  0
LINE
  5
424
  8
3
 10
106.59999999999999
 20
100.0
 30
0.0
 11
106.59999999999999
 21
88.599999999999994
 31
0.0
  0
LINE
  5
425
  8
0
 10
106.0
 20
105.0
 30
0.0
 11
106.0
 21
115.0
 31
0.0
  0
LINE
  5
428
  8
0
 10
255.5
 20
116.0
 30
0.0
 11
255.5
 21
126.0
 31
0.0
  0
LINE
  5
429
  8
0
 10
256.5
 20
127.0
 30
0.0
 11
273.5
 21
127.0
 31
0.0
  0
LINE
  5
42A
  8
0
 10
274.5
 20
126.0
 30
0.0
 11
274.5
 21
116.0
 31
0.0
  0
LINE
  5
42B
  8
0
 10
273.5
 20
115.0
 30
0.0
 11
256.5
 21
115.0
 31
0.0
  0
LINE
  5
42D
  8
0
 10
260.5
 20
115.0
 30
0.0
 11
260.5
 21
120.0
 31
0.0
  0
LINE
  5
42E
  8
0
 10
269.5
 20
115.0
 30
0.0
 11
269.5
 21
120.0
 31
0.0
  0
LINE
  5
42F
  8
0
 10
269.5
 20
120.0
 30
0.0
 11
260.5
 21
120.0
 31
0.0
  0
LINE
  5
430
  8
0
 10
273.5
 20
115.0
 30
0.0
 11
274.5
 21
116.0
 31
0.0
  0
LINE
  5
431
  8
0
 10
274.5
 20
126.0
 30
0.0
 11
273.5
 21
127.0
 31
0.0
  0
LINE
  5
432
  8
0
 10
256.5
 20
127.0
 30
0.0
 11
255.5
 21
126.0
 31
0.0
  0
LINE
  5
433
  8
0
 10
255.5
 20
116.0
 30
0.0
 11
256.5
 21
115.0
 31
0.0
  0
LINE
  5
434
  8
0
 10
261.97918499999997
 20
108.582542
 30
0.0
 11
261.125631
 21
108.582542
 31
0.0
  0
LINE
  5
435
  8
0
 10
261.97918499999997
 20
114.417458
 30
0.0
 11
261.125631
 21
114.417458
 31
0.0
  0
LINE
  5
436
  8
0
 10
256.85355299999998
 20
114.417458
 30
0.0
 11
256.5
 21
114.417458
 31
0.0
  0
LINE
  5
437
  8
0
 10
256.85355299999998
 20
108.582542
 30
0.0
 11
256.5
 21
108.582542
 31
0.0
  0
LINE
  5
438
  8
0
 10
256.85355299999998
 20
108.582542
 30
0.0
 11
256.85355299999998
 21
114.417458
 31
0.0
  0
ARC
  5
439
  8
0
 10
258.98959200000002
 20
116.198759
 30
0.0
 40
7.9100839999999986
 50
254.3333539999991
 51
285.66664600000092
  0
ARC
  5
43A
  8
0
 10
258.98959200000002
 20
106.801241
 30
0.0
 40
7.9100839999999986
 50
74.333353999999105
 51
105.6666460000009
  0
LINE
  5
43B
  8
0
 10
261.125631
 20
108.582542
 30
0.0
 11
261.125631
 21
114.417458
 31
0.0
  0
ARC
  5
43C
  8
0
 10
271.01040799999998
 20
116.198759
 30
0.0
 40
7.9100839999999986
 50
254.3333539999991
 51
285.66664600000092
  0
ARC
  5
43D
  8
0
 10
265.0
 20
123.96191
 30
0.0
 40
15.673235
 50
258.88743300000033
 51
281.11256699999967
  0
LINE
  5
43E
  8
0
 10
268.874369
 20
108.582542
 30
0.0
 11
268.02081500000003
 21
108.582542
 31
0.0
  0
LINE
  5
43F
  8
0
 10
273.14644700000002
 20
108.582542
 30
0.0
 11
273.5
 21
108.582542
 31
0.0
  0
LINE
  5
440
  8
0
 10
273.14644700000002
 20
114.417458
 30
0.0
 11
273.5
 21
114.417458
 31
0.0
  0
LINE
  5
441
  8
0
 10
268.874369
 20
114.417458
 30
0.0
 11
268.02081500000003
 21
114.417458
 31
0.0
  0
ARC
  5
442
  8
0
 10
265.0
 20
99.038089999999997
 30
0.0
 40
15.673235
 50
78.887433000000343
 51
101.1125669999996
  0
ARC
  5
443
  8
0
 10
271.01040799999998
 20
106.801241
 30
0.0
 40
7.9100839999999986
 50
74.333353999999105
 51
105.6666460000009
  0
LINE
  5
444
  8
0
 10
261.97918499999997
 20
108.582542
 30
0.0
 11
261.97918499999997
 21
114.417458
 31
0.0
  0
LINE
  5
445
  8
0
 10
268.02081500000003
 20
108.582542
 30
0.0
 11
268.02081500000003
 21
114.417458
 31
0.0
  0
LINE
  5
446
  8
0
 10
268.874369
 20
108.582542
 30
0.0
 11
268.874369
 21
114.417458
 31
0.0
  0
LINE
  5
447
  8
0
 10
273.14644700000002
 20
108.582542
 30
0.0
 11
273.14644700000002
 21
114.417458
 31
0.0
  0
ARC
  5
448
  8
0
 10
269.39999999999998
 20
115.40000000000001
 30
0.0
 40
0.4
 50
180.0
 51
270.0
  0
ARC
  5
449
  8
0
 10
260.60000000000002
 20
115.40000000000001
 30
0.0
 40
0.4
 50
270.0
 51
0.0
  0
LINE
  5
44A
  8
0
 10
256.5
 20
108.288675
 30
0.0
 11
257.0
 21
108.0
 31
0.0
  0
LINE
  5
44B
  8
0
 10
256.5
 20
114.711325
 30
0.0
 11
257.0
 21
115.0
 31
0.0
  0
LINE
  5
44C
  8
0
 10
256.5
 20
108.288675
 30
0.0
 11
256.5
 21
114.711325
 31
0.0
  0
LINE
  5
44D
  8
0
 10
257.0
 20
108.0
 30
0.0
 11
273.0
 21
108.0
 31
0.0
  0
LINE
  5
44E
  8
0
 10
273.0
 20
115.0
 30
0.0
 11
257.0
 21
115.0
 31
0.0
  0
LINE
  5
44F
  8
0
 10
273.5
 20
108.288675
 30
0.0
 11
273.5
 21
114.711325
 31
0.0
  0
LINE
  5
450
  8
0
 10
273.5
 20
114.711325
 30
0.0
 11
273.0
 21
115.0
 31
0.0
  0
LINE
  5
451
  8
0
 10
273.5
 20
108.288675
 30
0.0
 11
273.0
 21
108.0
 31
0.0
  0
LINE
  5
452
  8
0
 10
269.0
 20
118.5
 30
0.0
 11
261.0
 21
118.5
 31
0.0
  0
LINE
  5
453
  8
0
 10
268.5
 20
119.0
 30
0.0
 11
269.0
 21
118.5
 31
0.0
  0
LINE
  5
454
  8
0
 10
261.5
 20
119.0
 30
0.0
 11
261.0
 21
118.5
 31
0.0
  0
LINE
  5
455
  8
0
 10
261.5
 20
119.0
 30
0.0
 11
268.5
 21
119.0
 31
0.0
  0
LINE
  5
456
  8
0
 10
261.0
 20
108.0
 30
0.0
 11
261.0
 21
105.0
 31
0.0
  0
LINE
  5
457
  8
0
 10
262.19999999999999
 20
78.0
 30
0.0
 11
267.80000000000001
 21
78.0
 31
0.0
  0
LINE
  5
458
  8
0
 10
261.0
 20
79.200000000000003
 30
0.0
 11
262.19999999999999
 21
78.0
 31
0.0
  0
LINE
  5
459
  8
0
 10
261.0
 20
79.200000000000003
 30
0.0
 11
269.0
 21
79.200000000000003
 31
0.0
  0
LINE
  5
45A
  8
3
 10
261.75
 20
106.0
 30
0.0
 11
261.75000000000011
 21
105.0
 31
0.0
  0
LINE
  5
45B
  8
3
 10
268.25
 20
106.0
 30
0.0
 11
268.25
 21
105.0
 31
0.0
  0
LINE
  5
45C
  8
0
 10
269.0
 20
79.200000000000003
 30
0.0
 11
267.80000000000001
 21
78.0
 31
0.0
  0
LINE
  5
45D
  8
0
 10
269.0
 20
108.0
 30
0.0
 11
269.0
 21
105.0
 31
0.0
  0
LINE
  5
45E
  8
0
 10
261.0
 20
118.5
 30
0.0
 11
261.0
 21
115.40000000000001
 31
0.0
  0
LINE
  5
45F
  8
0
 10
269.0
 20
118.5
 30
0.0
 11
269.0
 21
115.40000000000001
 31
0.0
  0
LINE
  5
460
  8
3
 10
261.75
 20
106.0
 30
0.0
 11
261.0
 21
107.299038
 31
0.0
  0
LINE
  5
461
  8
3
 10
268.25
 20
106.0
 30
0.0
 11
269.0
 21
107.299038
 31
0.0
  0
LINE
  5
462
  8
0
 10
261.0
 20
106.0
 30
0.0
 11
269.0
 21
106.0
 31
0.0
  0
LINE
  5
463
  8
1
 10
265.0
 20
159.0
 30
0.0
 11
265.0
 21
73.0
 31
0.0
  0
LINE
  5
464
  8
0
 10
269.0
 20
149.80000000000001
 30
0.0
 11
269.0
 21
140.63174799999999
 31
0.0
  0
LINE
  5
465
  8
0
 10
261.0
 20
149.80000000000001
 30
0.0
 11
261.0
 21
140.63174799999999
 31
0.0
  0
ARC
  5
466
  8
0
 10
271.899969
 20
132.53174799999999
 30
0.0
 40
0.4
 50
180.0
 51
270.0
  0
LINE
  5
467
  8
0
 10
264.99996900000002
 20
139.90685400000001
 30
0.0
 11
265.0
 21
132.13174799999999
 31
0.0
  0
ARC
  5
468
  8
0
 10
268.24996900000002
 20
132.98375399999989
 30
0.0
 40
7.6479939999999997
 50
64.852624000001015
 51
115.147375999999
  0
ARC
  5
469
  8
0
 10
261.74996900000002
 20
132.98375399999989
 30
0.0
 40
7.6479939999999997
 50
64.852624000001015
 51
115.147375999999
  0
LINE
  5
46A
  8
0
 10
271.09996899999999
 20
140.63174799999999
 30
0.0
 11
271.49996900000002
 21
140.2317479999999
 31
0.0
  0
LINE
  5
46B
  8
0
 10
258.899969
 20
140.63174799999999
 30
0.0
 11
258.49996900000002
 21
140.2317479999999
 31
0.0
  0
LINE
  5
46C
  8
0
 10
271.09996899999999
 20
140.63174799999999
 30
0.0
 11
258.899969
 21
140.63174799999999
 31
0.0
  0
LINE
  5
46D
  8
0
 10
271.49996900000002
 20
132.53174799999999
 30
0.0
 11
271.49996900000002
 21
140.2317479999999
 31
0.0
  0
LINE
  5
46F
  8
0
 10
258.49996299999998
 20
132.53174799999999
 30
0.0
 11
258.49996299999998
 21
140.2317479999999
 31
0.0
  0
ARC
  5
470
  8
0
 10
258.099963
 20
132.53174799999999
 30
0.0
 40
0.4
 50
270.0
 51
0.0
  0
LINE
  5
471
  8
0
 10
274.0
 20
131.63174799999999
 30
0.0
 11
274.0
 21
130.331748
 31
0.0
  0
LINE
  5
472
  8
0
 10
256.0
 20
131.63174799999999
 30
0.0
 11
256.0
 21
130.331748
 31
0.0
  0
LINE
  5
473
  8
0
 10
256.5
 20
132.13174799999999
 30
0.0
 11
273.5
 21
132.13174799999999
 31
0.0
  0
LINE
  5
475
  8
0
 10
274.0
 20
131.63174799999999
 30
0.0
 11
273.5
 21
132.13174799999999
 31
0.0
  0
LINE
  5
476
  8
0
 10
256.5
 20
132.13174799999999
 30
0.0
 11
256.0
 21
131.63174799999999
 31
0.0
  0
ARC
  5
477
  8
0
 10
265.0
 20
150.33174799999989
 30
0.0
 40
21.931712000000001
 50
292.0207816974139
 51
294.22774499999861
  0
ARC
  5
479
  8
0
 10
265.0
 20
150.33174799999989
 30
0.0
 40
21.931712000000001
 50
245.77225500000139
 51
247.97921830258599
  0
LINE
  5
47A
  8
0
 10
256.0
 20
130.331748
 30
0.0
 11
274.0
 21
130.331748
 31
0.0
  0
LINE
  5
484
  8
0
 10
274.0
 20
129.5
 30
0.0
 11
273.5
 21
130.0
 31
0.0
  0
LINE
  5
485
  8
0
 10
273.5
 20
127.0
 30
0.0
 11
274.0
 21
127.5
 31
0.0
  0
LINE
  5
486
  8
0
 10
256.0
 20
127.5
 30
0.0
 11
256.5
 21
127.0
 31
0.0
  0
LINE
  5
487
  8
0
 10
256.5
 20
130.0
 30
0.0
 11
256.0
 21
129.5
 31
0.0
  0
LINE
  5
488
  8
0
 10
256.0
 20
127.5
 30
0.0
 11
256.0
 21
129.5
 31
0.0
  0
LINE
  5
489
  8
0
 10
273.5
 20
127.0
 30
0.0
 11
256.5
 21
127.0
 31
0.0
  0
LINE
  5
48A
  8
0
 10
274.0
 20
129.5
 30
0.0
 11
274.0
 21
127.5
 31
0.0
  0
LINE
  5
48B
  8
0
 10
256.5
 20
130.0
 30
0.0
 11
273.5
 21
130.0
 31
0.0
  0
LINE
  5
48D
  8
3
 10
261.75000000000011
 20
100.0
 30
0.0
 11
261.75
 21
78.450000000000003
 31
0.0
  0
LINE
  5
48E
  8
0
 10
261.0
 20
100.0
 30
0.0
 11
261.0
 21
79.200000000000003
 31
0.0
  0
LINE
  5
48F
  8
0
 10
269.0
 20
100.0
 30
0.0
 11
269.0
 21
79.200000000000003
 31
0.0
  0
LINE
  5
490
  8
3
 10
268.25
 20
100.0
 30
0.0
 11
268.25
 21
78.450000000000003
 31
0.0
  0
LINE
  5
491
  8
0
 10
106.0
 20
89.19999999999996
 30
0.0
 11
106.0
 21
79.19999999999996
 31
0.0
  0
LINE
  5
492
  8
0
 10
107.2
 20
77.999999999999957
 30
0.0
 11
112.8
 21
77.999999999999957
 31
0.0
  0
LINE
  5
493
  8
0
 10
106.0
 20
79.19999999999996
 30
0.0
 11
107.2
 21
77.999999999999957
 31
0.0
  0
LINE
  5
494
  8
0
 10
106.0
 20
79.19999999999996
 30
0.0
 11
114.0
 21
79.19999999999996
 31
0.0
  0
LINE
  5
495
  8
3
 10
106.75
 20
88.450000000000045
 30
0.0
 11
106.75
 21
78.44999999999996
 31
0.0
  0
LINE
  5
496
  8
3
 10
113.25
 20
88.450000000000003
 30
0.0
 11
113.25
 21
78.44999999999996
 31
0.0
  0
LINE
  5
497
  8
0
 10
114.0
 20
79.19999999999996
 30
0.0
 11
112.8
 21
77.999999999999957
 31
0.0
  0
LINE
  5
498
  8
0
 10
114.0
 20
89.19999999999996
 30
0.0
 11
114.0
 21
79.19999999999996
 31
0.0
  0
ARC
  5
49B
  8
0
 10
116.899969
 20
132.53174799999999
 30
0.0
 40
0.4
 50
180.0
 51
270.0
  0
LINE
  5
49C
  8
0
 10
109.99996899999999
 20
139.90685400000001
 30
0.0
 11
109.99996899999999
 21
136.35664199999999
 31
0.0
  0
ARC
  5
49D
  8
0
 10
113.24996899999999
 20
132.98375399999989
 30
0.0
 40
7.6479939999999997
 50
64.85262400000029
 51
115.1473759999997
  0
ARC
  5
49E
  8
0
 10
106.74996899999999
 20
132.98375399999989
 30
0.0
 40
7.6479939999999997
 50
64.85262400000029
 51
115.1473759999997
  0
LINE
  5
49F
  8
0
 10
116.099969
 20
140.63174799999999
 30
0.0
 11
116.49996899999999
 21
140.2317479999999
 31
0.0
  0
LINE
  5
4A0
  8
0
 10
103.899969
 20
140.63174799999999
 30
0.0
 11
103.49996899999999
 21
140.2317479999999
 31
0.0
  0
LINE
  5
4A1
  8
0
 10
116.099969
 20
140.63174799999999
 30
0.0
 11
103.899969
 21
140.63174799999999
 31
0.0
  0
LINE
  5
4A2
  8
0
 10
116.49996899999999
 20
132.53174799999999
 30
0.0
 11
116.49996899999999
 21
140.2317479999999
 31
0.0
  0
LINE
  5
4A3
  8
0
 10
109.99996899999999
 20
139.90685400000001
 30
0.0
 11
109.99996899999999
 21
132.13174799999999
 31
0.0
  0
LINE
  5
4A4
  8
0
 10
103.49996299999999
 20
132.53174799999999
 30
0.0
 11
103.49996299999999
 21
140.2317479999999
 31
0.0
  0
ARC
  5
4A5
  8
0
 10
103.099963
 20
132.53174799999999
 30
0.0
 40
0.4
 50
270.0
 51
0.0
  0
LINE
  5
4A6
  8
0
 10
119.0
 20
131.63174799999999
 30
0.0
 11
119.0
 21
130.331748
 31
0.0
  0
LINE
  5
4A7
  8
0
 10
101.0
 20
131.63174799999999
 30
0.0
 11
101.0
 21
130.331748
 31
0.0
  0
LINE
  5
4A8
  8
0
 10
101.5
 20
132.13174799999999
 30
0.0
 11
118.5
 21
132.13174799999999
 31
0.0
  0
LINE
  5
4AA
  8
0
 10
119.0
 20
131.63174799999999
 30
0.0
 11
118.5
 21
132.13174799999999
 31
0.0
  0
LINE
  5
4AB
  8
0
 10
101.5
 20
132.13174799999999
 30
0.0
 11
101.0
 21
131.63174799999999
 31
0.0
  0
ARC
  5
4AC
  8
0
 10
110.0
 20
150.33174799999989
 30
0.0
 40
21.931712000000001
 50
292.0207816974139
 51
294.22774500000008
  0
ARC
  5
4AE
  8
0
 10
110.0
 20
150.33174799999989
 30
0.0
 40
21.931712000000001
 50
245.77225499999989
 51
247.9792183025861
  0
LINE
  5
4AF
  8
0
 10
101.0
 20
130.331748
 30
0.0
 11
119.0
 21
130.331748
 31
0.0
  0
LINE
  5
4B9
  8
0
 10
119.0
 20
129.5
 30
0.0
 11
118.5
 21
130.0
 31
0.0
  0
LINE
  5
4BA
  8
0
 10
118.5
 20
127.0
 30
0.0
 11
119.0
 21
127.5
 31
0.0
  0
LINE
  5
4BB
  8
0
 10
101.0
 20
127.5
 30
0.0
 11
101.5
 21
127.0
 31
0.0
  0
LINE
  5
4BC
  8
0
 10
101.5
 20
130.0
 30
0.0
 11
101.0
 21
129.5
 31
0.0
  0
LINE
  5
4BD
  8
0
 10
101.0
 20
127.5
 30
0.0
 11
101.0
 21
129.5
 31
0.0
  0
LINE
  5
4BE
  8
0
 10
118.5
 20
127.0
 30
0.0
 11
101.5
 21
127.0
 31
0.0
  0
LINE
  5
4BF
  8
0
 10
119.0
 20
129.5
 30
0.0
 11
119.0
 21
127.5
 31
0.0
  0
LINE
  5
4C0
  8
0
 10
101.5
 20
130.0
 30
0.0
 11
118.5
 21
130.0
 31
0.0
  0
LINE
  5
4C8
  8
0
 10
106.0
 20
140.63174799999999
 30
0.0
 11
106.0
 21
149.80000000000001
 31
0.0
  0
LINE
  5
4C9
  8
0
 10
114.0
 20
115.0
 30
0.0
 11
114.0
 21
105.0
 31
0.0
  0
LINE
  5
517
  8
0
 10
101.85355300000001
 20
114.417458
 30
0.0
 11
101.5
 21
114.417458
 31
0.0
  0
LINE
  5
518
  8
0
 10
101.85355300000001
 20
108.582542
 30
0.0
 11
101.5
 21
108.582542
 31
0.0
  0
LINE
  5
519
  8
0
 10
101.85355300000001
 20
108.582542
 30
0.0
 11
101.85355300000001
 21
114.417458
 31
0.0
  0
ARC
  5
51A
  8
0
 10
103.989592
 20
116.198759
 30
0.0
 40
7.9100839999999986
 50
254.3333540000007
 51
284.72367499809911
  0
ARC
  5
51B
  8
0
 10
103.989592
 20
106.801241
 30
0.0
 40
7.9100839999999986
 50
75.276325001900702
 51
105.6666459999993
  0
ARC
  5
51D
  8
0
 10
116.010408
 20
116.198759
 30
0.0
 40
7.9100839999999986
 50
255.276325001901
 51
285.66664599999928
  0
LINE
  5
520
  8
0
 10
118.14644699999999
 20
108.582542
 30
0.0
 11
118.5
 21
108.582542
 31
0.0
  0
LINE
  5
521
  8
0
 10
118.14644699999999
 20
114.417458
 30
0.0
 11
118.5
 21
114.417458
 31
0.0
  0
ARC
  5
524
  8
0
 10
116.010408
 20
106.801241
 30
0.0
 40
7.9100839999999986
 50
74.333354000000696
 51
104.723674998099
  0
LINE
  5
528
  8
0
 10
118.14644699999999
 20
108.582542
 30
0.0
 11
118.14644699999999
 21
114.417458
 31
0.0
  0
LINE
  5
529
  8
0
 10
101.5
 20
108.288675
 30
0.0
 11
102.0
 21
108.0
 31
0.0
  0
LINE
  5
52A
  8
0
 10
101.5
 20
114.711325
 30
0.0
 11
102.0
 21
115.0
 31
0.0
  0
LINE
  5
52B
  8
0
 10
101.5
 20
108.288675
 30
0.0
 11
101.5
 21
114.711325
 31
0.0
  0
LINE
  5
52C
  8
0
 10
102.0
 20
108.0
 30
0.0
 11
106.0
 21
108.0
 31
0.0
  0
LINE
  5
52D
  8
0
 10
118.0
 20
115.0
 30
0.0
 11
102.0
 21
115.0
 31
0.0
  0
LINE
  5
52E
  8
0
 10
118.5
 20
108.288675
 30
0.0
 11
118.5
 21
114.711325
 31
0.0
  0
LINE
  5
52F
  8
0
 10
118.5
 20
114.711325
 30
0.0
 11
118.0
 21
115.0
 31
0.0
  0
LINE
  5
530
  8
0
 10
118.5
 20
108.288675
 30
0.0
 11
118.0
 21
108.0
 31
0.0
  0
LINE
  5
531
  8
0
 10
114.0
 20
108.0
 30
0.0
 11
118.0
 21
108.0
 31
0.0
  0
LINE
  5
532
  8
3
 10
114.0
 20
114.03923
 30
0.0
 11
113.40000000000001
 21
113.0
 31
0.0
  0
LINE
  5
533
  8
0
 10
106.0
 20
113.0000000000001
 30
0.0
 11
114.0
 21
113.0000000000001
 31
0.0
  0
TEXT
  5
61B
  8
0
 62
     3
 10
0.0
 20
0.0
 30
0.0
 40
10.0
  1
BJ153-08063A1
  7
STANDARD1
  0
ENDSEC
  0
EOF
