  0
SECTION
  2
HEADER
  9
$ACADVER
  1
AC1009
  9
$INSBASE
 10
0.0
 20
0.0
 30
0.0
  9
$EXTMIN
 10
0.0
 20
-2.960436562073669
 30
0.0
  9
$EXTMAX
 10
288.00000000000011
 20
238.0
 30
0.0
  9
$LIMMIN
 10
0.0
 20
0.0
  9
$LIMMAX
 10
375.0
 20
270.0
  9
$ORTHOMODE
 70
     1
  9
$REGENMODE
 70
     1
  9
$FILLMODE
 70
     1
  9
$QTEXTMODE
 70
     0
  9
$MIRRTEXT
 70
     0
  9
$DRAGMODE
 70
     2
  9
$LTSCALE
 40
10.0
  9
$OSMODE
 70
  3071
  9
$ATTMODE
 70
     1
  9
$TEXTSIZE
 40
0.2
  9
$TRACEWID
 40
0.05
  9
$TEXTSTYLE
  7
STANDARD
  9
$CLAYER
  8
0
  9
$CELTYPE
  6
BYLAYER
  9
$CECOLOR
 62
   256
  9
$DIMSCALE
 40
1.0
  9
$DIMASZ
 40
3.0
  9
$DIMEXO
 40
2.0
  9
$DIMDLI
 40
0.38
  9
$DIMRND
 40
0.0
  9
$DIMDLE
 40
0.0
  9
$DIMEXE
 40
2.0
  9
$DIMTP
 40
0.0
  9
$DIMTM
 40
0.0
  9
$DIMTXT
 40
3.2000000000000002
  9
$DIMCEN
 40
0.0
  9
$DIMTSZ
 40
0.0
  9
$DIMTOL
 70
     0
  9
$DIMLIM
 70
     0
  9
$DIMTIH
 70
     0
  9
$DIMTOH
 70
     0
  9
$DIMSE1
 70
     0
  9
$DIMSE2
 70
     0
  9
$DIMTAD
 70
     1
  9
$DIMZIN
 70
     0
  9
$DIMBLK
  1

  9
$DIMASO
 70
     0
  9
$DIMSHO
 70
     0
  9
$DIMPOST
  1

  9
$DIMAPOST
  1

  9
$DIMALT
 70
     0
  9
$DIMALTD
 70
     2
  9
$DIMALTF
 40
25.399999999999999
  9
$DIMLFAC
 40
1.0
  9
$DIMTOFL
 70
     1
  9
$DIMTVP
 40
1.6000000000000001
  9
$DIMTIX
 70
     1
  9
$DIMSOXD
 70
     0
  9
$DIMSAH
 70
     0
  9
$DIMBLK1
  1

  9
$DIMBLK2
  1

  9
$DIMSTYLE
  2
STANDARD
  9
$DIMCLRD
 70
     0
  9
$DIMCLRE
 70
     0
  9
$DIMCLRT
 70
     0
  9
$DIMTFAC
 40
1.0
  9
$DIMGAP
 40
0.09
  9
$LUNITS
 70
     2
  9
$LUPREC
 70
     4
  9
$SKETCHINC
 40
0.1
  9
$FILLETRAD
 40
0.0
  9
$AUNITS
 70
     0
  9
$AUPREC
 70
     4
  9
$MENU
  1
E:\r13\win\SUPPORT\ACAD
  9
$ELEVATION
 40
0.0
  9
$PELEVATION
 40
0.0
  9
$THICKNESS
 40
0.0
  9
$LIMCHECK
 70
     0
  9
$BLIPMODE
 70
     0
  9
$CHAMFERA
 40
0.0
  9
$CHAMFERB
 40
0.0
  9
$SKPOLY
 70
     0
  9
$TDCREATE
 40
2449839.6334490739
  9
$TDUPDATE
 40
2456597.6213824418
  9
$TDINDWG
 40
0.1065933333
  9
$TDUSRTIMER
 40
2456514.3804530092
  9
$USRTIMER
 70
     1
  9
$ANGBASE
 50
0.0
  9
$ANGDIR
 70
     0
  9
$PDMODE
 70
     0
  9
$PDSIZE
 40
0.0
  9
$PLINEWID
 40
0.0
  9
$COORDS
 70
     1
  9
$SPLFRAME
 70
     0
  9
$SPLINETYPE
 70
     6
  9
$SPLINESEGS
 70
     8
  9
$ATTDIA
 70
     0
  9
$ATTREQ
 70
     1
  9
$HANDLING
 70
     1
  9
$HANDSEED
  5
7BF
  9
$SURFTAB1
 70
     6
  9
$SURFTAB2
 70
     6
  9
$SURFTYPE
 70
     6
  9
$SURFU
 70
     6
  9
$SURFV
 70
     6
  9
$UCSNAME
  2

  9
$UCSORG
 10
0.0
 20
0.0
 30
0.0
  9
$UCSXDIR
 10
1.0
 20
0.0
 30
0.0
  9
$UCSYDIR
 10
0.0
 20
1.0
 30
0.0
  9
$PUCSNAME
  2

  9
$PUCSORG
 10
0.0
 20
0.0
 30
0.0
  9
$PUCSXDIR
 10
1.0
 20
0.0
 30
0.0
  9
$PUCSYDIR
 10
0.0
 20
1.0
 30
0.0
  9
$USERI1
 70
     0
  9
$USERI2
 70
     1
  9
$USERI3
 70
     0
  9
$USERI4
 70
     0
  9
$USERI5
 70
     0
  9
$USERR1
 40
0.0
  9
$USERR2
 40
0.0
  9
$USERR3
 40
0.0
  9
$USERR4
 40
0.0
  9
$USERR5
 40
0.0
  9
$WORLDVIEW
 70
     1
  9
$SHADEDGE
 70
     3
  9
$SHADEDIF
 70
    70
  9
$TILEMODE
 70
     1
  9
$MAXACTVP
 70
    16
  9
$PLIMCHECK
 70
     0
  9
$PEXTMIN
 10
1.0000000000000000E+020
 20
1.0000000000000000E+020
 30
1.0000000000000000E+020
  9
$PEXTMAX
 10
-1.0000000000000000E+020
 20
-1.0000000000000000E+020
 30
-1.0000000000000000E+020
  9
$PLIMMIN
 10
0.0
 20
0.0
  9
$PLIMMAX
 10
12.0
 20
9.0
  9
$UNITMODE
 70
     0
  9
$VISRETAIN
 70
     0
  9
$PLINEGEN
 70
     0
  9
$PSLTSCALE
 70
     0
  0
ENDSEC
  0
SECTION
  2
TABLES
  0
TABLE
  2
VPORT
 70
     1
  0
VPORT
  2
*ACTIVE
 70
     0
 10
0.0
 20
0.0
 11
1.0
 21
1.0
 12
187.49427839065231
 22
191.41710799499691
 13
0.0
 23
0.0
 14
10.0
 24
10.0
 15
10.0
 25
10.0
 16
0.0
 26
0.0
 36
1.0
 17
0.0
 27
0.0
 37
0.0
 40
392.30556364789771
 41
1.831871345029239
 42
50.0
 43
0.0
 44
0.0
 50
0.0
 51
0.0
 71
    16
 72
   500
 73
     1
 74
     0
 75
     0
 76
     0
 77
     0
 78
     2
  0
ENDTAB
  0
TABLE
  2
LTYPE
 70
     3
  0
LTYPE
  2
CONTINUOUS
 70
     0
  3
Solid Line
 72
    65
 73
     0
 40
0.0
  0
LTYPE
  2
PHANTOM2
 70
     0
  3
___ _ _ ___ _ _ ___ _ _ ___ _ _
 72
    65
 73
     6
 40
1.25
 49
0.625
 49
-0.125
 49
0.125
 49
-0.125
 49
0.125
 49
-0.125
  0
LTYPE
  2
CENTER
 70
     0
  3
____ _ ____ _ ____ _ ____ _ ____ _ ____ _ ____
 72
    65
 73
     4
 40
2.0
 49
1.25
 49
-0.25
 49
0.25
 49
-0.25
  0
ENDTAB
  0
TABLE
  2
LAYER
 70
     3
  0
LAYER
  2
0
 70
     0
 62
     7
  6
CONTINUOUS
  0
LAYER
  2
1
 70
     0
 62
     1
  6
CENTER
  0
LAYER
  2
3
 70
     0
 62
     3
  6
CONTINUOUS
  0
ENDTAB
  0
TABLE
  2
STYLE
 70
     3
  0
STYLE
  2
STANDARD
 70
     0
 40
0.0
 41
1.0
 50
0.0
 71
     0
 42
0.2
  3
TXT
  4
BIGFONT
  0
STYLE
  2
ANNOTATIVE
 70
     0
 40
0.0
 41
1.0
 50
0.0
 71
     0
 42
0.2
  3
txt
  4

  0
STYLE
  2
STANDARD1
 70
     0
 40
0.0
 41
1.0
 50
0.0
 71
     0
 42
3.0
  3
txt
  4

  0
ENDTAB
  0
TABLE
  2
VIEW
 70
     1
  0
VIEW
  2
ALL
 70
     0
 40
270.0
 10
220.99159663865549
 20
135.0
 41
0.0
 11
0.0
 21
0.0
 31
1.0
 12
0.0
 22
0.0
 32
0.0
 42
0.0
 43
0.0
 44
0.0
 50
0.0
 71
     0
  0
ENDTAB
  0
TABLE
  2
UCS
 70
     0
  0
ENDTAB
  0
TABLE
  2
APPID
 70
     5
  0
APPID
  2
ACAD
 70
     0
  0
APPID
  2
ACADANNOTATIVE
 70
     0
  0
APPID
  2
ACAD_MLEADERVER
 70
     0
  0
APPID
  2
ACAD_EXEMPT_FROM_CAD_STANDARDS
 70
     0
  0
APPID
  2
ACAD_NAV_VCDISPLAY
 70
     0
  0
ENDTAB
  0
TABLE
  2
DIMSTYLE
 70
     2
  0
DIMSTYLE
  2
STANDARD
 70
     0
  3

  4

  5

  6

  7

 40
1.0
 41
0.18
 42
0.0625
 43
0.38
 44
0.18
 45
0.0
 46
0.0
 47
0.0
 48
0.0
140
0.18
141
0.09
142
0.0
143
25.399999999999999
144
1.0
145
0.0
146
1.0
147
0.09
 71
     0
 72
     0
 73
     1
 74
     1
 75
     0
 76
     0
 77
     0
 78
     0
170
     0
171
     2
172
     0
173
     0
174
     0
175
     0
176
     0
177
     0
178
     0
  0
DIMSTYLE
  2
ANNOTATIVE
 70
     0
  3

  4

  5

  6

  7

 40
1.0
 41
0.18
 42
0.0625
 43
0.38
 44
0.18
 45
0.0
 46
0.0
 47
0.0
 48
0.0
140
0.18
141
0.09
142
0.0
143
25.399999999999999
144
1.0
145
0.0
146
1.0
147
0.09
 71
     0
 72
     0
 73
     1
 74
     1
 75
     0
 76
     0
 77
     0
 78
     0
170
     0
171
     2
172
     0
173
     0
174
     0
175
     0
176
     0
177
     0
178
     0
  0
ENDTAB
  0
ENDSEC
  0
SECTION
  2
BLOCKS
  0
BLOCK
  8
0
  2
$MODEL_SPACE
 70
     0
 10
0.0
 20
0.0
 30
0.0
  3
$MODEL_SPACE
  1

  0
ENDBLK
  5
6F7
  8
0
  0
BLOCK
 67
     1
  8
0
  2
$PAPER_SPACE
 70
     0
 10
0.0
 20
0.0
 30
0.0
  3
$PAPER_SPACE
  1

  0
ENDBLK
  5
6F3
 67
     1
  8
0
  0
ENDSEC
  0
SECTION
  2
ENTITIES
  0
CIRCLE
  5
44
  8
0
 10
170.0
 20
210.0
 30
0.0
 40
12.0
  0
LINE
  5
45
  8
0
 10
178.0829037686548
 20
210.0
 30
0.0
 11
174.04145188432739
 21
217.0
 31
0.0
  0
LINE
  5
46
  8
0
 10
174.04145188432739
 20
203.0
 30
0.0
 11
178.0829037686548
 21
210.0
 31
0.0
  0
LINE
  5
47
  8
0
 10
165.95854811567261
 20
203.0
 30
0.0
 11
174.04145188432739
 21
203.0
 31
0.0
  0
LINE
  5
48
  8
0
 10
161.9170962313452
 20
210.0
 30
0.0
 11
165.95854811567261
 21
203.0
 31
0.0
  0
LINE
  5
49
  8
0
 10
165.95854811567261
 20
217.0
 30
0.0
 11
161.9170962313452
 21
210.0
 31
0.0
  0
LINE
  5
4A
  8
0
 10
174.04145188432739
 20
217.0
 30
0.0
 11
165.95854811567261
 21
217.0
 31
0.0
  0
CIRCLE
  5
4C
  8
0
 10
170.0
 20
210.0
 30
0.0
 40
13.0
  0
ARC
  5
4D
  8
0
 10
170.0
 20
210.0
 30
0.0
 40
18.0
 50
90.0
 51
270.0
  0
ARC
  5
4E
  8
0
 10
180.0
 20
210.0
 30
0.0
 40
18.0
 50
270.0
 51
90.000000000000057
  0
LINE
  5
4F
  8
0
 10
180.0
 20
192.0
 30
0.0
 11
170.0
 21
192.0
 31
0.0
  0
LINE
  5
50
  8
0
 10
180.0
 20
228.0
 30
0.0
 11
170.0
 21
228.0
 31
0.0
  0
LINE
  5
51
  8
0
 10
217.52250155225909
 20
221.17474023535311
 30
0.0
 11
183.3688862347831
 21
227.681928784414
 31
0.0
  0
ARC
  5
52
  8
0
 10
217.10670010273921
 20
219.21844037219901
 30
0.0
 40
2.0
 50
10.210899539213431
 51
78.000642344858747
  0
LINE
  5
53
  8
0
 10
217.52250155225909
 20
198.82525976464689
 30
0.0
 11
183.3688862347831
 21
192.3180712155858
 31
0.0
  0
ARC
  5
54
  8
0
 10
217.10670010273921
 20
200.7815596278011
 30
0.0
 40
2.0
 50
281.9993576551413
 51
349.78910046078659
  0
ARC
  5
55
  8
0
 10
170.0000000000002
 20
210.0
 30
0.0
 40
49.999999999999758
 50
348.96201793208388
 51
11.03798206791611
  0
LINE
  5
56
  8
1
 10
170.0
 20
238.0
 30
0.0
 11
170.0
 21
182.0
 31
0.0
  0
LINE
  5
57
  8
1
 10
230.0
 20
210.0
 30
0.0
 11
142.0
 21
210.0
 31
0.0
  0
LINE
  5
58
  8
1
 10
170.0
 20
165.0
 30
0.0
 11
169.9999999999998
 21
44.0
 31
0.0
  0
LINE
  5
59
  8
0
 10
184.99999999999989
 20
80.0
 30
0.0
 11
154.9999999999998
 21
80.0
 31
0.0
  0
LINE
  5
5A
  8
0
 10
180.2679491924311
 20
155.0
 30
0.0
 11
159.73205080756881
 21
155.0
 31
0.0
  0
LINE
  5
5B
  8
0
 10
182.0
 20
154.0
 30
0.0
 11
158.0
 21
154.0
 31
0.0
  0
LINE
  5
5C
  8
0
 10
196.7123814461971
 20
140.0
 30
0.0
 11
152.7999999999999
 21
139.9999999999998
 31
0.0
  0
LINE
  5
5D
  8
0
 10
188.6208044626689
 20
120.0
 30
0.0
 11
152.7999999999999
 21
120.0
 31
0.0
  0
LINE
  5
5E
  8
0
 10
185.99999999999989
 20
118.0
 30
0.0
 11
153.9999999999998
 21
118.0
 31
0.0
  0
LINE
  5
5F
  8
0
 10
185.99999999999989
 20
81.0
 30
0.0
 11
153.9999999999998
 21
81.0
 31
0.0
  0
ARC
  5
63
  8
0
 10
217.99999999999989
 20
120.99998989086831
 30
0.0
 40
2.0
 50
270.0
 51
0.0
  0
LINE
  5
64
  8
0
 10
219.99999999999989
 20
120.99998989086831
 30
0.0
 11
219.99999999999989
 21
132.57820924300739
 31
0.0
  0
LINE
  5
65
  8
0
 10
189.62081457180071
 20
118.99998989086831
 30
0.0
 11
217.99999999999989
 21
118.99998989086831
 31
0.0
  0
ARC
  5
66
  8
0
 10
217.99999999999989
 20
132.57820924300739
 30
0.0
 40
2.0
 50
0.0
 51
74.999999999999872
  0
LINE
  5
67
  8
0
 10
188.6208044626689
 20
120.0
 30
0.0
 11
189.62081457180071
 21
118.99998989086831
 31
0.0
  0
ARC
  5
68
  8
0
 10
196.7123814461971
 20
130.0
 30
0.0
 40
10.0
 50
74.999999999999986
 51
89.999999999999943
  0
LINE
  5
69
  8
0
 10
199.30057189722231
 20
139.65925826289069
 30
0.0
 11
218.517638090205
 21
134.51006089558561
 31
0.0
  0
LINE
  5
6B
  8
0
 10
158.0
 20
154.0
 30
0.0
 11
159.73205080756881
 21
155.0
 31
0.0
  0
LINE
  5
6C
  8
0
 10
158.0
 20
154.0
 30
0.0
 11
157.9999999999998
 21
139.9999999999998
 31
0.0
  0
LINE
  5
6E
  8
0
 10
151.9999999999998
 20
139.1999999999999
 30
0.0
 11
151.9999999999998
 21
120.8
 31
0.0
  0
LINE
  5
6F
  8
0
 10
154.4999999999998
 20
119.59999999999999
 30
0.0
 11
154.4999999999998
 21
118.0
 31
0.0
  0
LINE
  5
70
  8
0
 10
153.9999999999998
 20
118.0
 30
0.0
 11
153.9999999999998
 21
81.0
 31
0.0
  0
LINE
  5
71
  8
0
 10
185.99999999999989
 20
81.0
 30
0.0
 11
185.99999999999989
 21
118.0
 31
0.0
  0
LINE
  5
72
  8
0
 10
185.49999999999989
 20
118.0
 30
0.0
 11
185.49999999999989
 21
119.59999999999999
 31
0.0
  0
LINE
  5
73
  8
0
 10
182.0
 20
154.0
 30
0.0
 11
180.2679491924311
 21
155.0
 31
0.0
  0
LINE
  5
74
  8
0
 10
182.0
 20
154.0
 30
0.0
 11
181.99999999999989
 21
139.9999999999998
 31
0.0
  0
ARC
  5
76
  8
0
 10
185.89999999999989
 20
119.59999999999999
 30
0.0
 40
0.4
 50
90.0
 51
179.99999999999989
  0
ARC
  5
77
  8
0
 10
154.09999999999991
 20
119.59999999999999
 30
0.0
 40
0.4
 50
0.0
 51
89.999999999999943
  0
ARC
  5
78
  8
0
 10
152.7999999999999
 20
139.1999999999999
 30
0.0
 40
0.8
 50
90.0
 51
179.99999999999989
  0
ARC
  5
79
  8
0
 10
152.7999999999999
 20
120.8
 30
0.0
 40
0.8
 50
180.0
 51
270.0
  0
LINE
  5
7A
  8
0
 10
184.99999999999989
 20
80.0
 30
0.0
 11
185.99999999999989
 21
81.0
 31
0.0
  0
LINE
  5
7B
  8
0
 10
153.9999999999998
 20
81.0
 30
0.0
 11
154.9999999999998
 21
80.0
 31
0.0
  0
LINE
  5
81
  8
0
 10
280.93324745901242
 20
134.11286321896529
 30
0.0
 11
287.19999999999999
 21
139.1999999999999
 31
0.0
  0
LINE
  5
82
  8
0
 10
259.06675254098758
 20
134.11286321896529
 30
0.0
 11
252.80000000000001
 21
139.1999999999999
 31
0.0
  0
ARC
  5
83
  8
0
 10
259.86675254098759
 20
133.3128632189653
 30
0.0
 40
0.8
 50
89.999999999999986
 51
180.0
  0
ARC
  5
84
  8
0
 10
280.13324745901241
 20
133.3128632189653
 30
0.0
 40
0.8
 50
0.0
 51
89.999999999999986
  0
ARC
  5
85
  8
0
 10
280.13324745901241
 20
119.7999898908683
 30
0.0
 40
0.8
 50
270.0
 51
0.0
  0
ARC
  5
86
  8
0
 10
259.8667525409877
 20
119.7999898908683
 30
0.0
 40
0.8
 50
180.0
 51
269.99999999999989
  0
LINE
  5
87
  8
0
 10
280.13324745901241
 20
134.11286321896529
 30
0.0
 11
259.86675254098759
 21
134.11286321896529
 31
0.0
  0
LINE
  5
88
  8
0
 10
280.93324745901242
 20
119.7999898908683
 30
0.0
 11
280.93324745901242
 21
133.3128632189653
 31
0.0
  0
LINE
  5
89
  8
0
 10
259.06675254098758
 20
133.3128632189653
 30
0.0
 11
259.06675254098758
 21
119.7999898908683
 31
0.0
  0
LINE
  5
8A
  8
0
 10
253.6175856066518
 20
118.99998989086831
 30
0.0
 11
253.31870385243849
 21
119.9999999999999
 31
0.0
  0
LINE
  5
8B
  8
0
 10
286.68129614756162
 20
119.9999999999999
 30
0.0
 11
287.19999999999999
 21
119.9999999999999
 31
0.0
  0
LINE
  5
8C
  8
0
 10
286.38241439334831
 20
118.99998989086831
 30
0.0
 11
286.68129614756162
 21
119.9999999999999
 31
0.0
  0
LINE
  5
8D
  8
0
 10
253.6175856066518
 20
118.99998989086831
 30
0.0
 11
286.38241439334831
 21
118.99998989086831
 31
0.0
  0
LINE
  5
8E
  8
0
 10
252.80000000000001
 20
119.9999999999999
 30
0.0
 11
253.31870385243849
 21
119.9999999999999
 31
0.0
  0
LINE
  5
8F
  8
0
 10
287.19999999999999
 20
139.9999999999998
 30
0.0
 11
252.80000000000001
 21
139.9999999999998
 31
0.0
  0
ARC
  5
90
  8
0
 10
252.80000000000001
 20
120.7999999999999
 30
0.0
 40
0.8
 50
180.0
 51
270.0
  0
ARC
  5
91
  8
0
 10
252.80000000000001
 20
139.1999999999999
 30
0.0
 40
0.8
 50
89.999999999999986
 51
180.0
  0
LINE
  5
92
  8
0
 10
252.0
 20
139.1999999999999
 30
0.0
 11
252.0
 21
120.7999999999999
 31
0.0
  0
LINE
  5
93
  8
0
 10
278.0
 20
55.999999999999972
 30
0.0
 11
276.0
 21
53.999999999999979
 31
0.0
  0
LINE
  5
96
  8
0
 10
262.0
 20
55.999999999999972
 30
0.0
 11
264.0
 21
53.999999999999979
 31
0.0
  0
LINE
  5
98
  8
0
 10
286.0
 20
80.999999999999957
 30
0.0
 11
285.0
 21
79.999999999999957
 31
0.0
  0
LINE
  5
99
  8
0
 10
255.0
 20
79.999999999999957
 30
0.0
 11
254.0
 21
80.999999999999957
 31
0.0
  0
ARC
  5
9A
  8
0
 10
287.19999999999999
 20
120.7999999999999
 30
0.0
 40
0.8
 50
270.0
 51
0.0
  0
ARC
  5
9B
  8
0
 10
287.19999999999999
 20
139.1999999999999
 30
0.0
 40
0.8
 50
0.0000000000000368
 51
89.999999999999986
  0
LINE
  5
9C
  8
0
 10
258.0
 20
153.9999999999998
 30
0.0
 11
258.0
 21
139.9999999999998
 31
0.0
  0
LINE
  5
9D
  8
0
 10
258.0
 20
153.9999999999998
 30
0.0
 11
259.7320508075689
 21
154.9999999999998
 31
0.0
  0
LINE
  5
9E
  8
0
 10
254.5
 20
117.9999999999999
 30
0.0
 11
254.5
 21
118.99998989086831
 31
0.0
  0
LINE
  5
9F
  8
0
 10
254.0
 20
80.999999999999957
 30
0.0
 11
254.0
 21
117.9999999999999
 31
0.0
  0
LINE
  5
A0
  8
0
 10
286.00000000000011
 20
117.9999999999999
 30
0.0
 11
286.0
 21
80.999999999999957
 31
0.0
  0
LINE
  5
A1
  8
0
 10
285.5
 20
118.99998989086831
 30
0.0
 11
285.5
 21
117.9999999999999
 31
0.0
  0
LINE
  5
A2
  8
0
 10
288.00000000000011
 20
139.1999999999999
 30
0.0
 11
288.00000000000011
 21
120.7999999999999
 31
0.0
  0
LINE
  5
A3
  8
0
 10
282.00000000000011
 20
153.9999999999998
 30
0.0
 11
282.00000000000011
 21
139.9999999999998
 31
0.0
  0
LINE
  5
A4
  8
0
 10
282.00000000000011
 20
153.9999999999998
 30
0.0
 11
280.26794919243122
 21
154.9999999999998
 31
0.0
  0
LINE
  5
A6
  8
0
 10
264.0
 20
53.999999999999979
 30
0.0
 11
276.0
 21
53.999999999999979
 31
0.0
  0
LINE
  5
A7
  8
0
 10
262.0
 20
55.999999999999972
 30
0.0
 11
278.0
 21
55.999999999999972
 31
0.0
  0
LINE
  5
A8
  8
0
 10
254.0
 20
80.999999999999957
 30
0.0
 11
286.0
 21
80.999999999999957
 31
0.0
  0
LINE
  5
A9
  8
0
 10
254.0
 20
117.9999999999999
 30
0.0
 11
286.00000000000011
 21
117.9999999999999
 31
0.0
  0
LINE
  5
AA
  8
0
 10
258.0
 20
153.9999999999998
 30
0.0
 11
282.00000000000011
 21
153.9999999999998
 31
0.0
  0
LINE
  5
AB
  8
0
 10
259.7320508075689
 20
154.9999999999998
 30
0.0
 11
280.26794919243122
 21
154.9999999999998
 31
0.0
  0
LINE
  5
AC
  8
0
 10
255.0
 20
79.999999999999957
 30
0.0
 11
285.0
 21
79.999999999999957
 31
0.0
  0
LINE
  5
AD
  8
1
 10
270.00000000000011
 20
164.9999999999998
 30
0.0
 11
270.0
 21
43.999999999999972
 31
0.0
  0
LINE
  5
AE
  8
0
 10
73.617585606651843
 20
118.99998989086841
 30
0.0
 11
74.499999999999929
 21
118.99998989086841
 31
0.0
  0
LINE
  5
AF
  8
0
 10
73.617585606651843
 20
118.99998989086841
 30
0.0
 11
73.318703852438446
 21
120.0
 31
0.0
  0
LINE
  5
B0
  8
0
 10
106.382414393348
 20
118.99998989086841
 30
0.0
 11
105.4999999999999
 21
118.99998989086841
 31
0.0
  0
LINE
  5
B1
  8
0
 10
105.4999999999998
 20
118.0
 30
0.0
 11
105.4999999999998
 21
118.99998989086841
 31
0.0
  0
ARC
  5
B2
  8
0
 10
107.1999999999998
 20
120.8
 30
0.0
 40
0.8
 50
270.0
 51
0.0
  0
LINE
  5
B3
  8
0
 10
106.382414393348
 20
118.99998989086841
 30
0.0
 11
106.6812961475614
 21
120.0
 31
0.0
  0
LINE
  5
B4
  8
0
 10
107.1999999999999
 20
120.0
 30
0.0
 11
72.79999999999994
 21
120.0
 31
0.0
  0
LINE
  5
B5
  8
0
 10
72.799999999999955
 20
140.0
 30
0.0
 11
107.1999999999999
 21
140.0
 31
0.0
  0
ARC
  5
B6
  8
0
 10
107.1999999999999
 20
120.8
 30
0.0
 40
0.8
 50
270.0
 51
0.0
  0
ARC
  5
B7
  8
0
 10
107.1999999999999
 20
139.19999999999999
 30
0.0
 40
0.8
 50
0.0000000000000368
 51
89.999999999999986
  0
LINE
  5
B8
  8
0
 10
107.9999999999999
 20
139.19999999999999
 30
0.0
 11
107.9999999999999
 21
120.8
 31
0.0
  0
LINE
  5
BE
  8
0
 10
73.999999999999901
 20
81.0
 30
0.0
 11
74.999999999999901
 21
80.0
 31
0.0
  0
LINE
  5
BF
  8
0
 10
104.9999999999999
 20
80.0
 30
0.0
 11
105.9999999999999
 21
81.0
 31
0.0
  0
ARC
  5
C0
  8
0
 10
72.79999999999994
 20
120.8
 30
0.0
 40
0.8
 50
180.0
 51
270.0
  0
ARC
  5
C1
  8
0
 10
72.799999999999955
 20
139.19999999999999
 30
0.0
 40
0.8
 50
89.999999999999986
 51
179.99999999999989
  0
ARC
  5
C2
  8
0
 10
74.099999999999952
 20
119.59999999999999
 30
0.0
 40
0.4
 50
0.0
 51
89.999999999999915
  0
ARC
  5
C3
  8
0
 10
105.89999999999991
 20
119.59999999999999
 30
0.0
 40
0.4
 50
89.999999999999986
 51
179.99999999999989
  0
LINE
  5
C4
  8
0
 10
101.9999999999999
 20
154.0
 30
0.0
 11
101.9999999999999
 21
140.0
 31
0.0
  0
LINE
  5
C5
  8
0
 10
101.9999999999999
 20
154.0
 30
0.0
 11
100.267949192431
 21
155.0
 31
0.0
  0
LINE
  5
C6
  8
0
 10
105.4999999999999
 20
118.0
 30
0.0
 11
105.4999999999999
 21
119.59999999999999
 31
0.0
  0
LINE
  5
C7
  8
0
 10
105.9999999999999
 20
81.0
 30
0.0
 11
105.9999999999999
 21
118.0
 31
0.0
  0
LINE
  5
C8
  8
0
 10
73.999999999999929
 20
118.0
 30
0.0
 11
73.999999999999901
 21
81.0
 31
0.0
  0
LINE
  5
C9
  8
0
 10
74.499999999999929
 20
119.59999999999999
 30
0.0
 11
74.499999999999929
 21
118.0
 31
0.0
  0
LINE
  5
CA
  8
0
 10
71.999999999999929
 20
139.19999999999999
 30
0.0
 11
71.999999999999929
 21
120.8
 31
0.0
  0
LINE
  5
CB
  8
0
 10
77.999999999999872
 20
154.0
 30
0.0
 11
77.999999999999929
 21
140.0
 31
0.0
  0
LINE
  5
CC
  8
0
 10
77.999999999999872
 20
154.0
 30
0.0
 11
79.732050807568783
 21
155.0
 31
0.0
  0
LINE
  5
D0
  8
0
 10
105.9999999999999
 20
81.0
 30
0.0
 11
73.999999999999901
 21
81.0
 31
0.0
  0
LINE
  5
D1
  8
0
 10
105.9999999999999
 20
118.0
 30
0.0
 11
73.999999999999929
 21
118.0
 31
0.0
  0
LINE
  5
D2
  8
0
 10
101.9999999999999
 20
154.0
 30
0.0
 11
77.999999999999872
 21
154.0
 31
0.0
  0
LINE
  5
D3
  8
0
 10
100.267949192431
 20
155.0
 30
0.0
 11
79.732050807568783
 21
155.0
 31
0.0
  0
LINE
  5
D4
  8
0
 10
104.9999999999999
 20
80.0
 30
0.0
 11
74.999999999999901
 21
80.0
 31
0.0
  0
LINE
  5
D5
  8
1
 10
89.999999999999872
 20
164.9999999999998
 30
0.0
 11
89.999999999999915
 21
44.000000000000007
 31
0.0
  0
LINE
  5
31C
  8
3
 10
263.10000000000002
 20
79.999999999999957
 30
0.0
 11
263.10000000000002
 21
54.900000000000013
 31
0.0
  0
LINE
  5
31D
  8
0
 10
262.0
 20
79.999999999999957
 30
0.0
 11
262.0
 21
55.999999999999972
 31
0.0
  0
LINE
  5
31E
  8
0
 10
278.0
 20
79.999999999999957
 30
0.0
 11
278.0
 21
55.999999999999972
 31
0.0
  0
LINE
  5
31F
  8
3
 10
276.90000000000009
 20
79.999999999999957
 30
0.0
 11
276.89999999999998
 21
54.900000000000013
 31
0.0
  0
LINE
  5
372
  8
0
 10
177.99999999999989
 20
56.000000000000021
 30
0.0
 11
175.99999999999989
 21
54.000000000000021
 31
0.0
  0
LINE
  5
373
  8
0
 10
161.9999999999998
 20
56.000000000000021
 30
0.0
 11
163.9999999999998
 21
54.000000000000021
 31
0.0
  0
LINE
  5
374
  8
0
 10
163.9999999999998
 20
54.000000000000021
 30
0.0
 11
175.99999999999989
 21
54.000000000000021
 31
0.0
  0
LINE
  5
375
  8
0
 10
161.9999999999998
 20
56.000000000000021
 30
0.0
 11
177.99999999999989
 21
56.000000000000021
 31
0.0
  0
LINE
  5
394
  8
0
 10
161.9999999999998
 20
80.0
 30
0.0
 11
161.9999999999998
 21
56.000000000000021
 31
0.0
  0
LINE
  5
396
  8
3
 10
163.09999999999991
 20
80.0
 30
0.0
 11
163.09999999999991
 21
54.90000000000007
 31
0.0
  0
LINE
  5
399
  8
3
 10
176.89999999999989
 20
80.000000000000014
 30
0.0
 11
176.89999999999981
 21
54.90000000000007
 31
0.0
  0
LINE
  5
39B
  8
0
 10
177.99999999999989
 20
80.0
 30
0.0
 11
177.99999999999989
 21
56.000000000000021
 31
0.0
  0
LINE
  5
3EF
  8
0
 10
97.999999999999929
 20
56.000000000000021
 30
0.0
 11
95.999999999999915
 21
54.000000000000021
 31
0.0
  0
LINE
  5
3F0
  8
0
 10
81.999999999999901
 20
56.000000000000043
 30
0.0
 11
83.999999999999872
 21
54.000000000000021
 31
0.0
  0
LINE
  5
3F1
  8
0
 10
83.999999999999872
 20
54.000000000000021
 30
0.0
 11
95.999999999999915
 21
54.000000000000021
 31
0.0
  0
LINE
  5
3F2
  8
0
 10
81.999999999999901
 20
56.000000000000043
 30
0.0
 11
97.999999999999929
 21
56.000000000000021
 31
0.0
  0
LINE
  5
411
  8
0
 10
81.999999999999858
 20
80.0
 30
0.0
 11
81.999999999999901
 21
56.000000000000043
 31
0.0
  0
LINE
  5
413
  8
3
 10
83.099999999999923
 20
80.0
 30
0.0
 11
83.099999999999923
 21
54.90000000000007
 31
0.0
  0
LINE
  5
416
  8
3
 10
96.899999999999864
 20
80.0
 30
0.0
 11
96.899999999999906
 21
54.90000000000007
 31
0.0
  0
LINE
  5
418
  8
0
 10
97.999999999999929
 20
80.0
 30
0.0
 11
97.999999999999929
 21
56.000000000000021
 31
0.0
  0
CIRCLE
  5
57A
  8
0
 10
261.0
 20
53.299999999999933
 30
0.0
 40
0.7
  0
CIRCLE
  5
57B
  8
0
 10
279.0
 20
53.299999999999933
 30
0.0
 40
0.7
  0
LINE
  5
57E
  8
3
 10
260.30000000000001
 20
53.299999999999933
 30
0.0
 11
260.30000000000001
 21
79.999999999999957
 31
0.0
  0
LINE
  5
57F
  8
3
 10
261.69999999999999
 20
53.299999999999933
 30
0.0
 11
261.69999999999999
 21
79.999999999999957
 31
0.0
  0
LINE
  5
580
  8
3
 10
278.30000000000001
 20
53.299999999999933
 30
0.0
 11
278.30000000000001
 21
79.999999999999957
 31
0.0
  0
LINE
  5
581
  8
3
 10
279.69999999999999
 20
53.299999999999933
 30
0.0
 11
279.69999999999999
 21
79.999999999999957
 31
0.0
  0
CIRCLE
  5
58E
  8
0
 10
160.9999999999998
 20
53.300000000000018
 30
0.0
 40
0.7
  0
CIRCLE
  5
58F
  8
0
 10
178.99999999999989
 20
53.300000000000018
 30
0.0
 40
0.7
  0
LINE
  5
590
  8
3
 10
160.2999999999999
 20
53.300000000000018
 30
0.0
 11
160.2999999999999
 21
80.000000000000014
 31
0.0
  0
LINE
  5
591
  8
3
 10
161.6999999999999
 20
53.300000000000018
 30
0.0
 11
161.6999999999999
 21
80.000000000000014
 31
0.0
  0
LINE
  5
592
  8
3
 10
178.2999999999999
 20
53.300000000000018
 30
0.0
 11
178.2999999999999
 21
80.000000000000014
 31
0.0
  0
LINE
  5
593
  8
3
 10
179.6999999999999
 20
53.300000000000018
 30
0.0
 11
179.6999999999999
 21
80.000000000000014
 31
0.0
  0
CIRCLE
  5
594
  8
0
 10
80.999999999999872
 20
53.29999999999999
 30
0.0
 40
0.7
  0
CIRCLE
  5
595
  8
0
 10
98.999999999999872
 20
53.29999999999999
 30
0.0
 40
0.7
  0
LINE
  5
596
  8
3
 10
80.299999999999898
 20
53.29999999999999
 30
0.0
 11
80.299999999999898
 21
80.000000000000014
 31
0.0
  0
LINE
  5
597
  8
3
 10
81.699999999999875
 20
53.29999999999999
 30
0.0
 11
81.699999999999847
 21
80.000000000000014
 31
0.0
  0
LINE
  5
598
  8
3
 10
98.299999999999926
 20
53.29999999999999
 30
0.0
 11
98.299999999999926
 21
80.000000000000014
 31
0.0
  0
LINE
  5
599
  8
3
 10
99.699999999999861
 20
53.29999999999999
 30
0.0
 11
99.699999999999861
 21
80.000000000000014
 31
0.0
  0
TEXT
  5
760
  8
0
 62
     3
 10
0.0
 20
0.0
 30
0.0
 40
10.0
  1
BJ130-16050
  7
STANDARD1
  0
ENDSEC
  0
EOF
