  0
SECTION
  2
HEADER
  9
$ACADVER
  1
AC1009
  9
$INSBASE
 10
0.0
 20
0.0
 30
0.0
  9
$EXTMIN
 10
0.0
 20
-2.960436562073669
 30
0.0
  9
$EXTMAX
 10
377.00000000000011
 20
188.0
 30
0.0
  9
$LIMMIN
 10
0.0
 20
0.0
  9
$LIMMAX
 10
375.0
 20
270.0
  9
$ORTHOMODE
 70
     1
  9
$REGENMODE
 70
     1
  9
$FILLMODE
 70
     1
  9
$QTEXTMODE
 70
     0
  9
$MIRRTEXT
 70
     0
  9
$DRAGMODE
 70
     2
  9
$LTSCALE
 40
5.0
  9
$OSMODE
 70
    37
  9
$ATTMODE
 70
     1
  9
$TEXTSIZE
 40
4.000000000000048
  9
$TRACEWID
 40
0.05
  9
$TEXTSTYLE
  7
STANDARD
  9
$CLAYER
  8
0
  9
$CELTYPE
  6
BYLAYER
  9
$CECOLOR
 62
   256
  9
$DIMSCALE
 40
1.0
  9
$DIMASZ
 40
3.0
  9
$DIMEXO
 40
2.0
  9
$DIMDLI
 40
0.38
  9
$DIMRND
 40
0.0
  9
$DIMDLE
 40
0.0
  9
$DIMEXE
 40
2.0
  9
$DIMTP
 40
0.0
  9
$DIMTM
 40
0.0
  9
$DIMTXT
 40
3.2000000000000002
  9
$DIMCEN
 40
0.0
  9
$DIMTSZ
 40
0.0
  9
$DIMTOL
 70
     0
  9
$DIMLIM
 70
     0
  9
$DIMTIH
 70
     0
  9
$DIMTOH
 70
     0
  9
$DIMSE1
 70
     0
  9
$DIMSE2
 70
     0
  9
$DIMTAD
 70
     1
  9
$DIMZIN
 70
     0
  9
$DIMBLK
  1

  9
$DIMASO
 70
     0
  9
$DIMSHO
 70
     0
  9
$DIMPOST
  1

  9
$DIMAPOST
  1

  9
$DIMALT
 70
     0
  9
$DIMALTD
 70
     2
  9
$DIMALTF
 40
25.399999999999999
  9
$DIMLFAC
 40
1.0
  9
$DIMTOFL
 70
     0
  9
$DIMTVP
 40
1.6000000000000001
  9
$DIMTIX
 70
     1
  9
$DIMSOXD
 70
     0
  9
$DIMSAH
 70
     0
  9
$DIMBLK1
  1

  9
$DIMBLK2
  1

  9
$DIMSTYLE
  2
STANDARD
  9
$DIMCLRD
 70
     4
  9
$DIMCLRE
 70
     4
  9
$DIMCLRT
 70
     4
  9
$DIMTFAC
 40
1.0
  9
$DIMGAP
 40
0.09
  9
$LUNITS
 70
     2
  9
$LUPREC
 70
     1
  9
$SKETCHINC
 40
0.1
  9
$FILLETRAD
 40
0.0
  9
$AUNITS
 70
     0
  9
$AUPREC
 70
     0
  9
$MENU
  1
E:\r13\win\SUPPORT\ACAD
  9
$ELEVATION
 40
0.0
  9
$PELEVATION
 40
0.0
  9
$THICKNESS
 40
0.0
  9
$LIMCHECK
 70
     0
  9
$BLIPMODE
 70
     0
  9
$CHAMFERA
 40
1.1999999999999991
  9
$CHAMFERB
 40
1.1999999999999991
  9
$SKPOLY
 70
     0
  9
$TDCREATE
 40
2450136.5911228009
  9
$TDUPDATE
 40
2456969.3926746412
  9
$TDINDWG
 40
0.009562662
  9
$TDUSRTIMER
 40
0.009562662
  9
$USRTIMER
 70
     1
  9
$ANGBASE
 50
0.0
  9
$ANGDIR
 70
     0
  9
$PDMODE
 70
     0
  9
$PDSIZE
 40
0.0
  9
$PLINEWID
 40
0.0
  9
$COORDS
 70
     1
  9
$SPLFRAME
 70
     0
  9
$SPLINETYPE
 70
     6
  9
$SPLINESEGS
 70
     8
  9
$ATTDIA
 70
     0
  9
$ATTREQ
 70
     1
  9
$HANDLING
 70
     1
  9
$HANDSEED
  5
1778
  9
$SURFTAB1
 70
     6
  9
$SURFTAB2
 70
     6
  9
$SURFTYPE
 70
     6
  9
$SURFU
 70
     6
  9
$SURFV
 70
     6
  9
$UCSNAME
  2

  9
$UCSORG
 10
0.0
 20
0.0
 30
0.0
  9
$UCSXDIR
 10
1.0
 20
0.0
 30
0.0
  9
$UCSYDIR
 10
0.0
 20
1.0
 30
0.0
  9
$PUCSNAME
  2

  9
$PUCSORG
 10
0.0
 20
0.0
 30
0.0
  9
$PUCSXDIR
 10
1.0
 20
0.0
 30
0.0
  9
$PUCSYDIR
 10
0.0
 20
1.0
 30
0.0
  9
$USERI1
 70
     0
  9
$USERI2
 70
     1
  9
$USERI3
 70
     0
  9
$USERI4
 70
     0
  9
$USERI5
 70
     0
  9
$USERR1
 40
0.0
  9
$USERR2
 40
0.0
  9
$USERR3
 40
0.0
  9
$USERR4
 40
0.0
  9
$USERR5
 40
0.0
  9
$WORLDVIEW
 70
     1
  9
$SHADEDGE
 70
     3
  9
$SHADEDIF
 70
    70
  9
$TILEMODE
 70
     1
  9
$MAXACTVP
 70
    16
  9
$PLIMCHECK
 70
     0
  9
$PEXTMIN
 10
1.0000000000000000E+020
 20
1.0000000000000000E+020
 30
1.0000000000000000E+020
  9
$PEXTMAX
 10
-1.0000000000000000E+020
 20
-1.0000000000000000E+020
 30
-1.0000000000000000E+020
  9
$PLIMMIN
 10
0.0
 20
0.0
  9
$PLIMMAX
 10
12.0
 20
9.0
  9
$UNITMODE
 70
     0
  9
$VISRETAIN
 70
     0
  9
$PLINEGEN
 70
     0
  9
$PSLTSCALE
 70
     0
  0
ENDSEC
  0
SECTION
  2
TABLES
  0
TABLE
  2
VPORT
 70
     1
  0
VPORT
  2
*ACTIVE
 70
     0
 10
0.0
 20
0.0
 11
1.0
 21
1.0
 12
235.63977746870651
 22
135.0
 13
0.0
 23
0.0
 14
10.0
 24
10.0
 15
10.0
 25
10.0
 16
0.0
 26
0.0
 36
1.0
 17
0.0
 27
0.0
 37
0.0
 40
270.0
 41
1.7454798331015291
 42
50.0
 43
0.0
 44
0.0
 50
0.0
 51
0.0
 71
     0
 72
   500
 73
     1
 74
     0
 75
     0
 76
     0
 77
     0
 78
     2
  0
ENDTAB
  0
TABLE
  2
LTYPE
 70
     5
  0
LTYPE
  2
CONTINUOUS
 70
     0
  3
Solid Line
 72
    65
 73
     0
 40
0.0
  0
LTYPE
  2
CENTER
 70
     0
  3
____ _ ____ _ ____ _ ____ _ ____ _ ____ _ ____
 72
    65
 73
     4
 40
2.0
 49
1.25
 49
-0.25
 49
0.25
 49
-0.25
  0
LTYPE
  2
PHANTOM2
 70
     0
  3
___ _ _ ___ _ _ ___ _ _ ___ _ _
 72
    65
 73
     6
 40
1.25
 49
0.625
 49
-0.125
 49
0.125
 49
-0.125
 49
0.125
 49
-0.125
  0
LTYPE
  2
PHANTOM
 70
     0
  3
_____ _ _ _____ _ _ _____ _ _ _____ _ _ ____
 72
    65
 73
     6
 40
2.5
 49
1.25
 49
-0.25
 49
0.25
 49
-0.25
 49
0.25
 49
-0.25
  0
LTYPE
  2
HIDDEN
 70
     0
  3
_ _ _ _ _ _ _ _ _ _ _ _ _ _ _ _ _ _ _ _ _ _ _
 72
    65
 73
     2
 40
0.375
 49
0.25
 49
-0.125
  0
ENDTAB
  0
TABLE
  2
LAYER
 70
     6
  0
LAYER
  2
0
 70
     0
 62
     7
  6
CONTINUOUS
  0
LAYER
  2
1
 70
     0
 62
     1
  6
CENTER
  0
LAYER
  2
3
 70
     0
 62
     3
  6
CONTINUOUS
  0
LAYER
  2
DEFPOINTS
 70
     0
 62
     7
  6
CONTINUOUS
  0
LAYER
  2
5
 70
     0
 62
     3
  6
PHANTOM
  0
LAYER
  2
2
 70
     0
 62
     2
  6
HIDDEN
  0
ENDTAB
  0
TABLE
  2
STYLE
 70
     2
  0
STYLE
  2
STANDARD
 70
     0
 40
0.0
 41
1.0
 50
0.0
 71
     0
 42
4.000000000000048
  3
SIMPLEX
  4
BIGFONT
  0
STYLE
  2
STANDARD1
 70
     0
 40
0.0
 41
1.0
 50
0.0
 71
     0
 42
3.0
  3
txt
  4

  0
ENDTAB
  0
TABLE
  2
VIEW
 70
     1
  0
VIEW
  2
ALL
 70
     0
 40
270.33333333333331
 10
220.8717648550103
 20
134.83333333333329
 41
441.74352971002048
 11
0.0
 21
0.0
 31
1.0
 12
0.0
 22
0.0
 32
0.0
 42
50.0
 43
0.0
 44
0.0
 50
0.0
 71
     0
  0
ENDTAB
  0
TABLE
  2
UCS
 70
     0
  0
ENDTAB
  0
TABLE
  2
APPID
 70
    39
  0
APPID
  2
ACAD
 70
     0
  0
APPID
  2
ACAD_MLEADERVER
 70
     0
  0
APPID
  2
DCO15
 70
     0
  0
APPID
  2
GENIUS_GENOREF_13
 70
     0
  0
APPID
  2
GENIUS_GENOENT_13
 70
     0
  0
APPID
  2
GENIUS_GENBH_13
 70
     0
  0
APPID
  2
GENIUS_GENOBJ_13
 70
     0
  0
APPID
  2
GENIUS_GENODEF_13
 70
     0
  0
APPID
  2
GENIUS_GENOLIS_13
 70
     0
  0
APPID
  2
GENIUS_GENOBJ-NBEHI-BHF_13
 70
     0
  0
APPID
  2
GENIUS_GENOBJ-NBEHI-BHB_13
 70
     0
  0
APPID
  2
GENIUS_GENOBJ-F-PART_13
 70
     0
  0
APPID
  2
GENIUS_GEFSTDP_13
 70
     0
  0
APPID
  2
GENIUS_GENOBJ-N-RSSYM_13
 70
     0
  0
APPID
  2
GENIUS_GENSYMENT_13
 70
     0
  0
APPID
  2
GENIUS_GENOBJ-N-TIT_13
 70
     0
  0
APPID
  2
GENIUS_GENTITLE_13
 70
     0
  0
APPID
  2
GENIUS_GENZVEED_13
 70
     0
  0
APPID
  2
GENIUS_GENOBJ-N-LEADER_13
 70
     0
  0
APPID
  2
GENIUS_GENOBJ-N-FIL_13
 70
     0
  0
APPID
  2
GENIUS_GENOBJ-N-SEC_13
 70
     0
  0
APPID
  2
GENIUS_GENOBJ-N-CRS_13
 70
     0
  0
APPID
  2
GENIUS_GENOBJ-N-ZOO_13
 70
     0
  0
APPID
  2
GENIUS_GENZOO_13
 70
     0
  0
APPID
  2
GENIUS_GENOBJ-F-TOL_13
 70
     0
  0
APPID
  2
GENIUS_GENFIL_13
 70
     0
  0
APPID
  2
GENIUS_GENOBJ-N-CHA_13
 70
     0
  0
APPID
  2
_CALL_MAC$
 70
     0
  0
APPID
  2
ASM_BASE
 70
     0
  0
APPID
  2
ASM_EXPLO_VER_2_00
 70
     0
  0
APPID
  2
ASM_CADM_VER_12_00
 70
     0
  0
APPID
  2
ASM_BASEFORO
 70
     0
  0
APPID
  2
ASM_BASETRAVI
 70
     0
  0
APPID
  2
ASM_BASETRAVI1
 70
     0
  0
APPID
  2
ASM_GRUPPI
 70
     0
  0
APPID
  2
ASM_CADM_ALBERO
 70
     0
  0
APPID
  2
ASM_GOLE
 70
     0
  0
APPID
  2
ACAD_NAV_VCDISPLAY
 70
     0
  0
APPID
  2
ACAD_EXEMPT_FROM_CAD_STANDARDS
 70
     0
  0
ENDTAB
  0
TABLE
  2
DIMSTYLE
 70
     1
  0
DIMSTYLE
  2
STANDARD
 70
     0
  3

  4

  5

  6

  7

 40
1.0
 41
0.18
 42
0.0625
 43
0.38
 44
0.18
 45
0.0
 46
0.0
 47
0.0
 48
0.0
140
0.18
141
0.09
142
0.0
143
25.399999999999999
144
1.0
145
0.0
146
1.0
147
0.09
 71
     0
 72
     0
 73
     1
 74
     1
 75
     0
 76
     0
 77
     0
 78
     0
170
     0
171
     2
172
     0
173
     0
174
     0
175
     0
176
     0
177
     0
178
     0
  0
ENDTAB
  0
ENDSEC
  0
SECTION
  2
BLOCKS
  0
BLOCK
  8
0
  2
$MODEL_SPACE
 70
     0
 10
0.0
 20
0.0
 30
0.0
  3
$MODEL_SPACE
  1

  0
ENDBLK
  5
227
  8
0
  0
BLOCK
 67
     1
  8
0
  2
$PAPER_SPACE
 70
     0
 10
0.0
 20
0.0
 30
0.0
  3
$PAPER_SPACE
  1

  0
ENDBLK
  5
225
 67
     1
  8
0
  0
ENDSEC
  0
SECTION
  2
ENTITIES
  0
ARC
  5
86
  8
0
 10
341.00000000000011
 20
86.0
 30
0.0
 40
4.0
 50
90.0
 51
180.0
  0
LINE
  5
87
  8
0
 10
337.00000000000011
 20
62.0
 30
0.0
 11
377.00000000000011
 21
62.0
 31
0.0
  0
ARC
  5
88
  8
0
 10
373.00000000000011
 20
86.0
 30
0.0
 40
4.0
 50
0.0
 51
90.0
  0
LINE
  5
89
  8
0
 10
373.00000000000011
 20
90.0
 30
0.0
 11
341.00000000000011
 21
90.0
 31
0.0
  0
LINE
  5
8A
  8
1
 10
357.00000000000011
 20
55.0
 30
0.0
 11
357.00000000000011
 21
103.0
 31
0.0
  0
LINE
  5
8B
  8
0
 10
338.1547010000001
 20
60.0
 30
0.0
 11
375.84529900000018
 21
60.0
 31
0.0
  0
LINE
  5
8C
  8
0
 10
377.00000000000011
 20
62.0
 30
0.0
 11
377.00000000000011
 21
94.0
 31
0.0
  0
LINE
  5
8D
  8
0
 10
373.00000000000011
 20
98.0
 30
0.0
 11
341.00000000000011
 21
98.0
 31
0.0
  0
ARC
  5
8E
  8
0
 10
373.00000000000011
 20
94.0
 30
0.0
 40
4.0
 50
0.0
 51
90.0
  0
LINE
  5
8F
  8
0
 10
377.00000000000011
 20
62.0
 30
0.0
 11
375.84529900000018
 21
60.0
 31
0.0
  0
LINE
  5
90
  8
0
 10
337.00000000000011
 20
62.0
 30
0.0
 11
337.00000000000011
 21
94.0
 31
0.0
  0
LINE
  5
91
  8
0
 10
337.00000000000011
 20
62.0
 30
0.0
 11
338.1547010000001
 21
60.0
 31
0.0
  0
ARC
  5
92
  8
0
 10
341.00000000000011
 20
94.0
 30
0.0
 40
4.0
 50
90.0
 51
180.0
  0
TEXT
  5
2DC
  8
0
 62
     3
 10
0.0
 20
0.0
 30
0.0
 40
10.0
  1
BJ102-16030
  7
STANDARD1
  0
CIRCLE
  5
1137
  8
0
 10
239.50000000000011
 20
168.0
 30
0.0
 40
12.5
  0
LINE
  5
1162
  8
0
 10
62.0
 20
62.440817451771181
 30
0.0
 11
76.0
 21
62.440817451771181
 31
0.0
  0
LINE
  5
1163
  8
0
 10
98.0
 20
62.440817451771181
 30
0.0
 11
84.0
 21
62.440817451771181
 31
0.0
  0
LINE
  5
1164
  8
1
 10
80.0
 20
55.0
 30
0.0
 11
80.0
 21
103.0
 31
0.0
  0
LINE
  5
1165
  8
0
 10
61.154700538379188
 20
60.0
 30
0.0
 11
98.845299461620698
 21
60.0
 31
0.0
  0
LINE
  5
1166
  8
0
 10
100.0
 20
62.0
 30
0.0
 11
100.0
 21
94.0
 31
0.0
  0
LINE
  5
1167
  8
0
 10
96.0
 20
98.0
 30
0.0
 11
64.0
 21
98.0
 31
0.0
  0
ARC
  5
1168
  8
0
 10
96.0
 20
94.0
 30
0.0
 40
4.0
 50
0.0
 51
90.0
  0
LINE
  5
1169
  8
0
 10
61.0
 20
62.0
 30
0.0
 11
99.0
 21
62.0
 31
0.0
  0
LINE
  5
116A
  8
0
 10
100.0
 20
62.0
 30
0.0
 11
98.845299461620698
 21
60.0
 31
0.0
  0
LINE
  5
116B
  8
0
 10
99.0
 20
62.0
 30
0.0
 11
100.0
 21
63.0
 31
0.0
  0
LINE
  5
116C
  8
0
 10
61.0
 20
62.0
 30
0.0
 11
60.0
 21
63.0
 31
0.0
  0
LINE
  5
116D
  8
0
 10
60.0
 20
62.0
 30
0.0
 11
60.0
 21
94.0
 31
0.0
  0
LINE
  5
116E
  8
0
 10
60.0
 20
62.0
 30
0.0
 11
61.154700538379188
 21
60.0
 31
0.0
  0
ARC
  5
116F
  8
0
 10
64.0
 20
94.0
 30
0.0
 40
4.0
 50
90.0
 51
180.0
  0
LINE
  5
1170
  8
0
 10
84.0
 20
62.0
 30
0.0
 11
84.0
 21
98.0
 31
0.0
  0
LINE
  5
1171
  8
0
 10
98.0
 20
73.014826343657319
 30
0.0
 11
84.0
 21
73.014826343657319
 31
0.0
  0
LINE
  5
1172
  8
0
 10
98.0
 20
72.014826343657305
 30
0.0
 11
84.0
 21
72.014826343657305
 31
0.0
  0
LINE
  5
1173
  8
0
 10
98.0
 20
69.82349004636194
 30
0.0
 11
84.0
 21
69.82349004636194
 31
0.0
  0
LINE
  5
1174
  8
0
 10
98.0
 20
68.82349004636194
 30
0.0
 11
84.0
 21
68.82349004636194
 31
0.0
  0
LINE
  5
1175
  8
0
 10
98.0
 20
66.632153749066561
 30
0.0
 11
84.0
 21
66.632153749066561
 31
0.0
  0
LINE
  5
1176
  8
0
 10
98.0
 20
65.632153749066561
 30
0.0
 11
84.0
 21
65.632153749066561
 31
0.0
  0
LINE
  5
1177
  8
0
 10
98.0
 20
63.440817451771181
 30
0.0
 11
84.0
 21
63.440817451771181
 31
0.0
  0
LINE
  5
1178
  8
0
 10
76.0
 20
62.0
 30
0.0
 11
76.0
 21
98.0
 31
0.0
  0
CIRCLE
  5
1179
  8
0
 10
92.0
 20
79.0
 30
0.0
 40
5.5
  0
LINE
  5
117A
  8
1
 10
84.0
 20
79.0
 30
0.0
 11
100.0
 21
79.0
 31
0.0
  0
LINE
  5
117B
  8
1
 10
92.0
 20
87.0
 30
0.0
 11
92.0
 21
71.0
 31
0.0
  0
LINE
  5
117C
  8
0
 10
98.0
 20
75.206162640952698
 30
0.0
 11
95.982059529074945
 21
75.206162640952698
 31
0.0
  0
LINE
  5
117D
  8
0
 10
98.0
 20
76.206162640952698
 30
0.0
 11
96.737559794998901
 21
76.206162640952698
 31
0.0
  0
LINE
  5
117E
  8
0
 10
98.0
 20
78.397498938248077
 30
0.0
 11
97.466899712870713
 21
78.397498938248077
 31
0.0
  0
LINE
  5
117F
  8
0
 10
98.0
 20
79.397498938248063
 30
0.0
 11
97.485617065936253
 21
79.397498938248063
 31
0.0
  0
LINE
  5
1180
  8
0
 10
98.0
 20
81.588835235543456
 30
0.0
 11
96.852621160074932
 21
81.588835235543456
 31
0.0
  0
LINE
  5
1181
  8
0
 10
98.0
 20
82.588835235543456
 30
0.0
 11
96.1677645869363
 21
82.588835235543456
 31
0.0
  0
LINE
  5
1182
  8
0
 10
98.0
 20
85.780171532838835
 30
0.0
 11
84.0
 21
85.780171532838835
 31
0.0
  0
LINE
  5
1183
  8
0
 10
98.0
 20
87.971507830134215
 30
0.0
 11
84.0
 21
87.971507830134215
 31
0.0
  0
LINE
  5
1184
  8
0
 10
98.0
 20
88.971507830134215
 30
0.0
 11
84.0
 21
88.971507830134215
 31
0.0
  0
LINE
  5
1185
  8
0
 10
98.0
 20
91.162844127429594
 30
0.0
 11
84.0
 21
91.162844127429594
 31
0.0
  0
LINE
  5
1186
  8
0
 10
98.0
 20
92.162844127429594
 30
0.0
 11
84.0
 21
92.162844127429594
 31
0.0
  0
LINE
  5
1187
  8
0
 10
98.0
 20
95.354180424724973
 30
0.0
 11
84.0
 21
95.354180424724973
 31
0.0
  0
LINE
  5
1188
  8
0
 10
98.0
 20
94.354180424724959
 30
0.0
 11
84.0
 21
94.354180424724959
 31
0.0
  0
LINE
  5
1189
  8
0
 10
87.832235413063245
 20
82.588835235543456
 30
0.0
 11
84.0
 21
82.588835235543456
 31
0.0
  0
LINE
  5
118A
  8
0
 10
87.147378839924599
 20
81.588835235543456
 30
0.0
 11
84.0
 21
81.588835235543456
 31
0.0
  0
LINE
  5
118B
  8
0
 10
86.514382934063519
 20
79.397498938248063
 30
0.0
 11
84.0
 21
79.397498938248063
 31
0.0
  0
LINE
  5
118C
  8
0
 10
86.533100287129173
 20
78.397498938248077
 30
0.0
 11
84.0
 21
78.397498938248077
 31
0.0
  0
LINE
  5
118D
  8
0
 10
87.262440205000644
 20
76.206162640952698
 30
0.0
 11
84.0
 21
76.206162640952698
 31
0.0
  0
LINE
  5
118E
  8
0
 10
88.017940470924827
 20
75.206162640952698
 30
0.0
 11
84.0
 21
75.206162640952698
 31
0.0
  0
LINE
  5
118F
  8
0
 10
71.982059529075173
 20
75.206162640952698
 30
0.0
 11
76.0
 21
75.206162640952698
 31
0.0
  0
LINE
  5
1190
  8
0
 10
62.0
 20
75.206162640952698
 30
0.0
 11
64.017940470925055
 21
75.206162640952698
 31
0.0
  0
LINE
  5
1191
  8
0
 10
72.737559794999299
 20
76.206162640952698
 30
0.0
 11
76.0
 21
76.206162640952698
 31
0.0
  0
LINE
  5
1192
  8
0
 10
62.0
 20
76.206162640952698
 30
0.0
 11
63.262440205001042
 21
76.206162640952698
 31
0.0
  0
LINE
  5
1193
  8
0
 10
73.466899712870941
 20
78.397498938248077
 30
0.0
 11
76.0
 21
78.397498938248077
 31
0.0
  0
LINE
  5
1194
  8
0
 10
62.0
 20
78.397498938248077
 30
0.0
 11
62.533100287128882
 21
78.397498938248077
 31
0.0
  0
LINE
  5
1195
  8
0
 10
73.485617065936253
 20
79.397498938248063
 30
0.0
 11
76.0
 21
79.397498938248063
 31
0.0
  0
LINE
  5
1196
  8
0
 10
62.0
 20
79.397498938248063
 30
0.0
 11
62.51438293406369
 21
79.397498938248063
 31
0.0
  0
LINE
  5
1197
  8
0
 10
72.852621160075273
 20
81.588835235543456
 30
0.0
 11
76.0
 21
81.588835235543456
 31
0.0
  0
LINE
  5
1198
  8
0
 10
62.0
 20
81.588835235543456
 30
0.0
 11
63.147378839925238
 21
81.588835235543456
 31
0.0
  0
LINE
  5
1199
  8
0
 10
72.167764586936528
 20
82.588835235543456
 30
0.0
 11
76.0
 21
82.588835235543456
 31
0.0
  0
LINE
  5
119A
  8
0
 10
62.0
 20
82.588835235543456
 30
0.0
 11
63.956200611683009
 21
82.588835235543456
 31
0.0
  0
LINE
  5
119B
  8
0
 10
62.0
 20
85.780171532838835
 30
0.0
 11
76.0
 21
85.780171532838835
 31
0.0
  0
LINE
  5
119C
  8
0
 10
62.0
 20
94.354180424724959
 30
0.0
 11
76.0
 21
94.354180424724959
 31
0.0
  0
LINE
  5
119D
  8
0
 10
62.0
 20
95.354180424724973
 30
0.0
 11
76.0
 21
95.354180424724973
 31
0.0
  0
LINE
  5
119E
  8
0
 10
62.0
 20
92.162844127429594
 30
0.0
 11
76.0
 21
92.162844127429594
 31
0.0
  0
LINE
  5
119F
  8
0
 10
62.0
 20
91.162844127429594
 30
0.0
 11
76.0
 21
91.162844127429594
 31
0.0
  0
LINE
  5
11A0
  8
0
 10
62.0
 20
88.971507830134215
 30
0.0
 11
76.0
 21
88.971507830134215
 31
0.0
  0
LINE
  5
11A1
  8
0
 10
62.0
 20
87.971507830134215
 30
0.0
 11
76.0
 21
87.971507830134215
 31
0.0
  0
CIRCLE
  5
11A2
  8
0
 10
68.0
 20
79.0
 30
0.0
 40
5.5
  0
LINE
  5
11A3
  8
1
 10
68.0
 20
87.0
 30
0.0
 11
68.0
 21
71.0
 31
0.0
  0
LINE
  5
11A4
  8
0
 10
62.0
 20
63.440817451771181
 30
0.0
 11
76.0
 21
63.440817451771181
 31
0.0
  0
LINE
  5
11A5
  8
0
 10
62.0
 20
65.632153749066561
 30
0.0
 11
76.0
 21
65.632153749066561
 31
0.0
  0
LINE
  5
11A6
  8
0
 10
62.0
 20
66.632153749066561
 30
0.0
 11
76.0
 21
66.632153749066561
 31
0.0
  0
LINE
  5
11A7
  8
0
 10
62.0
 20
68.82349004636194
 30
0.0
 11
76.0
 21
68.82349004636194
 31
0.0
  0
LINE
  5
11A8
  8
0
 10
62.0
 20
69.82349004636194
 30
0.0
 11
76.0
 21
69.82349004636194
 31
0.0
  0
LINE
  5
11A9
  8
0
 10
62.0
 20
72.014826343657305
 30
0.0
 11
76.0
 21
72.014826343657305
 31
0.0
  0
LINE
  5
11AA
  8
0
 10
62.0
 20
73.014826343657319
 30
0.0
 11
76.0
 21
73.014826343657319
 31
0.0
  0
LINE
  5
11AB
  8
1
 10
76.0
 20
79.0
 30
0.0
 11
60.0
 21
79.0
 31
0.0
  0
LINE
  5
11AC
  8
0
 10
98.0
 20
84.780171532838835
 30
0.0
 11
84.0
 21
84.780171532838835
 31
0.0
  0
LINE
  5
11AD
  8
0
 10
62.0
 20
84.780171532838835
 30
0.0
 11
76.0
 21
84.780171532838835
 31
0.0
  0
CIRCLE
  5
11AE
  8
0
 10
68.0
 20
79.0
 30
0.0
 40
5.0
  0
CIRCLE
  5
11AF
  8
0
 10
92.0
 20
79.0
 30
0.0
 40
5.0
  0
LINE
  5
11B0
  8
0
 10
89.499999999999645
 20
80.443375672973843
 30
0.0
 11
89.500000000000213
 21
77.556624327026157
 31
0.0
  0
LINE
  5
11B1
  8
0
 10
92.0
 20
81.886751345948255
 30
0.0
 11
89.499999999999645
 21
80.443375672973843
 31
0.0
  0
LINE
  5
11B2
  8
0
 10
94.500000000000014
 20
80.443375672974753
 30
0.0
 11
92.0
 21
81.886751345948255
 31
0.0
  0
LINE
  5
11B3
  8
0
 10
94.500000000000014
 20
77.556624327026157
 30
0.0
 11
94.500000000000014
 21
80.443375672974753
 31
0.0
  0
LINE
  5
11B4
  8
0
 10
92.000000000000213
 20
76.113248654052086
 30
0.0
 11
94.500000000000014
 21
77.556624327026157
 31
0.0
  0
LINE
  5
11B5
  8
0
 10
89.500000000000213
 20
77.556624327026157
 30
0.0
 11
92.000000000000213
 21
76.113248654052086
 31
0.0
  0
LINE
  5
11B6
  8
0
 10
65.499999999999659
 20
80.443375672973843
 30
0.0
 11
65.500000000000213
 21
77.556624327026157
 31
0.0
  0
LINE
  5
11B7
  8
0
 10
68.0
 20
81.886751345948255
 30
0.0
 11
65.499999999999659
 21
80.443375672973843
 31
0.0
  0
LINE
  5
11B8
  8
0
 10
70.5
 20
80.443375672974753
 30
0.0
 11
68.0
 21
81.886751345948255
 31
0.0
  0
LINE
  5
11B9
  8
0
 10
70.5
 20
77.556624327026157
 30
0.0
 11
70.5
 21
80.443375672974753
 31
0.0
  0
LINE
  5
11BA
  8
0
 10
68.000000000000213
 20
76.113248654052086
 30
0.0
 11
70.5
 21
77.556624327026157
 31
0.0
  0
LINE
  5
11BB
  8
0
 10
65.500000000000213
 20
77.556624327026157
 30
0.0
 11
68.000000000000213
 21
76.113248654052086
 31
0.0
  0
LINE
  5
11C2
  8
5
 10
166.5
 20
79.191336297295379
 30
0.0
 11
164.0
 21
79.632153749066561
 31
0.0
  0
LINE
  5
11C3
  8
0
 10
152.5
 20
62.0
 30
0.0
 11
150.0
 21
62.440817451771181
 31
0.0
  0
LINE
  5
11C4
  8
5
 10
166.50000000000011
 20
76.0
 30
0.0
 11
186.0
 21
76.0
 31
0.0
  0
LINE
  5
11C5
  8
0
 10
150.0
 20
62.440817451771181
 30
0.0
 11
150.0
 21
63.440817451771181
 31
0.0
  0
LINE
  5
11C6
  8
0
 10
150.0
 20
63.440817451771181
 30
0.0
 11
152.5
 21
65.191336297295365
 31
0.0
  0
LINE
  5
11C7
  8
0
 10
150.0
 20
66.632153749066561
 30
0.0
 11
152.5
 21
68.382672594590758
 31
0.0
  0
LINE
  5
11C8
  8
0
 10
152.5
 20
65.191336297295365
 30
0.0
 11
150.0
 21
65.632153749066561
 31
0.0
  0
LINE
  5
11C9
  8
0
 10
150.0
 20
65.632153749066561
 30
0.0
 11
150.0
 21
66.632153749066561
 31
0.0
  0
LINE
  5
11CA
  8
0
 10
165.0
 20
92.962988330808344
 30
0.0
 11
165.0
 21
69.0
 31
0.0
  0
LINE
  5
11CB
  8
0
 10
165.0
 20
69.0
 30
0.0
 11
170.0
 21
69.0
 31
0.0
  0
LINE
  5
11CC
  8
0
 10
170.0
 20
69.0
 30
0.0
 11
170.0
 21
62.0
 31
0.0
  0
LINE
  5
11CD
  8
0
 10
150.0
 20
68.82349004636194
 30
0.0
 11
150.0
 21
69.82349004636194
 31
0.0
  0
LINE
  5
11CE
  8
0
 10
152.5
 20
68.382672594590758
 30
0.0
 11
150.0
 21
68.82349004636194
 31
0.0
  0
LINE
  5
11CF
  8
0
 10
150.0
 20
69.82349004636194
 30
0.0
 11
152.5
 21
71.574008891886137
 31
0.0
  0
LINE
  5
11D0
  8
0
 10
150.0
 20
72.014826343657305
 30
0.0
 11
150.0
 21
73.014826343657319
 31
0.0
  0
LINE
  5
11D1
  8
0
 10
152.5
 20
71.574008891886137
 30
0.0
 11
150.0
 21
72.014826343657305
 31
0.0
  0
LINE
  5
11D2
  8
0
 10
150.0
 20
73.014826343657319
 30
0.0
 11
152.5
 21
74.765345189181517
 31
0.0
  0
LINE
  5
11D3
  8
0
 10
150.0
 20
75.206162640952698
 30
0.0
 11
150.0
 21
76.206162640952698
 31
0.0
  0
LINE
  5
11D4
  8
0
 10
152.5
 20
74.765345189181517
 30
0.0
 11
150.0
 21
75.206162640952698
 31
0.0
  0
LINE
  5
11D5
  8
0
 10
150.0
 20
76.206162640952698
 30
0.0
 11
152.5
 21
77.956681486476896
 31
0.0
  0
LINE
  5
11D6
  8
0
 10
150.0
 20
78.397498938248077
 30
0.0
 11
150.0
 21
79.397498938248063
 31
0.0
  0
LINE
  5
11D7
  8
0
 10
152.5
 20
77.956681486476896
 30
0.0
 11
150.0
 21
78.397498938248077
 31
0.0
  0
LINE
  5
11D8
  8
0
 10
150.0
 20
79.397498938248063
 30
0.0
 11
152.5
 21
81.148017783772275
 31
0.0
  0
LINE
  5
11D9
  8
0
 10
150.0
 20
81.588835235543456
 30
0.0
 11
150.0
 21
82.588835235543456
 31
0.0
  0
LINE
  5
11DA
  8
0
 10
152.5
 20
81.148017783772275
 30
0.0
 11
150.0
 21
81.588835235543456
 31
0.0
  0
LINE
  5
11DB
  8
0
 10
150.0
 20
82.588835235543456
 30
0.0
 11
152.5
 21
84.339354081067754
 31
0.0
  0
LINE
  5
11DC
  8
0
 10
150.0
 20
84.780171532838949
 30
0.0
 11
150.0
 21
85.780171532838935
 31
0.0
  0
LINE
  5
11DD
  8
0
 10
152.5
 20
84.339354081067754
 30
0.0
 11
150.0
 21
84.780171532838949
 31
0.0
  0
LINE
  5
11DE
  8
0
 10
150.0
 20
85.780171532838935
 30
0.0
 11
152.5
 21
87.530690378363147
 31
0.0
  0
LINE
  5
11DF
  8
0
 10
150.0
 20
87.971507830134328
 30
0.0
 11
150.0
 21
88.971507830134328
 31
0.0
  0
LINE
  5
11E0
  8
0
 10
152.5
 20
87.530690378363147
 30
0.0
 11
150.0
 21
87.971507830134328
 31
0.0
  0
LINE
  5
11E1
  8
0
 10
150.0
 20
88.971507830134328
 30
0.0
 11
152.5
 21
90.722026675658526
 31
0.0
  0
LINE
  5
11E2
  8
5
 10
166.5
 20
88.765345189181517
 30
0.0
 11
164.0
 21
89.206162640952698
 31
0.0
  0
LINE
  5
11E3
  8
5
 10
164.0
 20
89.206162640952698
 30
0.0
 11
164.0
 21
90.206162640952698
 31
0.0
  0
LINE
  5
11E4
  8
5
 10
164.0
 20
87.014826343657305
 30
0.0
 11
166.5
 21
88.765345189181517
 31
0.0
  0
LINE
  5
11E5
  8
5
 10
166.5
 20
85.574008891886123
 30
0.0
 11
164.0
 21
86.014826343657319
 31
0.0
  0
LINE
  5
11E6
  8
5
 10
164.0
 20
86.014826343657319
 30
0.0
 11
164.0
 21
87.014826343657305
 31
0.0
  0
LINE
  5
11E7
  8
5
 10
164.0
 20
83.823490046361954
 30
0.0
 11
166.5
 21
85.574008891886123
 31
0.0
  0
LINE
  5
11E8
  8
5
 10
166.5
 20
82.382672594590758
 30
0.0
 11
164.0
 21
82.823490046361925
 31
0.0
  0
LINE
  5
11E9
  8
5
 10
164.0
 20
82.823490046361925
 30
0.0
 11
164.0
 21
83.823490046361954
 31
0.0
  0
LINE
  5
11EA
  8
5
 10
164.0
 20
79.632153749066561
 30
0.0
 11
164.0
 21
80.632153749066561
 31
0.0
  0
LINE
  5
11EB
  8
5
 10
166.5
 20
76.0
 30
0.0
 11
164.0
 21
76.440817451771181
 31
0.0
  0
LINE
  5
11EC
  8
5
 10
164.0
 20
80.632153749066561
 30
0.0
 11
166.5
 21
82.382672594590758
 31
0.0
  0
LINE
  5
11ED
  8
5
 10
164.0
 20
77.440817451771181
 30
0.0
 11
166.5
 21
79.191336297295379
 31
0.0
  0
LINE
  5
11EE
  8
5
 10
164.0
 20
76.440817451771181
 30
0.0
 11
164.0
 21
77.440817451771181
 31
0.0
  0
LINE
  5
11EF
  8
5
 10
211.31370849898471
 20
90.0
 30
0.0
 11
225.31370849898471
 21
104.0
 31
0.0
  0
LINE
  5
11F0
  8
5
 10
200.0
 20
90.0
 30
0.0
 11
214.0
 21
104.0
 31
0.0
  0
LINE
  5
11F1
  8
5
 10
225.31370849898471
 20
104.0
 30
0.0
 11
192.0
 21
104.0
 31
0.0
  0
LINE
  5
11F2
  8
0
 10
150.0
 20
91.162844127429693
 30
0.0
 11
150.0
 21
92.162844127429693
 31
0.0
  0
LINE
  5
11F3
  8
0
 10
152.5
 20
90.722026675658526
 30
0.0
 11
150.0
 21
91.162844127429693
 31
0.0
  0
LINE
  5
11F4
  8
0
 10
150.0
 20
92.162844127429693
 30
0.0
 11
152.5
 21
93.913362972953905
 31
0.0
  0
LINE
  5
11F5
  8
0
 10
150.0
 20
94.354180424725087
 30
0.0
 11
150.0
 21
95.354180424725087
 31
0.0
  0
LINE
  5
11F6
  8
0
 10
152.5
 20
93.913362972953905
 30
0.0
 11
150.0
 21
94.354180424725087
 31
0.0
  0
LINE
  5
11F7
  8
0
 10
150.0
 20
95.354180424725087
 30
0.0
 11
153.7786219526283
 21
98.0
 31
0.0
  0
LINE
  5
11F8
  8
0
 10
153.7786219526283
 20
98.0
 30
0.0
 11
157.6039219456288
 21
98.0
 31
0.0
  0
ARC
  5
11F9
  8
0
 10
178.0
 20
120.0
 30
0.0
 40
30.000000000000011
 50
227.16657193393371
 51
270.0
  0
LINE
  5
11FA
  8
5
 10
167.7786219526283
 20
112.0
 30
0.0
 11
171.6039219456288
 21
112.0
 31
0.0
  0
LINE
  5
11FB
  8
5
 10
164.0
 20
109.3541804247251
 30
0.0
 11
167.7786219526283
 21
112.0
 31
0.0
  0
LINE
  5
11FC
  8
5
 10
166.5
 20
107.91336297295391
 30
0.0
 11
164.0
 21
108.3541804247251
 31
0.0
  0
LINE
  5
11FD
  8
5
 10
164.0
 20
108.3541804247251
 30
0.0
 11
164.0
 21
109.3541804247251
 31
0.0
  0
LINE
  5
11FE
  8
5
 10
164.0
 20
106.16284412742969
 30
0.0
 11
166.5
 21
107.91336297295391
 31
0.0
  0
LINE
  5
11FF
  8
5
 10
166.5
 20
104.7220266756585
 30
0.0
 11
164.0
 21
105.16284412742969
 31
0.0
  0
LINE
  5
1200
  8
5
 10
164.0
 20
105.16284412742969
 30
0.0
 11
164.0
 21
106.16284412742969
 31
0.0
  0
LINE
  5
1201
  8
5
 10
164.0
 20
102.9715078301343
 30
0.0
 11
166.5
 21
104.7220266756585
 31
0.0
  0
LINE
  5
1202
  8
5
 10
166.5
 20
101.5306903783631
 30
0.0
 11
164.0
 21
101.9715078301343
 31
0.0
  0
LINE
  5
1203
  8
5
 10
164.0
 20
101.9715078301343
 30
0.0
 11
164.0
 21
102.9715078301343
 31
0.0
  0
LINE
  5
1204
  8
5
 10
164.0
 20
99.780171532838949
 30
0.0
 11
166.5
 21
101.5306903783631
 31
0.0
  0
LINE
  5
1205
  8
5
 10
166.5
 20
98.339354081067768
 30
0.0
 11
164.0
 21
98.780171532838949
 31
0.0
  0
LINE
  5
1206
  8
5
 10
164.0
 20
98.780171532838949
 30
0.0
 11
164.0
 21
99.780171532838949
 31
0.0
  0
LINE
  5
1207
  8
5
 10
164.0
 20
96.588835235543584
 30
0.0
 11
166.5
 21
98.339354081067768
 31
0.0
  0
LINE
  5
1208
  8
5
 10
166.5
 20
95.148017783772374
 30
0.0
 11
164.0
 21
95.588835235543556
 31
0.0
  0
LINE
  5
1209
  8
5
 10
164.0
 20
95.588835235543556
 30
0.0
 11
164.0
 21
96.588835235543584
 31
0.0
  0
LINE
  5
120A
  8
5
 10
164.0
 20
93.397498938248191
 30
0.0
 11
166.5
 21
95.148017783772275
 31
0.0
  0
LINE
  5
120B
  8
5
 10
166.5
 20
91.956681486477009
 30
0.0
 11
164.0
 21
92.397498938248205
 31
0.0
  0
LINE
  5
120C
  8
5
 10
164.0
 20
92.397498938248205
 30
0.0
 11
164.0
 21
93.397498938248191
 31
0.0
  0
LINE
  5
120D
  8
5
 10
164.0
 20
90.206162640952698
 30
0.0
 11
166.5
 21
91.956681486476896
 31
0.0
  0
ARC
  5
120E
  8
5
 10
192.0
 20
134.0
 30
0.0
 40
30.000000000000011
 50
227.16657193393371
 51
270.0
  0
LINE
  5
120F
  8
0
 10
150.0
 20
150.0
 30
0.0
 11
150.0
 21
164.0
 31
0.0
  0
ARC
  5
1210
  8
0
 10
152.0
 20
186.0
 30
0.0
 40
2.0
 50
90.0
 51
180.0
  0
ARC
  5
1211
  8
0
 10
152.0
 20
150.0
 30
0.0
 40
2.0
 50
180.0
 51
270.0
  0
LINE
  5
1212
  8
0
 10
150.0
 20
172.0
 30
0.0
 11
153.99999999999989
 21
168.0
 31
0.0
  0
LINE
  5
1213
  8
0
 10
153.99999999999989
 20
168.0
 30
0.0
 11
150.0
 21
164.0
 31
0.0
  0
LINE
  5
1214
  8
0
 10
150.0
 20
172.0
 30
0.0
 11
150.0
 21
186.0
 31
0.0
  0
LINE
  5
1215
  8
0
 10
157.6039219456286
 20
149.99999999999989
 30
0.0
 11
157.6039219456286
 21
185.99999999999989
 31
0.0
  0
LINE
  5
1216
  8
0
 10
165.0
 20
148.0
 30
0.0
 11
165.0
 21
188.0
 31
0.0
  0
LINE
  5
1217
  8
1
 10
145.0
 20
168.0
 30
0.0
 11
292.00000000000011
 21
168.0
 31
0.0
  0
LINE
  5
1218
  8
0
 10
152.0
 20
188.0
 30
0.0
 11
279.00000000000011
 21
188.0
 31
0.0
  0
LINE
  5
1219
  8
0
 10
287.00000000000011
 20
180.0
 30
0.0
 11
287.00000000000011
 21
156.0
 31
0.0
  0
LINE
  5
121A
  8
0
 10
279.00000000000011
 20
148.0
 30
0.0
 11
152.0
 21
148.0
 31
0.0
  0
LINE
  5
121B
  8
0
 10
200.00000000000011
 20
148.0
 30
0.0
 11
200.00000000000011
 21
157.61764973081051
 31
0.0
  0
LINE
  5
121C
  8
0
 10
287.00000000000011
 20
62.0
 30
0.0
 11
287.00000000000011
 21
86.0
 31
0.0
  0
LINE
  5
121D
  8
0
 10
283.00000000000011
 20
90.0
 30
0.0
 11
178.0
 21
90.0
 31
0.0
  0
ARC
  5
121E
  8
0
 10
283.00000000000011
 20
86.0
 30
0.0
 40
4.0
 50
0.0
 51
90.0
  0
LINE
  5
121F
  8
0
 10
152.5
 20
62.0
 30
0.0
 11
287.00000000000011
 21
62.0
 31
0.0
  0
LINE
  5
1220
  8
0
 10
172.00000000000011
 20
62.0
 30
0.0
 11
200.00000000000011
 21
90.0
 31
0.0
  0
LINE
  5
1222
  8
0
 10
200.00000000000011
 20
178.3823502691896
 30
0.0
 11
211.31370849898479
 21
183.00115242270661
 31
0.0
  0
LINE
  5
1223
  8
0
 10
211.31370849898479
 20
183.00115242270661
 30
0.0
 11
211.31370849898479
 21
173.00000000000031
 31
0.0
  0
LINE
  5
1224
  8
0
 10
211.31370849898479
 20
152.99884757729339
 30
0.0
 11
200.00000000000011
 21
157.61764973081051
 31
0.0
  0
LINE
  5
1225
  8
0
 10
200.00000000000011
 20
178.3823502691896
 30
0.0
 11
200.00000000000011
 21
188.0
 31
0.0
  0
ARC
  5
1226
  8
3
 10
213.32832084837949
 20
171.34833256756841
 30
0.0
 40
12.00000000000003
 50
289.61927114432791
 51
317.95866862701843
  0
ARC
  5
1227
  8
3
 10
211.31371040633351
 20
176.99999999999969
 30
0.0
 40
17.999999999999829
 50
269.99998785744219
 51
289.61927114432791
  0
ARC
  5
1228
  8
3
 10
211.31371040633351
 20
159.0000000000002
 30
0.0
 40
17.999999999999829
 50
70.380728855672089
 51
90.000012142557793
  0
ARC
  5
1229
  8
3
 10
213.32832084837949
 20
164.65166743243159
 30
0.0
 40
12.00000000000003
 50
42.04133137298156
 51
70.380728855672089
  0
ARC
  5
122A
  8
3
 10
217.04163056034241
 20
168.0
 30
0.0
 40
7.0000000000003686
 50
317.95866862701843
 51
42.04133137298156
  0
ARC
  5
122B
  8
0
 10
213.02545745919201
 20
170.84496657269321
 30
0.0
 40
10.19600000400003
 50
289.61927114432791
 51
317.95866862701843
  0
ARC
  5
122C
  8
0
 10
211.31371011959541
 20
175.64700000299979
 30
0.0
 40
15.29400000599985
 50
269.99998785744219
 51
289.61927114432791
  0
ARC
  5
122D
  8
0
 10
211.31371011959541
 20
160.3529999970001
 30
0.0
 40
15.29400000599985
 50
70.380728855672089
 51
90.000012142557793
  0
ARC
  5
122E
  8
0
 10
213.02545745919201
 20
165.15503342730659
 30
0.0
 40
10.19600000400003
 50
42.04133137298156
 51
70.380728855672089
  0
ARC
  5
122F
  8
0
 10
216.1805329456943
 20
168.0
 30
0.0
 40
5.9476666690003137
 50
317.95866862701843
 51
42.04133137298156
  0
LINE
  5
1230
  8
0
 10
211.31370849898479
 20
162.99999999999949
 30
0.0
 11
211.31370849898479
 21
152.99884757729339
 31
0.0
  0
LINE
  5
1231
  8
1
 10
269.50000000000011
 20
183.5
 30
0.0
 11
269.50000000000011
 21
152.5
 31
0.0
  0
ARC
  5
1232
  8
0
 10
269.50000000000011
 20
168.0
 30
0.0
 40
13.0
 50
270.0
 51
90.0
  0
ARC
  5
1233
  8
0
 10
269.50000000000011
 20
168.0
 30
0.0
 40
8.5
 50
270.0
 51
90.0
  0
LINE
  5
1234
  8
1
 10
239.50000000000011
 20
183.5
 30
0.0
 11
239.50000000000011
 21
152.5
 31
0.0
  0
ARC
  5
1235
  8
0
 10
239.50000000000011
 20
168.0
 30
0.0
 40
13.0
 50
90.0
 51
270.0
  0
LINE
  5
1236
  8
0
 10
239.50000000000011
 20
181.0
 30
0.0
 11
269.50000000000011
 21
181.0
 31
0.0
  0
LINE
  5
1237
  8
0
 10
269.50000000000011
 20
176.5
 30
0.0
 11
248.6651513899117
 21
176.5
 31
0.0
  0
LINE
  5
1238
  8
0
 10
248.66515138991181
 20
159.5
 30
0.0
 11
269.50000000000011
 21
159.5
 31
0.0
  0
LINE
  5
1239
  8
0
 10
269.50000000000011
 20
155.0
 30
0.0
 11
239.50000000000011
 21
155.0
 31
0.0
  0
ARC
  5
123A
  8
0
 10
279.00000000000011
 20
180.0
 30
0.0
 40
8.0
 50
0.0
 51
90.0
  0
ARC
  5
123B
  8
0
 10
279.00000000000011
 20
156.0
 30
0.0
 40
8.0
 50
270.0
 51
0.0
  0
LINE
  5
123C
  8
0
 10
196.00000000000011
 20
63.0
 30
0.0
 11
173.00000000000011
 21
63.0
 31
0.0
  0
LINE
  5
123D
  8
0
 10
207.00000000000011
 20
67.0
 30
0.0
 11
271.50000000000011
 21
67.0
 31
0.0
  0
LINE
  5
123E
  8
0
 10
274.50000000000011
 20
70.0
 30
0.0
 11
274.50000000000011
 21
78.0
 31
0.0
  0
ARC
  5
123F
  8
0
 10
271.50000000000011
 20
70.0
 30
0.0
 40
3.0
 50
270.0
 51
0.0
  0
LINE
  5
1240
  8
0
 10
215.00000000000011
 20
81.0
 30
0.0
 11
271.50000000000011
 21
81.0
 31
0.0
  0
ARC
  5
1241
  8
0
 10
271.50000000000011
 20
78.0
 30
0.0
 40
3.0
 50
0.0
 51
90.0
  0
LINE
  5
1242
  8
0
 10
204.8786796564404
 20
72.12132034355966
 30
0.0
 11
212.8786796564404
 21
80.12132034355966
 31
0.0
  0
ARC
  5
1243
  8
0
 10
207.00000000000011
 20
70.0
 30
0.0
 40
3.0
 50
135.0000000000002
 51
270.0
  0
ARC
  5
1244
  8
0
 10
215.00000000000011
 20
78.0
 30
0.0
 40
3.0
 50
90.0
 51
135.0000000000002
  0
LINE
  5
1245
  8
0
 10
276.50000000000011
 20
70.0
 30
0.0
 11
276.50000000000011
 21
78.0
 31
0.0
  0
LINE
  5
1246
  8
0
 10
215.00000000000011
 20
83.0
 30
0.0
 11
271.50000000000011
 21
83.0
 31
0.0
  0
LINE
  5
1247
  8
0
 10
207.00000000000011
 20
65.0
 30
0.0
 11
271.50000000000011
 21
65.0
 31
0.0
  0
LINE
  5
1248
  8
0
 10
203.46446609406749
 20
73.535533905932766
 30
0.0
 11
211.46446609406729
 21
81.535533905932766
 31
0.0
  0
ARC
  5
1249
  8
0
 10
271.50000000000011
 20
70.0
 30
0.0
 40
5.0
 50
270.0
 51
0.0
  0
ARC
  5
124A
  8
0
 10
271.50000000000011
 20
78.0
 30
0.0
 40
5.0
 50
0.0
 51
90.0
  0
ARC
  5
124B
  8
0
 10
215.00000000000011
 20
78.0
 30
0.0
 40
5.0
 50
90.0
 51
135.0000000000002
  0
ARC
  5
124C
  8
0
 10
207.00000000000011
 20
70.0
 30
0.0
 40
5.0
 50
135.0000000000002
 51
270.0
  0
LINE
  5
124D
  8
1
 10
269.50000000000023
 20
92.5
 30
0.0
 11
269.50000000000011
 21
57.5
 31
0.0
  0
LINE
  5
124E
  8
1
 10
239.50000000000011
 20
92.5
 30
0.0
 11
239.50000000000011
 21
57.5
 31
0.0
  0
ARC
  5
124F
  8
0
 10
210.4499082282471
 20
170.12704871390471
 30
0.0
 40
7.000000000001247
 50
220.8799693967197
 51
253.2657265165362
  0
ARC
  5
1250
  8
0
 10
211.31370849898471
 20
173.0000000000002
 30
0.0
 40
10.000000000000719
 50
253.2657265165362
 51
270.0
  0
ARC
  5
1251
  8
0
 10
211.31370849898471
 20
162.99999999999949
 30
0.0
 40
10.000000000000719
 50
90.0
 51
106.7342734834637
  0
ARC
  5
1252
  8
0
 10
210.4499082282471
 20
165.8729512860952
 30
0.0
 40
7.000000000001247
 50
106.7342734834637
 51
139.12003060328021
  0
ARC
  5
1253
  8
0
 10
207.99264068711781
 20
168.0
 30
0.0
 40
3.749999999999488
 50
139.1200306032799
 51
220.8799693967197
  0
LINE
  5
12BC
  8
0
 10
287.00000000000011
 20
62.0
 30
0.0
 11
285.00000000000011
 21
60.0
 31
0.0
  0
LINE
  5
12BD
  8
0
 10
285.00000000000011
 20
60.0
 30
0.0
 11
283.0767949192433
 21
60.0
 31
0.0
  0
LINE
  5
12BE
  8
0
 10
283.0767949192433
 20
60.0
 30
0.0
 11
282.34641016151397
 21
61.265063509461129
 31
0.0
  0
LINE
  5
12BF
  8
0
 10
280.92320508075699
 20
60.0
 30
0.0
 11
281.65358983848643
 21
61.265063509461129
 31
0.0
  0
LINE
  5
12C0
  8
0
 10
280.92320508075699
 20
60.0
 30
0.0
 11
278.0767949192433
 21
60.0
 31
0.0
  0
ARC
  5
12C1
  8
0
 10
282.00000000000023
 20
61.06506350946119
 30
0.0
 40
0.4
 50
30.000000000000909
 51
149.99999999999909
  0
LINE
  5
12C2
  8
0
 10
275.92320508075699
 20
60.0
 30
0.0
 11
273.0767949192433
 21
60.0
 31
0.0
  0
LINE
  5
12C3
  8
0
 10
275.92320508075699
 20
60.0
 30
0.0
 11
276.65358983848643
 21
61.265063509461129
 31
0.0
  0
LINE
  5
12C4
  8
0
 10
278.0767949192433
 20
60.0
 30
0.0
 11
277.34641016151397
 21
61.265063509461129
 31
0.0
  0
ARC
  5
12C5
  8
0
 10
277.00000000000023
 20
61.06506350946119
 30
0.0
 40
0.4
 50
30.000000000000909
 51
149.99999999999909
  0
LINE
  5
12C6
  8
0
 10
270.9232050807571
 20
60.0
 30
0.0
 11
268.0767949192433
 21
60.0
 31
0.0
  0
LINE
  5
12C7
  8
0
 10
270.9232050807571
 20
60.0
 30
0.0
 11
271.65358983848643
 21
61.265063509461129
 31
0.0
  0
LINE
  5
12C8
  8
0
 10
273.0767949192433
 20
60.0
 30
0.0
 11
272.34641016151397
 21
61.265063509461129
 31
0.0
  0
ARC
  5
12C9
  8
0
 10
272.00000000000023
 20
61.06506350946119
 30
0.0
 40
0.4
 50
30.000000000000909
 51
149.99999999999909
  0
LINE
  5
12CA
  8
0
 10
265.92320508075699
 20
60.0
 30
0.0
 11
263.0767949192433
 21
60.0
 31
0.0
  0
LINE
  5
12CB
  8
0
 10
265.92320508075699
 20
60.0
 30
0.0
 11
266.65358983848643
 21
61.265063509461129
 31
0.0
  0
LINE
  5
12CC
  8
0
 10
268.0767949192433
 20
60.0
 30
0.0
 11
267.34641016151397
 21
61.265063509461129
 31
0.0
  0
ARC
  5
12CD
  8
0
 10
267.00000000000023
 20
61.06506350946119
 30
0.0
 40
0.4
 50
30.000000000000909
 51
149.99999999999909
  0
LINE
  5
12CE
  8
0
 10
260.9232050807571
 20
60.0
 30
0.0
 11
258.0767949192433
 21
60.0
 31
0.0
  0
LINE
  5
12CF
  8
0
 10
260.9232050807571
 20
60.0
 30
0.0
 11
261.65358983848643
 21
61.265063509461129
 31
0.0
  0
LINE
  5
12D0
  8
0
 10
263.0767949192433
 20
60.0
 30
0.0
 11
262.34641016151397
 21
61.265063509461129
 31
0.0
  0
ARC
  5
12D1
  8
0
 10
262.00000000000023
 20
61.06506350946119
 30
0.0
 40
0.4
 50
30.000000000000909
 51
149.99999999999909
  0
LINE
  5
12D2
  8
0
 10
255.92320508075699
 20
60.0
 30
0.0
 11
253.0767949192433
 21
60.0
 31
0.0
  0
LINE
  5
12D3
  8
0
 10
255.92320508075699
 20
60.0
 30
0.0
 11
256.65358983848643
 21
61.265063509461129
 31
0.0
  0
LINE
  5
12D4
  8
0
 10
258.0767949192433
 20
60.0
 30
0.0
 11
257.34641016151397
 21
61.265063509461129
 31
0.0
  0
ARC
  5
12D5
  8
0
 10
257.00000000000023
 20
61.06506350946119
 30
0.0
 40
0.4
 50
30.000000000000909
 51
149.99999999999909
  0
LINE
  5
12D6
  8
0
 10
250.92320508075699
 20
60.0
 30
0.0
 11
248.0767949192433
 21
60.0
 31
0.0
  0
LINE
  5
12D7
  8
0
 10
250.92320508075699
 20
60.0
 30
0.0
 11
251.6535898384864
 21
61.265063509461129
 31
0.0
  0
LINE
  5
12D8
  8
0
 10
253.0767949192433
 20
60.0
 30
0.0
 11
252.346410161514
 21
61.265063509461129
 31
0.0
  0
ARC
  5
12D9
  8
0
 10
252.0000000000002
 20
61.06506350946119
 30
0.0
 40
0.4
 50
30.000000000000909
 51
149.99999999999909
  0
LINE
  5
12DA
  8
0
 10
245.9232050807571
 20
60.0
 30
0.0
 11
243.0767949192433
 21
60.0
 31
0.0
  0
LINE
  5
12DB
  8
0
 10
245.9232050807571
 20
60.0
 30
0.0
 11
246.6535898384864
 21
61.265063509461129
 31
0.0
  0
LINE
  5
12DC
  8
0
 10
248.0767949192433
 20
60.0
 30
0.0
 11
247.346410161514
 21
61.265063509461129
 31
0.0
  0
ARC
  5
12DD
  8
0
 10
247.0000000000002
 20
61.06506350946119
 30
0.0
 40
0.4
 50
30.000000000000909
 51
149.99999999999909
  0
LINE
  5
12DE
  8
0
 10
240.92320508075699
 20
60.0
 30
0.0
 11
238.0767949192433
 21
60.0
 31
0.0
  0
LINE
  5
12DF
  8
0
 10
240.92320508075699
 20
60.0
 30
0.0
 11
241.6535898384864
 21
61.265063509461129
 31
0.0
  0
LINE
  5
12E0
  8
0
 10
243.0767949192433
 20
60.0
 30
0.0
 11
242.346410161514
 21
61.265063509461129
 31
0.0
  0
ARC
  5
12E1
  8
0
 10
242.0000000000002
 20
61.06506350946119
 30
0.0
 40
0.4
 50
30.000000000000909
 51
149.99999999999909
  0
LINE
  5
12E2
  8
0
 10
235.9232050807571
 20
60.0
 30
0.0
 11
233.0767949192433
 21
60.0
 31
0.0
  0
LINE
  5
12E3
  8
0
 10
235.9232050807571
 20
60.0
 30
0.0
 11
236.6535898384864
 21
61.265063509461129
 31
0.0
  0
LINE
  5
12E4
  8
0
 10
238.0767949192433
 20
60.0
 30
0.0
 11
237.346410161514
 21
61.265063509461129
 31
0.0
  0
ARC
  5
12E5
  8
0
 10
237.0000000000002
 20
61.06506350946119
 30
0.0
 40
0.4
 50
30.000000000000909
 51
149.99999999999909
  0
LINE
  5
12E6
  8
0
 10
230.92320508075699
 20
60.0
 30
0.0
 11
228.0767949192433
 21
60.0
 31
0.0
  0
LINE
  5
12E7
  8
0
 10
230.92320508075699
 20
60.0
 30
0.0
 11
231.6535898384864
 21
61.265063509461129
 31
0.0
  0
LINE
  5
12E8
  8
0
 10
233.0767949192433
 20
60.0
 30
0.0
 11
232.346410161514
 21
61.265063509461129
 31
0.0
  0
ARC
  5
12E9
  8
0
 10
232.0000000000002
 20
61.06506350946119
 30
0.0
 40
0.4
 50
30.000000000000909
 51
149.99999999999909
  0
LINE
  5
12EA
  8
0
 10
225.92320508075699
 20
60.0
 30
0.0
 11
223.0767949192433
 21
60.0
 31
0.0
  0
LINE
  5
12EB
  8
0
 10
225.92320508075699
 20
60.0
 30
0.0
 11
226.6535898384864
 21
61.265063509461129
 31
0.0
  0
LINE
  5
12EC
  8
0
 10
228.0767949192433
 20
60.0
 30
0.0
 11
227.346410161514
 21
61.265063509461129
 31
0.0
  0
ARC
  5
12ED
  8
0
 10
227.0000000000002
 20
61.06506350946119
 30
0.0
 40
0.4
 50
30.000000000000909
 51
149.99999999999909
  0
LINE
  5
12EE
  8
0
 10
220.9232050807571
 20
60.0
 30
0.0
 11
218.0767949192433
 21
60.0
 31
0.0
  0
LINE
  5
12EF
  8
0
 10
220.9232050807571
 20
60.0
 30
0.0
 11
221.6535898384864
 21
61.265063509461129
 31
0.0
  0
LINE
  5
12F0
  8
0
 10
223.0767949192433
 20
60.0
 30
0.0
 11
222.346410161514
 21
61.265063509461129
 31
0.0
  0
ARC
  5
12F1
  8
0
 10
222.0000000000002
 20
61.06506350946119
 30
0.0
 40
0.4
 50
30.000000000000909
 51
149.99999999999909
  0
LINE
  5
12F2
  8
0
 10
215.92320508075699
 20
60.0
 30
0.0
 11
213.0767949192433
 21
60.0
 31
0.0
  0
LINE
  5
12F3
  8
0
 10
215.92320508075699
 20
60.0
 30
0.0
 11
216.6535898384864
 21
61.265063509461129
 31
0.0
  0
LINE
  5
12F4
  8
0
 10
218.0767949192433
 20
60.0
 30
0.0
 11
217.346410161514
 21
61.265063509461129
 31
0.0
  0
ARC
  5
12F5
  8
0
 10
217.0000000000002
 20
61.06506350946119
 30
0.0
 40
0.4
 50
30.000000000000909
 51
149.99999999999909
  0
LINE
  5
12F6
  8
0
 10
210.9232050807571
 20
60.0
 30
0.0
 11
208.0767949192433
 21
60.0
 31
0.0
  0
LINE
  5
12F7
  8
0
 10
210.9232050807571
 20
60.0
 30
0.0
 11
211.6535898384864
 21
61.265063509461129
 31
0.0
  0
LINE
  5
12F8
  8
0
 10
213.0767949192433
 20
60.0
 30
0.0
 11
212.346410161514
 21
61.265063509461129
 31
0.0
  0
ARC
  5
12F9
  8
0
 10
212.0000000000002
 20
61.06506350946119
 30
0.0
 40
0.4
 50
30.000000000000909
 51
149.99999999999909
  0
LINE
  5
12FA
  8
0
 10
205.92320508075699
 20
60.0
 30
0.0
 11
203.0767949192433
 21
60.0
 31
0.0
  0
LINE
  5
12FB
  8
0
 10
205.92320508075699
 20
60.0
 30
0.0
 11
206.6535898384864
 21
61.265063509461129
 31
0.0
  0
LINE
  5
12FC
  8
0
 10
208.0767949192433
 20
60.0
 30
0.0
 11
207.346410161514
 21
61.265063509461129
 31
0.0
  0
ARC
  5
12FD
  8
0
 10
207.0000000000002
 20
61.06506350946119
 30
0.0
 40
0.4
 50
30.000000000000909
 51
149.99999999999909
  0
LINE
  5
12FE
  8
0
 10
200.92320508075699
 20
60.0
 30
0.0
 11
199.0000000000002
 21
60.0
 31
0.0
  0
LINE
  5
12FF
  8
0
 10
200.92320508075699
 20
60.0
 30
0.0
 11
201.6535898384864
 21
61.265063509461129
 31
0.0
  0
LINE
  5
1300
  8
0
 10
203.0767949192433
 20
60.0
 30
0.0
 11
202.346410161514
 21
61.265063509461129
 31
0.0
  0
ARC
  5
1301
  8
0
 10
202.0000000000002
 20
61.06506350946119
 30
0.0
 40
0.4
 50
30.000000000000909
 51
149.99999999999909
  0
LINE
  5
1302
  8
0
 10
196.00000000000011
 20
63.0
 30
0.0
 11
199.0000000000002
 21
60.0
 31
0.0
  0
CIRCLE
  5
131A
  8
0
 10
239.50000000000011
 20
168.0
 30
0.0
 40
8.5
  0
POLYLINE
  5
14F2
  8
3
 66
     1
 10
0.0
 20
0.0
 30
0.0
 70
     1
1001
ACAD
1000
ASC_BOUNDS
1002
{
1070
    19
1005
14F1
1002
}
  0
VERTEX
  5
1714
  8
3
 10
261.15196609406752
 20
73.999999999999972
 30
0.0
 42
1.0
  0
VERTEX
  5
1715
  8
3
 10
263.77696609406752
 20
73.999999999999972
 30
0.0
 42
1.0
  0
SEQEND
  5
1716
  8
3
  0
POLYLINE
  5
14F3
  8
3
 66
     1
 10
0.0
 20
0.0
 30
0.0
 70
     1
1001
ACAD
1000
ASC_BOUNDS
1002
{
1070
    19
1005
14F1
1002
}
  0
VERTEX
  5
1717
  8
3
 10
265.96446609406729
 20
73.999999999999972
 30
0.0
 42
1.0
  0
VERTEX
  5
1718
  8
3
 10
258.9644660940674
 20
73.999999999999972
 30
0.0
 42
1.0
  0
SEQEND
  5
1719
  8
3
  0
POLYLINE
  5
14F4
  8
3
 66
     1
 10
0.0
 20
0.0
 30
0.0
 70
     1
1001
ACAD
1000
ASC_BOUNDS
1002
{
1070
    19
1005
14F1
1002
}
  0
VERTEX
  5
171A
  8
3
 10
232.9936327607339
 20
76.352655075262732
 30
0.0
  0
VERTEX
  5
171B
  8
3
 10
232.9936327607339
 20
77.647344924736274
 30
0.0
 42
0.1238822414942591
  0
VERTEX
  5
171C
  8
3
 10
231.32098700602091
 20
76.999999999999488
 30
0.0
 42
0.1238822414942589
  0
SEQEND
  5
171D
  8
3
  0
POLYLINE
  5
14F5
  8
3
 66
     1
 10
0.0
 20
0.0
 30
0.0
 70
     1
1001
ACAD
1000
ASC_BOUNDS
1002
{
1070
    19
1005
14F1
1002
}
  0
VERTEX
  5
171E
  8
3
 10
235.56627851544761
 20
76.999999999999488
 30
0.0
 42
0.1238822414942568
  0
VERTEX
  5
171F
  8
3
 10
233.89363276073459
 20
77.647344924736274
 30
0.0
  0
VERTEX
  5
1720
  8
3
 10
233.89363276073459
 20
76.352655075262788
 30
0.0
 42
0.1238822414942573
  0
SEQEND
  5
1721
  8
3
  0
POLYLINE
  5
14F6
  8
3
 66
     1
 10
0.0
 20
0.0
 30
0.0
 70
     1
1001
ACAD
1000
ASC_BOUNDS
1002
{
1070
    19
1005
14F1
1002
}
  0
VERTEX
  5
1722
  8
3
 10
232.9936327607339
 20
73.181846591395271
 30
0.0
 42
-0.0420571628960909
  0
VERTEX
  5
1723
  8
3
 10
232.79432935474409
 20
72.452909732632975
 30
0.0
 42
-0.0111573747896638
  0
VERTEX
  5
1724
  8
3
 10
232.9936327607339
 20
72.477443466980603
 30
0.0
  0
SEQEND
  5
1725
  8
3
  0
POLYLINE
  5
14F7
  8
3
 66
     1
 10
0.0
 20
0.0
 30
0.0
 70
     1
1001
ACAD
1000
ASC_BOUNDS
1002
{
1070
    19
1005
14F1
1002
}
  0
VERTEX
  5
1726
  8
3
 10
233.89363276073459
 20
73.549999999999642
 30
0.0
  0
VERTEX
  5
1727
  8
3
 10
233.89363276073459
 20
72.477443466980603
 30
0.0
 42
-0.1402251973297237
  0
VERTEX
  5
1728
  8
3
 10
236.1935297359
 20
71.562031250000487
 30
0.0
 42
0.1517967807321737
  0
VERTEX
  5
1729
  8
3
 10
237.09097768547059
 20
73.549999999999642
 30
0.0
  0
SEQEND
  5
172A
  8
3
  0
POLYLINE
  5
14F8
  8
3
 66
     1
 10
0.0
 20
0.0
 30
0.0
 70
     1
1001
ACAD
1000
ASC_BOUNDS
1002
{
1070
    19
1005
14F1
1002
}
  0
VERTEX
  5
172B
  8
3
 10
237.09097768547059
 20
74.45000000000033
 30
0.0
 42
0.1517967807321736
  0
VERTEX
  5
172C
  8
3
 10
236.1935297359
 20
76.43796874999947
 30
0.0
 42
-0.1402251973297237
  0
VERTEX
  5
172D
  8
3
 10
233.89363276073459
 20
75.522556533019298
 30
0.0
  0
VERTEX
  5
172E
  8
3
 10
233.89363276073459
 20
74.45000000000033
 30
0.0
  0
SEQEND
  5
172F
  8
3
  0
POLYLINE
  5
14F9
  8
3
 66
     1
 10
0.0
 20
0.0
 30
0.0
 70
     1
1001
ACAD
1000
ASC_BOUNDS
1002
{
1070
    19
1005
14F1
1002
}
  0
VERTEX
  5
1730
  8
3
 10
244.52696609406749
 20
70.499999999999986
 30
0.0
  0
VERTEX
  5
1731
  8
3
 10
244.52696609406749
 20
74.656249999999972
 30
0.0
 42
-1.0
  0
VERTEX
  5
1732
  8
3
 10
245.83946609406749
 20
74.656249999999972
 30
0.0
  0
VERTEX
  5
1733
  8
3
 10
245.83946609406749
 20
70.499999999999986
 30
0.0
  0
VERTEX
  5
1734
  8
3
 10
248.0269660940674
 20
70.499999999999986
 30
0.0
  0
VERTEX
  5
1735
  8
3
 10
248.0269660940674
 20
74.656249999999972
 30
0.0
 42
-1.0
  0
VERTEX
  5
1736
  8
3
 10
249.3394660940674
 20
74.656249999999972
 30
0.0
  0
VERTEX
  5
1737
  8
3
 10
249.3394660940674
 20
70.499999999999986
 30
0.0
  0
VERTEX
  5
1738
  8
3
 10
251.52696609406749
 20
70.499999999999986
 30
0.0
  0
VERTEX
  5
1739
  8
3
 10
251.52696609406749
 20
74.656249999999972
 30
0.0
 42
0.6247472440541069
  0
VERTEX
  5
173A
  8
3
 10
246.93321609406749
 20
76.897770480053623
 30
0.0
 42
0.6247472440541069
  0
VERTEX
  5
173B
  8
3
 10
242.33946609406749
 20
74.656249999999972
 30
0.0
  0
VERTEX
  5
173C
  8
3
 10
242.33946609406749
 20
70.499999999999986
 30
0.0
  0
SEQEND
  5
173D
  8
3
  0
POLYLINE
  5
14FA
  8
3
 66
     1
 10
0.0
 20
0.0
 30
0.0
 70
     1
1001
ACAD
1000
ASC_BOUNDS
1002
{
1070
    19
1005
14F1
1002
}
  0
VERTEX
  5
173E
  8
3
 10
232.9936327607339
 20
71.647344924737169
 30
0.0
 42
0.0479752760773671
  0
VERTEX
  5
173F
  8
3
 10
232.3067655393636
 20
71.494732882636285
 30
0.0
 42
-0.0528997705207019
  0
VERTEX
  5
1740
  8
3
 10
231.69786352996559
 20
70.766130059371349
 30
0.0
 42
0.0933324906988985
  0
VERTEX
  5
1741
  8
3
 10
232.9936327607339
 20
70.352655075263684
 30
0.0
  0
SEQEND
  5
1742
  8
3
  0
POLYLINE
  5
14FB
  8
3
 66
     1
 10
0.0
 20
0.0
 30
0.0
 70
     1
1001
ACAD
1000
ASC_BOUNDS
1002
{
1070
    19
1005
14F1
1002
}
  0
VERTEX
  5
1743
  8
3
 10
233.89363276073459
 20
71.647344924737169
 30
0.0
  0
VERTEX
  5
1744
  8
3
 10
233.89363276073459
 20
70.352655075263684
 30
0.0
 42
0.1238822414942567
  0
VERTEX
  5
1745
  8
3
 10
235.56627851544761
 20
71.000000000000398
 30
0.0
 42
0.1238822414942571
  0
SEQEND
  5
1746
  8
3
  0
POLYLINE
  5
14FC
  8
3
 66
     1
 10
0.0
 20
0.0
 30
0.0
 70
     1
1001
ACAD
1000
ASC_BOUNDS
1002
{
1070
    19
1005
14F1
1002
}
  0
VERTEX
  5
1747
  8
3
 10
241.46446609406749
 20
77.499999999999972
 30
0.0
  0
VERTEX
  5
1748
  8
3
 10
239.27696609406749
 20
77.499999999999972
 30
0.0
  0
VERTEX
  5
1749
  8
3
 10
239.27696609406749
 20
70.499999999999986
 30
0.0
  0
VERTEX
  5
174A
  8
3
 10
241.46446609406749
 20
70.499999999999986
 30
0.0
  0
SEQEND
  5
174B
  8
3
  0
POLYLINE
  5
14FD
  8
3
 66
     1
 10
0.0
 20
0.0
 30
0.0
 70
     1
1001
ACAD
1000
ASC_BOUNDS
1002
{
1070
    19
1005
14F1
1002
}
  0
VERTEX
  5
174C
  8
3
 10
254.58946609406749
 20
72.031249999999915
 30
0.0
  0
VERTEX
  5
174D
  8
3
 10
255.90196609406749
 20
72.031249999999986
 30
0.0
  0
VERTEX
  5
174E
  8
3
 10
255.90196609406749
 20
70.499999999999986
 30
0.0
  0
VERTEX
  5
174F
  8
3
 10
258.08946609406752
 20
70.499999999999986
 30
0.0
  0
VERTEX
  5
1750
  8
3
 10
258.08946609406752
 20
74.656249999999972
 30
0.0
 42
1.000000215936474
  0
VERTEX
  5
1751
  8
3
 10
252.40196609406749
 20
74.656249999999972
 30
0.0
  0
VERTEX
  5
1752
  8
3
 10
252.40196609406749
 20
70.499999999999986
 30
0.0
  0
VERTEX
  5
1753
  8
3
 10
254.58946609406749
 20
70.499999999999915
 30
0.0
  0
SEQEND
  5
1754
  8
3
  0
POLYLINE
  5
14FE
  8
3
 66
     1
 10
0.0
 20
0.0
 30
0.0
 70
     1
1001
ACAD
1000
ASC_BOUNDS
1002
{
1070
    19
1005
14F1
1002
}
  0
VERTEX
  5
1755
  8
3
 10
255.90196609406749
 20
73.781249999999972
 30
0.0
  0
VERTEX
  5
1756
  8
3
 10
255.90196609406749
 20
74.656249999999972
 30
0.0
 42
1.0000004495664849
  0
VERTEX
  5
1757
  8
3
 10
254.58946609406749
 20
74.656249999999972
 30
0.0
  0
VERTEX
  5
1758
  8
3
 10
254.58946609406749
 20
73.781249999999972
 30
0.0
  0
SEQEND
  5
1759
  8
3
  0
POLYLINE
  5
14FF
  8
3
 66
     1
 10
0.0
 20
0.0
 30
0.0
 70
     1
1001
ACAD
1000
ASC_BOUNDS
1002
{
1070
    19
1005
14F1
1002
}
  0
VERTEX
  5
175A
  8
3
 10
230.69373578556849
 20
76.437968749999413
 30
0.0
 42
0.1402251973297244
  0
VERTEX
  5
175B
  8
3
 10
232.9936327607339
 20
75.522556533019298
 30
0.0
  0
VERTEX
  5
175C
  8
3
 10
232.9936327607339
 20
74.45000000000033
 30
0.0
  0
VERTEX
  5
175D
  8
3
 10
232.2436327607347
 20
74.45000000000033
 30
0.0
  0
VERTEX
  5
175E
  8
3
 10
232.2436327607347
 20
73.999999999999972
 30
0.0
 42
-0.378699158263169
  0
VERTEX
  5
175F
  8
3
 10
229.0186327607355
 20
70.352655075263684
 30
0.0
  0
VERTEX
  5
1760
  8
3
 10
229.0186327607355
 20
69.522556533020193
 30
0.0
 42
0.1186144156091118
  0
VERTEX
  5
1761
  8
3
 10
231.0061327607348
 20
70.21732981215618
 30
0.0
 42
1.834021909257185
  0
VERTEX
  5
1762
  8
3
 10
231.0061327607348
 20
77.782670187843792
 30
0.0
 42
1.26915442618927
  0
VERTEX
  5
1763
  8
3
 10
228.11863276073481
 20
69.522556533020193
 30
0.0
  0
VERTEX
  5
1764
  8
3
 10
228.11863276073481
 20
70.352655075263684
 30
0.0
 42
-0.3786991582631508
  0
VERTEX
  5
1765
  8
3
 10
224.89363276073561
 20
73.999999999999716
 30
0.0
  0
VERTEX
  5
1766
  8
3
 10
224.89363276073561
 20
74.45000000000033
 30
0.0
  0
VERTEX
  5
1767
  8
3
 10
225.71863276073501
 20
74.45000000000033
 30
0.0
  0
VERTEX
  5
1768
  8
3
 10
225.71863276073501
 20
74.000000000000171
 30
0.0
 42
0.3684995607863874
  0
VERTEX
  5
1769
  8
3
 10
228.11863276073481
 20
71.185750544105943
 30
0.0
  0
VERTEX
  5
176A
  8
3
 10
228.11863276073481
 20
72.025633012836792
 30
0.0
 42
-0.3500011104183812
  0
VERTEX
  5
176B
  8
3
 10
226.5436327607361
 20
73.999999999999972
 30
0.0
  0
VERTEX
  5
176C
  8
3
 10
226.5436327607361
 20
74.45000000000033
 30
0.0
  0
VERTEX
  5
176D
  8
3
 10
227.36863276073561
 20
74.45000000000033
 30
0.0
  0
VERTEX
  5
176E
  8
3
 10
227.36863276073561
 20
73.999999999999915
 30
0.0
 42
0.9999989916437579
  0
VERTEX
  5
176F
  8
3
 10
229.76863276073439
 20
73.999999165053879
 30
0.0
 42
-0.1833501526628178
  0
SEQEND
  5
1770
  8
3
  0
POLYLINE
  5
1500
  8
3
 66
     1
 10
0.0
 20
0.0
 30
0.0
 70
     1
1001
ACAD
1000
ASC_BOUNDS
1002
{
1070
    19
1005
14F1
1002
}
  0
VERTEX
  5
1771
  8
3
 10
231.41863276073551
 20
73.999999999999972
 30
0.0
  0
VERTEX
  5
1772
  8
3
 10
231.41863276073551
 20
74.45000000000033
 30
0.0
  0
VERTEX
  5
1773
  8
3
 10
230.59363276073429
 20
74.45000000000033
 30
0.0
  0
VERTEX
  5
1774
  8
3
 10
230.59363276073429
 20
73.999999999999972
 30
0.0
 42
-0.3500011104183828
  0
VERTEX
  5
1775
  8
3
 10
229.0186327607355
 20
72.025633012836792
 30
0.0
  0
VERTEX
  5
1776
  8
3
 10
229.0186327607355
 20
71.185750544105943
 30
0.0
 42
0.3684995607863695
  0
SEQEND
  5
1777
  8
3
  0
LINE
  5
1519
  8
1
 10
147.5
 20
79.0
 30
0.0
 11
181.5
 21
79.0
 31
0.0
  0
LINE
  5
151A
  8
5
 10
179.0
 20
106.9629883308083
 30
0.0
 11
179.0
 21
83.0
 31
0.0
  0
LINE
  5
166D
  8
2
 10
282.50000000000011
 20
90.0
 30
0.0
 11
282.50000000000011
 21
73.0
 31
0.0
  0
LINE
  5
166E
  8
2
 10
278.00000000000011
 20
60.133012701892341
 30
0.0
 11
278.00000000000011
 21
73.0
 31
0.0
  0
LINE
  5
166F
  8
2
 10
252.00000000000011
 20
73.5
 30
0.0
 11
252.00000000000011
 21
76.5
 31
0.0
  0
LINE
  5
1670
  8
2
 10
251.50000000000011
 20
77.0
 30
0.0
 11
252.00000000000011
 21
76.5
 31
0.0
  0
LINE
  5
1671
  8
2
 10
227.00000000000011
 20
73.500000000000028
 30
0.0
 11
227.00000000000011
 21
76.5
 31
0.0
  0
LINE
  5
1672
  8
2
 10
226.50000000000011
 20
90.0
 30
0.0
 11
226.50000000000011
 21
73.0
 31
0.0
  0
LINE
  5
1673
  8
2
 10
231.00000000000011
 20
60.133012701892149
 30
0.0
 11
231.00000000000011
 21
73.0
 31
0.0
  0
LINE
  5
1674
  8
2
 10
282.50000000000011
 20
73.0
 30
0.0
 11
226.50000000000011
 21
73.0
 31
0.0
  0
LINE
  5
1675
  8
2
 10
251.50000000000011
 20
77.0
 30
0.0
 11
227.50000000000011
 21
77.0
 31
0.0
  0
LINE
  5
1676
  8
2
 10
227.00000000000011
 20
76.5
 30
0.0
 11
227.50000000000011
 21
77.0
 31
0.0
  0
LINE
  5
1677
  8
2
 10
251.50000000000011
 20
73.0
 30
0.0
 11
252.00000000000011
 21
73.5
 31
0.0
  0
LINE
  5
1678
  8
2
 10
227.00000000000011
 20
73.5
 30
0.0
 11
227.50000000000011
 21
73.0
 31
0.0
  0
ENDSEC
  0
EOF
