  0
SECTION
  2
HEADER
  9
$ACADVER
  1
AC1009
  9
$INSBASE
 10
0.0
 20
0.0
 30
0.0
  9
$EXTMIN
 10
0.0
 20
-2.960436562073669
 30
0.0
  9
$EXTMAX
 10
223.0
 20
84.000000000000028
 30
0.0
  9
$LIMMIN
 10
0.0
 20
0.0
  9
$LIMMAX
 10
187.5
 20
135.0
  9
$ORTHOMODE
 70
     1
  9
$REGENMODE
 70
     1
  9
$FILLMODE
 70
     1
  9
$QTEXTMODE
 70
     0
  9
$MIRRTEXT
 70
     0
  9
$DRAGMODE
 70
     2
  9
$LTSCALE
 40
5.0
  9
$OSMODE
 70
    37
  9
$ATTMODE
 70
     1
  9
$TEXTSIZE
 40
5.0
  9
$TRACEWID
 40
0.05
  9
$TEXTSTYLE
  7
STANDARD
  9
$CLAYER
  8
0
  9
$CELTYPE
  6
BYLAYER
  9
$CECOLOR
 62
   256
  9
$DIMSCALE
 40
0.5
  9
$DIMASZ
 40
3.0
  9
$DIMEXO
 40
2.0
  9
$DIMDLI
 40
0.38
  9
$DIMRND
 40
0.0
  9
$DIMDLE
 40
0.0
  9
$DIMEXE
 40
2.0
  9
$DIMTP
 40
0.0
  9
$DIMTM
 40
0.0
  9
$DIMTXT
 40
3.2000000000000002
  9
$DIMCEN
 40
0.0
  9
$DIMTSZ
 40
0.0
  9
$DIMTOL
 70
     0
  9
$DIMLIM
 70
     0
  9
$DIMTIH
 70
     0
  9
$DIMTOH
 70
     0
  9
$DIMSE1
 70
     0
  9
$DIMSE2
 70
     0
  9
$DIMTAD
 70
     1
  9
$DIMZIN
 70
     0
  9
$DIMBLK
  1

  9
$DIMASO
 70
     1
  9
$DIMSHO
 70
     0
  9
$DIMPOST
  1

  9
$DIMAPOST
  1

  9
$DIMALT
 70
     0
  9
$DIMALTD
 70
     2
  9
$DIMALTF
 40
25.399999999999999
  9
$DIMLFAC
 40
1.0
  9
$DIMTOFL
 70
     0
  9
$DIMTVP
 40
1.6000000000000001
  9
$DIMTIX
 70
     1
  9
$DIMSOXD
 70
     0
  9
$DIMSAH
 70
     0
  9
$DIMBLK1
  1

  9
$DIMBLK2
  1

  9
$DIMSTYLE
  2
STANDARD
  9
$DIMCLRD
 70
     0
  9
$DIMCLRE
 70
     0
  9
$DIMCLRT
 70
     0
  9
$DIMTFAC
 40
1.0
  9
$DIMGAP
 40
0.09
  9
$LUNITS
 70
     2
  9
$LUPREC
 70
     1
  9
$SKETCHINC
 40
0.1
  9
$FILLETRAD
 40
0.0
  9
$AUNITS
 70
     0
  9
$AUPREC
 70
     0
  9
$MENU
  1
E:\r13\win\SUPPORT\ACAD
  9
$ELEVATION
 40
0.0
  9
$PELEVATION
 40
0.0
  9
$THICKNESS
 40
0.0
  9
$LIMCHECK
 70
     0
  9
$BLIPMODE
 70
     0
  9
$CHAMFERA
 40
0.0
  9
$CHAMFERB
 40
0.0
  9
$SKPOLY
 70
     0
  9
$TDCREATE
 40
2449840.6019675932
  9
$TDUPDATE
 40
2456969.3925251388
  9
$TDINDWG
 40
0.0013737847
  9
$TDUSRTIMER
 40
0.0013737847
  9
$USRTIMER
 70
     1
  9
$ANGBASE
 50
0.0
  9
$ANGDIR
 70
     0
  9
$PDMODE
 70
     0
  9
$PDSIZE
 40
0.0
  9
$PLINEWID
 40
0.0
  9
$COORDS
 70
     1
  9
$SPLFRAME
 70
     0
  9
$SPLINETYPE
 70
     6
  9
$SPLINESEGS
 70
     8
  9
$ATTDIA
 70
     0
  9
$ATTREQ
 70
     1
  9
$HANDLING
 70
     1
  9
$HANDSEED
  5
334
  9
$SURFTAB1
 70
     6
  9
$SURFTAB2
 70
     6
  9
$SURFTYPE
 70
     6
  9
$SURFU
 70
     6
  9
$SURFV
 70
     6
  9
$UCSNAME
  2

  9
$UCSORG
 10
0.0
 20
0.0
 30
0.0
  9
$UCSXDIR
 10
1.0
 20
0.0
 30
0.0
  9
$UCSYDIR
 10
0.0
 20
1.0
 30
0.0
  9
$PUCSNAME
  2

  9
$PUCSORG
 10
0.0
 20
0.0
 30
0.0
  9
$PUCSXDIR
 10
1.0
 20
0.0
 30
0.0
  9
$PUCSYDIR
 10
0.0
 20
1.0
 30
0.0
  9
$USERI1
 70
     0
  9
$USERI2
 70
     1
  9
$USERI3
 70
     1
  9
$USERI4
 70
     0
  9
$USERI5
 70
     0
  9
$USERR1
 40
0.0
  9
$USERR2
 40
0.0
  9
$USERR3
 40
0.0
  9
$USERR4
 40
0.0
  9
$USERR5
 40
0.0
  9
$WORLDVIEW
 70
     1
  9
$SHADEDGE
 70
     3
  9
$SHADEDIF
 70
    70
  9
$TILEMODE
 70
     1
  9
$MAXACTVP
 70
    16
  9
$PLIMCHECK
 70
     0
  9
$PEXTMIN
 10
1.0000000000000000E+020
 20
1.0000000000000000E+020
 30
1.0000000000000000E+020
  9
$PEXTMAX
 10
-1.0000000000000000E+020
 20
-1.0000000000000000E+020
 30
-1.0000000000000000E+020
  9
$PLIMMIN
 10
0.0
 20
0.0
  9
$PLIMMAX
 10
12.0
 20
9.0
  9
$UNITMODE
 70
     0
  9
$VISRETAIN
 70
     0
  9
$PLINEGEN
 70
     0
  9
$PSLTSCALE
 70
     0
  0
ENDSEC
  0
SECTION
  2
TABLES
  0
TABLE
  2
VPORT
 70
     1
  0
VPORT
  2
*ACTIVE
 70
     0
 10
0.0
 20
0.0
 11
1.0
 21
1.0
 12
165.8263128156801
 22
95.0
 13
0.0
 23
0.0
 14
5.0
 24
5.0
 15
5.0
 25
5.0
 16
0.0
 26
0.0
 36
1.0
 17
0.0
 27
0.0
 37
0.0
 40
190.05473202342861
 41
1.7454798331015291
 42
50.0
 43
0.0
 44
0.0
 50
0.0
 51
0.0
 71
     0
 72
   500
 73
     1
 74
     0
 75
     0
 76
     0
 77
     0
 78
     2
  0
ENDTAB
  0
TABLE
  2
LTYPE
 70
     4
  0
LTYPE
  2
CONTINUOUS
 70
     0
  3
Solid Line
 72
    65
 73
     0
 40
0.0
  0
LTYPE
  2
CENTER
 70
     0
  3
____ _ ____ _ ____ _ ____ _ ____ _ ____ _ ____
 72
    65
 73
     4
 40
2.0
 49
1.25
 49
-0.25
 49
0.25
 49
-0.25
  0
LTYPE
  2
PHANTOM2
 70
     0
  3
___ _ _ ___ _ _ ___ _ _ ___ _ _
 72
    65
 73
     6
 40
1.25
 49
0.625
 49
-0.125
 49
0.125
 49
-0.125
 49
0.125
 49
-0.125
  0
LTYPE
  2
HIDDEN
 70
     0
  3
_ _ _ _ _ _ _ _ _ _ _ _ _ _ _ _ _ _ _ _ _ _ _
 72
    65
 73
     2
 40
0.375
 49
0.25
 49
-0.125
  0
ENDTAB
  0
TABLE
  2
LAYER
 70
     5
  0
LAYER
  2
0
 70
     0
 62
     7
  6
CONTINUOUS
  0
LAYER
  2
1
 70
     0
 62
     1
  6
CENTER
  0
LAYER
  2
3
 70
     0
 62
     3
  6
CONTINUOUS
  0
LAYER
  2
DEFPOINTS
 70
     0
 62
     7
  6
CONTINUOUS
  0
LAYER
  2
2
 70
     0
 62
     2
  6
HIDDEN
  0
ENDTAB
  0
TABLE
  2
STYLE
 70
     2
  0
STYLE
  2
STANDARD
 70
     0
 40
0.0
 41
1.0
 50
0.0
 71
     0
 42
5.0
  3
TXT
  4
BIGFONT
  0
STYLE
  2
STANDARD1
 70
     0
 40
0.0
 41
1.0
 50
0.0
 71
     0
 42
3.0
  3
txt
  4

  0
ENDTAB
  0
TABLE
  2
VIEW
 70
     1
  0
VIEW
  2
ALL
 70
     0
 40
175.0
 10
143.23529411764699
 20
87.5
 41
0.0
 11
0.0
 21
0.0
 31
1.0
 12
0.0
 22
0.0
 32
0.0
 42
0.0
 43
0.0
 44
0.0
 50
0.0
 71
     0
  0
ENDTAB
  0
TABLE
  2
UCS
 70
     0
  0
ENDTAB
  0
TABLE
  2
APPID
 70
    39
  0
APPID
  2
ACAD
 70
     0
  0
APPID
  2
ACAD_MLEADERVER
 70
     0
  0
APPID
  2
DCO15
 70
     0
  0
APPID
  2
GENIUS_GENOREF_13
 70
     0
  0
APPID
  2
GENIUS_GENOENT_13
 70
     0
  0
APPID
  2
GENIUS_GENBH_13
 70
     0
  0
APPID
  2
GENIUS_GENOBJ_13
 70
     0
  0
APPID
  2
GENIUS_GENODEF_13
 70
     0
  0
APPID
  2
GENIUS_GENOLIS_13
 70
     0
  0
APPID
  2
GENIUS_GENOBJ-NBEHI-BHF_13
 70
     0
  0
APPID
  2
GENIUS_GENOBJ-NBEHI-BHB_13
 70
     0
  0
APPID
  2
GENIUS_GENOBJ-F-PART_13
 70
     0
  0
APPID
  2
GENIUS_GEFSTDP_13
 70
     0
  0
APPID
  2
GENIUS_GENOBJ-N-RSSYM_13
 70
     0
  0
APPID
  2
GENIUS_GENSYMENT_13
 70
     0
  0
APPID
  2
GENIUS_GENOBJ-N-TIT_13
 70
     0
  0
APPID
  2
GENIUS_GENTITLE_13
 70
     0
  0
APPID
  2
GENIUS_GENZVEED_13
 70
     0
  0
APPID
  2
GENIUS_GENOBJ-N-LEADER_13
 70
     0
  0
APPID
  2
GENIUS_GENOBJ-N-FIL_13
 70
     0
  0
APPID
  2
GENIUS_GENOBJ-N-SEC_13
 70
     0
  0
APPID
  2
GENIUS_GENOBJ-N-CRS_13
 70
     0
  0
APPID
  2
GENIUS_GENOBJ-N-ZOO_13
 70
     0
  0
APPID
  2
GENIUS_GENZOO_13
 70
     0
  0
APPID
  2
GENIUS_GENOBJ-F-TOL_13
 70
     0
  0
APPID
  2
GENIUS_GENFIL_13
 70
     0
  0
APPID
  2
GENIUS_GENOBJ-N-CHA_13
 70
     0
  0
APPID
  2
_CALL_MAC$
 70
     0
  0
APPID
  2
ASM_BASE
 70
     0
  0
APPID
  2
ASM_EXPLO_VER_2_00
 70
     0
  0
APPID
  2
ASM_CADM_VER_12_00
 70
     0
  0
APPID
  2
ASM_BASEFORO
 70
     0
  0
APPID
  2
ASM_BASETRAVI
 70
     0
  0
APPID
  2
ASM_BASETRAVI1
 70
     0
  0
APPID
  2
ASM_GRUPPI
 70
     0
  0
APPID
  2
ASM_CADM_ALBERO
 70
     0
  0
APPID
  2
ASM_GOLE
 70
     0
  0
APPID
  2
ACAD_NAV_VCDISPLAY
 70
     0
  0
APPID
  2
ACAD_EXEMPT_FROM_CAD_STANDARDS
 70
     0
  0
ENDTAB
  0
TABLE
  2
DIMSTYLE
 70
     1
  0
DIMSTYLE
  2
STANDARD
 70
     0
  3

  4

  5

  6

  7

 40
1.0
 41
0.18
 42
0.0625
 43
0.38
 44
0.18
 45
0.0
 46
0.0
 47
0.0
 48
0.0
140
0.18
141
0.09
142
0.0
143
25.399999999999999
144
1.0
145
0.0
146
1.0
147
0.09
 71
     0
 72
     0
 73
     1
 74
     1
 75
     0
 76
     0
 77
     0
 78
     0
170
     0
171
     2
172
     0
173
     0
174
     0
175
     0
176
     0
177
     0
178
     0
  0
ENDTAB
  0
ENDSEC
  0
SECTION
  2
BLOCKS
  0
BLOCK
  8
0
  2
$MODEL_SPACE
 70
     0
 10
0.0
 20
0.0
 30
0.0
  3
$MODEL_SPACE
  1

  0
ENDBLK
  5
A3
  8
0
  0
BLOCK
 67
     1
  8
0
  2
$PAPER_SPACE
 70
     0
 10
0.0
 20
0.0
 30
0.0
  3
$PAPER_SPACE
  1

  0
ENDBLK
  5
A1
 67
     1
  8
0
  0
ENDSEC
  0
SECTION
  2
ENTITIES
  0
TEXT
  5
193
  8
0
 62
     3
 10
0.0
 20
0.0
 30
0.0
 40
10.0
  1
BG6-SUS
  7
STANDARD1
  0
ARC
  5
232
  8
0
 10
103.0
 20
63.14285714285711
 30
0.0
 40
2.1428571428571059
 50
194.25003391896169
 51
270.0
  0
ARC
  5
233
  8
0
 10
103.0
 20
76.85714285714289
 30
0.0
 40
2.1428571428571059
 50
90.0
 51
165.74996608102151
  0
ARC
  5
234
  8
0
 10
130.0
 20
70.0
 30
0.0
 40
30.0
 50
165.7499672149701
 51
194.2500327850297
  0
ARC
  5
235
  8
0
 10
158.0
 20
62.962277833173573
 30
0.0
 40
1.0
 50
272.20259816176542
 51
0.0
  0
ARC
  5
236
  8
0
 10
158.0
 20
77.037722166826427
 30
0.0
 40
1.0
 50
0.0
 51
87.797401838234663
  0
LINE
  5
237
  8
0
 10
158.0384331221012
 20
78.036983341457699
 30
0.0
 11
133.0
 21
79.0
 31
0.0
  0
LINE
  5
238
  8
0
 10
158.03843446880819
 20
61.963016710338678
 30
0.0
 11
133.0
 21
60.999999999999972
 31
0.0
  0
LINE
  5
239
  8
0
 10
133.0
 20
60.999999999999972
 30
0.0
 11
133.0
 21
79.000000000000014
 31
0.0
  0
LINE
  5
23A
  8
0
 10
103.0
 20
60.999999999999972
 30
0.0
 11
103.0
 21
78.999999999999972
 31
0.0
  0
LINE
  5
23B
  8
0
 10
133.0
 20
60.999999999999972
 30
0.0
 11
103.0
 21
60.999999999999972
 31
0.0
  0
LINE
  5
23C
  8
0
 10
133.0
 20
78.999999999999972
 30
0.0
 11
103.0
 21
78.999999999999972
 31
0.0
  0
LINE
  5
23D
  8
0
 10
159.0
 20
62.96227592582494
 30
0.0
 11
159.0
 21
77.03772351552557
 31
0.0
  0
CIRCLE
  5
23E
  8
0
 10
209.0
 20
70.000000000000014
 30
0.0
 40
9.0000000000000284
  0
CIRCLE
  5
23F
  8
0
 10
209.0
 20
70.000000000000014
 30
0.0
 40
8.0
  0
CIRCLE
  5
240
  8
3
 10
209.0
 20
70.000000000000014
 30
0.0
 40
3.0
  0
CIRCLE
  5
241
  8
0
 10
209.0
 20
70.000000000000014
 30
0.0
 40
2.5000000000002269
  0
LINE
  5
242
  8
1
 10
195.0
 20
70.000000000000014
 30
0.0
 11
223.0
 21
70.000000000000014
 31
0.0
  0
LINE
  5
243
  8
1
 10
209.0
 20
55.999999999999979
 30
0.0
 11
209.0
 21
84.000000000000028
 31
0.0
  0
LINE
  5
244
  8
1
 10
164.0
 20
69.999999697003673
 30
0.0
 11
95.0
 21
70.000000023671575
 31
0.0
  0
LINE
  5
246
  8
2
 10
148.1339745962155
 20
72.500000000000242
 30
0.0
 11
148.99999999999989
 21
73.000000000000185
 31
0.0
  0
LINE
  5
247
  8
2
 10
157.99999999999909
 20
72.500000000000242
 30
0.0
 11
144.44337567297421
 21
72.500000000000242
 31
0.0
  0
LINE
  5
248
  8
2
 10
148.99999999999989
 20
66.999999536036668
 30
0.0
 11
148.99999999999989
 21
73.000000000000242
 31
0.0
  0
LINE
  5
249
  8
2
 10
158.49999999999949
 20
73.000000000000185
 30
0.0
 11
148.99999999999989
 21
73.000000000000185
 31
0.0
  0
LINE
  5
24A
  8
2
 10
157.99999999999909
 20
72.500000000000242
 30
0.0
 11
159.0
 21
73.500000000000242
 31
0.0
  0
LINE
  5
24B
  8
2
 10
144.44337567297421
 20
67.499999579181576
 30
0.0
 11
144.44337567297421
 21
72.500000000000242
 31
0.0
  0
LINE
  5
24C
  8
2
 10
143.0
 20
70.000000000000043
 30
0.0
 11
144.44337567297421
 21
72.500000000000242
 31
0.0
  0
LINE
  5
24D
  8
2
 10
148.13397457254399
 20
67.499999544236687
 30
0.0
 11
148.99999997159401
 21
66.999999536036668
 31
0.0
  0
LINE
  5
24E
  8
2
 10
157.9999999763275
 20
67.499999450818976
 30
0.0
 11
144.4433756493026
 21
67.499999579181591
 31
0.0
  0
LINE
  5
24F
  8
2
 10
158.49999997159361
 20
66.999999446084729
 30
0.0
 11
148.99999997159401
 21
66.999999536036668
 31
0.0
  0
LINE
  5
250
  8
2
 10
157.9999999763275
 20
67.499999450818976
 30
0.0
 11
158.9999999668598
 21
66.499999441350354
 31
0.0
  0
LINE
  5
251
  8
2
 10
143.0
 20
69.999999592848553
 30
0.0
 11
144.4433756493026
 21
67.499999579181591
 31
0.0
  0
LINE
  5
252
  8
2
 10
157.9999999763275
 20
67.499999450818976
 30
0.0
 11
157.9999999763275
 21
72.500000000000242
 31
0.0
  0
CIRCLE
  5
253
  8
0
 10
50.0
 20
70.0
 30
0.0
 40
9.0000000000000284
  0
LINE
  5
254
  8
1
 10
35.999999999999972
 20
70.0
 30
0.0
 11
64.000000000000028
 21
70.0
 31
0.0
  0
LINE
  5
255
  8
1
 10
50.0
 20
55.999999999999972
 30
0.0
 11
50.0
 21
84.000000000000028
 31
0.0
  0
ENDSEC
  0
EOF
