  0
SECTION
  2
HEADER
  9
$ACADVER
  1
AC1009
  9
$INSBASE
 10
0.0
 20
0.0
 30
0.0
  9
$EXTMIN
 10
0.0
 20
-2.960436562073669
 30
0.0
  9
$EXTMAX
 10
266.0
 20
89.000000000000028
 30
0.0
  9
$LIMMIN
 10
0.0
 20
0.0
  9
$LIMMAX
 10
375.0
 20
270.0
  9
$ORTHOMODE
 70
     1
  9
$REGENMODE
 70
     1
  9
$FILLMODE
 70
     1
  9
$QTEXTMODE
 70
     0
  9
$MIRRTEXT
 70
     0
  9
$DRAGMODE
 70
     2
  9
$LTSCALE
 40
10.0
  9
$OSMODE
 70
    37
  9
$ATTMODE
 70
     1
  9
$TEXTSIZE
 40
5.0
  9
$TRACEWID
 40
0.05
  9
$TEXTSTYLE
  7
STANDARD
  9
$CLAYER
  8
4
  9
$CELTYPE
  6
BYLAYER
  9
$CECOLOR
 62
   256
  9
$DIMSCALE
 40
1.0
  9
$DIMASZ
 40
3.0
  9
$DIMEXO
 40
2.0
  9
$DIMDLI
 40
0.38
  9
$DIMRND
 40
0.0
  9
$DIMDLE
 40
0.0
  9
$DIMEXE
 40
2.0
  9
$DIMTP
 40
0.0
  9
$DIMTM
 40
0.0
  9
$DIMTXT
 40
3.2000000000000002
  9
$DIMCEN
 40
0.0
  9
$DIMTSZ
 40
0.0
  9
$DIMTOL
 70
     0
  9
$DIMLIM
 70
     0
  9
$DIMTIH
 70
     0
  9
$DIMTOH
 70
     0
  9
$DIMSE1
 70
     0
  9
$DIMSE2
 70
     0
  9
$DIMTAD
 70
     1
  9
$DIMZIN
 70
     0
  9
$DIMBLK
  1

  9
$DIMASO
 70
     1
  9
$DIMSHO
 70
     0
  9
$DIMPOST
  1

  9
$DIMAPOST
  1

  9
$DIMALT
 70
     0
  9
$DIMALTD
 70
     2
  9
$DIMALTF
 40
25.399999999999999
  9
$DIMLFAC
 40
1.0
  9
$DIMTOFL
 70
     0
  9
$DIMTVP
 40
1.6000000000000001
  9
$DIMTIX
 70
     1
  9
$DIMSOXD
 70
     0
  9
$DIMSAH
 70
     0
  9
$DIMBLK1
  1

  9
$DIMBLK2
  1

  9
$DIMSTYLE
  2
STANDARD
  9
$DIMCLRD
 70
     0
  9
$DIMCLRE
 70
     0
  9
$DIMCLRT
 70
     0
  9
$DIMTFAC
 40
1.0
  9
$DIMGAP
 40
0.09
  9
$LUNITS
 70
     2
  9
$LUPREC
 70
     1
  9
$SKETCHINC
 40
0.1
  9
$FILLETRAD
 40
0.0
  9
$AUNITS
 70
     0
  9
$AUPREC
 70
     0
  9
$MENU
  1
E:\r13\win\SUPPORT\ACAD
  9
$ELEVATION
 40
0.0
  9
$PELEVATION
 40
0.0
  9
$THICKNESS
 40
0.0
  9
$LIMCHECK
 70
     0
  9
$BLIPMODE
 70
     0
  9
$CHAMFERA
 40
0.0
  9
$CHAMFERB
 40
0.0
  9
$SKPOLY
 70
     0
  9
$TDCREATE
 40
2449840.6020486108
  9
$TDUPDATE
 40
2456969.3925095722
  9
$TDINDWG
 40
0.0008010301
  9
$TDUSRTIMER
 40
0.0008010301
  9
$USRTIMER
 70
     1
  9
$ANGBASE
 50
0.0
  9
$ANGDIR
 70
     0
  9
$PDMODE
 70
     0
  9
$PDSIZE
 40
0.0
  9
$PLINEWID
 40
0.0
  9
$COORDS
 70
     1
  9
$SPLFRAME
 70
     0
  9
$SPLINETYPE
 70
     6
  9
$SPLINESEGS
 70
     8
  9
$ATTDIA
 70
     0
  9
$ATTREQ
 70
     1
  9
$HANDLING
 70
     1
  9
$HANDSEED
  5
331
  9
$SURFTAB1
 70
     6
  9
$SURFTAB2
 70
     6
  9
$SURFTYPE
 70
     6
  9
$SURFU
 70
     6
  9
$SURFV
 70
     6
  9
$UCSNAME
  2

  9
$UCSORG
 10
0.0
 20
0.0
 30
0.0
  9
$UCSXDIR
 10
1.0
 20
0.0
 30
0.0
  9
$UCSYDIR
 10
0.0
 20
1.0
 30
0.0
  9
$PUCSNAME
  2

  9
$PUCSORG
 10
0.0
 20
0.0
 30
0.0
  9
$PUCSXDIR
 10
1.0
 20
0.0
 30
0.0
  9
$PUCSYDIR
 10
0.0
 20
1.0
 30
0.0
  9
$USERI1
 70
     0
  9
$USERI2
 70
     1
  9
$USERI3
 70
     1
  9
$USERI4
 70
     0
  9
$USERI5
 70
     0
  9
$USERR1
 40
0.0
  9
$USERR2
 40
0.0
  9
$USERR3
 40
0.0
  9
$USERR4
 40
0.0
  9
$USERR5
 40
0.0
  9
$WORLDVIEW
 70
     1
  9
$SHADEDGE
 70
     3
  9
$SHADEDIF
 70
    70
  9
$TILEMODE
 70
     1
  9
$MAXACTVP
 70
    16
  9
$PLIMCHECK
 70
     0
  9
$PEXTMIN
 10
1.0000000000000000E+020
 20
1.0000000000000000E+020
 30
1.0000000000000000E+020
  9
$PEXTMAX
 10
-1.0000000000000000E+020
 20
-1.0000000000000000E+020
 30
-1.0000000000000000E+020
  9
$PLIMMIN
 10
0.0
 20
0.0
  9
$PLIMMAX
 10
12.0
 20
9.0
  9
$UNITMODE
 70
     0
  9
$VISRETAIN
 70
     0
  9
$PLINEGEN
 70
     0
  9
$PSLTSCALE
 70
     0
  0
ENDSEC
  0
SECTION
  2
TABLES
  0
TABLE
  2
VPORT
 70
     1
  0
VPORT
  2
*ACTIVE
 70
     0
 10
0.0
 20
0.0
 11
1.0
 21
1.0
 12
165.8205841446453
 22
95.0
 13
0.0
 23
0.0
 14
10.0
 24
10.0
 15
10.0
 25
10.0
 16
0.0
 26
0.0
 36
1.0
 17
0.0
 27
0.0
 37
0.0
 40
190.0
 41
1.7454798331015291
 42
50.0
 43
0.0
 44
0.0
 50
0.0
 51
0.0
 71
     0
 72
   500
 73
     1
 74
     0
 75
     0
 76
     0
 77
     0
 78
     1
  0
ENDTAB
  0
TABLE
  2
LTYPE
 70
     4
  0
LTYPE
  2
CONTINUOUS
 70
     0
  3
Solid Line
 72
    65
 73
     0
 40
0.0
  0
LTYPE
  2
CENTER
 70
     0
  3
____ _ ____ _ ____ _ ____ _ ____ _ ____ _ ____
 72
    65
 73
     4
 40
2.0
 49
1.25
 49
-0.25
 49
0.25
 49
-0.25
  0
LTYPE
  2
PHANTOM2
 70
     0
  3
___ _ _ ___ _ _ ___ _ _ ___ _ _
 72
    65
 73
     6
 40
1.25
 49
0.625
 49
-0.125
 49
0.125
 49
-0.125
 49
0.125
 49
-0.125
  0
LTYPE
  2
HIDDEN
 70
     0
  3
_ _ _ _ _ _ _ _ _ _ _ _ _ _ _ _ _ _ _ _ _ _ _
 72
    65
 73
     2
 40
0.375
 49
0.25
 49
-0.125
  0
ENDTAB
  0
TABLE
  2
LAYER
 70
     5
  0
LAYER
  2
0
 70
     0
 62
     7
  6
CONTINUOUS
  0
LAYER
  2
1
 70
     0
 62
     1
  6
CENTER
  0
LAYER
  2
3
 70
     0
 62
     3
  6
CONTINUOUS
  0
LAYER
  2
4
 70
     0
 62
     4
  6
CONTINUOUS
  0
LAYER
  2
2
 70
     0
 62
     2
  6
HIDDEN
  0
ENDTAB
  0
TABLE
  2
STYLE
 70
     2
  0
STYLE
  2
STANDARD
 70
     0
 40
0.0
 41
1.0
 50
0.0
 71
     0
 42
5.0
  3
TXT
  4
BIGFONT
  0
STYLE
  2
STANDARD1
 70
     0
 40
0.0
 41
1.0
 50
0.0
 71
     0
 42
3.0
  3
txt
  4

  0
ENDTAB
  0
TABLE
  2
VIEW
 70
     1
  0
VIEW
  2
ALL
 70
     0
 40
270.0
 10
220.99159663865549
 20
135.0
 41
0.0
 11
0.0
 21
0.0
 31
1.0
 12
0.0
 22
0.0
 32
0.0
 42
0.0
 43
0.0
 44
0.0
 50
0.0
 71
     0
  0
ENDTAB
  0
TABLE
  2
UCS
 70
     0
  0
ENDTAB
  0
TABLE
  2
APPID
 70
     4
  0
APPID
  2
ACAD
 70
     0
  0
APPID
  2
ACAD_MLEADERVER
 70
     0
  0
APPID
  2
ACAD_EXEMPT_FROM_CAD_STANDARDS
 70
     0
  0
APPID
  2
ACAD_NAV_VCDISPLAY
 70
     0
  0
ENDTAB
  0
TABLE
  2
DIMSTYLE
 70
     1
  0
DIMSTYLE
  2
STANDARD
 70
     0
  3

  4

  5

  6

  7

 40
1.0
 41
0.18
 42
0.0625
 43
0.38
 44
0.18
 45
0.0
 46
0.0
 47
0.0
 48
0.0
140
0.18
141
0.09
142
0.0
143
25.399999999999999
144
1.0
145
0.0
146
1.0
147
0.09
 71
     0
 72
     0
 73
     1
 74
     1
 75
     0
 76
     0
 77
     0
 78
     0
170
     0
171
     2
172
     0
173
     0
174
     0
175
     0
176
     0
177
     0
178
     0
  0
ENDTAB
  0
ENDSEC
  0
SECTION
  2
BLOCKS
  0
BLOCK
  8
0
  2
$MODEL_SPACE
 70
     0
 10
0.0
 20
0.0
 30
0.0
  3
$MODEL_SPACE
  1

  0
ENDBLK
  5
10C
  8
0
  0
BLOCK
 67
     1
  8
0
  2
$PAPER_SPACE
 70
     0
 10
0.0
 20
0.0
 30
0.0
  3
$PAPER_SPACE
  1

  0
ENDBLK
  5
10A
 67
     1
  8
0
  0
ENDSEC
  0
SECTION
  2
ENTITIES
  0
TEXT
  5
1FE
  8
0
 62
     3
 10
0.0
 20
0.0
 30
0.0
 40
10.0
  1
BG16-SUS
  7
STANDARD1
  0
ARC
  5
279
  8
0
 10
105.0
 20
59.874999999999972
 30
0.0
 40
3.8749999999999569
 50
192.680372891258
 51
270.0
  0
ARC
  5
27A
  8
0
 10
105.0
 20
80.125000000000114
 30
0.0
 40
3.8749999999999569
 50
90.0
 51
167.31960590761469
  0
ARC
  5
27B
  8
0
 10
150.0
 20
70.000000000000028
 30
0.0
 40
50.0
 50
167.31961568663709
 51
192.6803826702766
  0
ARC
  5
27C
  8
0
 10
195.5
 20
58.701469223102919
 30
0.0
 40
1.5
 50
271.88405023109033
 51
0.0
  0
ARC
  5
27D
  8
0
 10
195.5
 20
81.298530776897195
 30
0.0
 40
1.5
 50
0.0
 51
88.115949768909687
  0
LINE
  5
27E
  8
0
 10
195.54931543125761
 20
82.797719887129745
 30
0.0
 11
159.0
 21
84.000000000000057
 31
0.0
  0
LINE
  5
27F
  8
0
 10
195.54931543125761
 20
57.202280112870312
 30
0.0
 11
159.0
 21
56.000000000000028
 31
0.0
  0
LINE
  5
280
  8
0
 10
159.0
 20
56.000000000000028
 30
0.0
 11
159.0
 21
84.000000000000057
 31
0.0
  0
LINE
  5
281
  8
0
 10
105.0
 20
56.00000000000005
 30
0.0
 11
105.0
 21
84.000000000000057
 31
0.0
  0
LINE
  5
282
  8
0
 10
159.0
 20
56.000000000000028
 30
0.0
 11
105.0
 21
56.00000000000005
 31
0.0
  0
LINE
  5
283
  8
0
 10
159.0
 20
84.000000000000057
 30
0.0
 11
105.0
 21
84.000000000000057
 31
0.0
  0
LINE
  5
284
  8
0
 10
196.99999999999989
 20
58.701469223102919
 30
0.0
 11
197.0
 21
81.298529823222879
 31
0.0
  0
LINE
  5
285
  8
1
 10
202.0
 20
70.000000000000028
 30
0.0
 11
95.0
 21
70.000000000000028
 31
0.0
  0
CIRCLE
  5
286
  8
0
 10
247.0
 20
70.0
 30
0.0
 40
14.0
  0
LINE
  5
287
  8
1
 10
228.0
 20
70.0
 30
0.0
 11
266.0
 21
70.0
 31
0.0
  0
LINE
  5
288
  8
1
 10
247.0
 20
51.0
 30
0.0
 11
247.0
 21
89.0
 31
0.0
  0
CIRCLE
  5
289
  8
0
 10
247.0
 20
70.0
 30
0.0
 40
12.75000000000005
  0
CIRCLE
  5
28A
  8
3
 10
247.0
 20
70.0
 30
0.0
 40
8.0
  0
CIRCLE
  5
28B
  8
0
 10
247.0
 20
70.0
 30
0.0
 40
7.0000006743496783
  0
CIRCLE
  5
28C
  8
0
 10
50.0
 20
70.0
 30
0.0
 40
14.0
  0
LINE
  5
28D
  8
1
 10
50.0
 20
51.0
 30
0.0
 11
50.0
 21
89.000000000000028
 31
0.0
  0
LINE
  5
28E
  8
1
 10
31.0
 20
70.0
 30
0.0
 11
69.0
 21
70.0
 31
0.0
  0
LINE
  5
290
  8
2
 10
196.49999999999969
 20
78.000000674349678
 30
0.0
 11
171.99999999999969
 21
78.000000674349678
 31
0.0
  0
LINE
  5
291
  8
2
 10
195.49999999999969
 20
77.000000674349678
 30
0.0
 11
161.5414518843273
 21
77.000000674349678
 31
0.0
  0
LINE
  5
292
  8
2
 10
195.49999999999969
 20
77.000000674349678
 30
0.0
 11
196.99999999999989
 21
78.500000674349735
 31
0.0
  0
LINE
  5
293
  8
2
 10
195.49999999999969
 20
62.999999325650379
 30
0.0
 11
195.49999999999969
 21
77.000000674349678
 31
0.0
  0
LINE
  5
294
  8
2
 10
170.26794919243099
 20
77.000000674349678
 30
0.0
 11
171.9999999999998
 21
78.000000674349678
 31
0.0
  0
LINE
  5
295
  8
2
 10
171.9999999999998
 20
78.000000674349678
 30
0.0
 11
172.00000000000011
 21
61.999999325650379
 31
0.0
  0
LINE
  5
296
  8
2
 10
161.5414518843273
 20
77.000000674349678
 30
0.0
 11
161.5414518843273
 21
62.999999325650379
 31
0.0
  0
LINE
  5
297
  8
2
 10
157.5
 20
70.000000674349621
 30
0.0
 11
161.5414518843273
 21
77.000000674349678
 31
0.0
  0
LINE
  5
298
  8
2
 10
196.49999999999969
 20
61.999999325650379
 30
0.0
 11
171.99999999999969
 21
61.999999325650379
 31
0.0
  0
LINE
  5
299
  8
2
 10
195.49999999999969
 20
62.999999325650379
 30
0.0
 11
161.5414518843273
 21
62.999999325650379
 31
0.0
  0
LINE
  5
29A
  8
2
 10
195.49999999999969
 20
62.999999325650379
 30
0.0
 11
196.99999999999989
 21
61.499999325650322
 31
0.0
  0
LINE
  5
29B
  8
2
 10
170.26794919243099
 20
62.999999325650379
 30
0.0
 11
171.9999999999998
 21
61.999999325650379
 31
0.0
  0
LINE
  5
29C
  8
2
 10
157.5
 20
69.999999325650435
 30
0.0
 11
161.5414518843273
 21
62.999999325650379
 31
0.0
  0
ENDSEC
  0
EOF
