  0
SECTION
  2
HEADER
  9
$ACADVER
  1
AC1009
  9
$INSBASE
 10
0.0
 20
0.0
 30
0.0
  9
$EXTMIN
 10
-0.0102319236016371
 20
-1.4802182810368341
 30
0.0
  9
$EXTMAX
 10
307.0
 20
220.0
 30
0.0
  9
$LIMMIN
 10
0.0
 20
0.0
  9
$LIMMAX
 10
385.0
 20
270.0
  9
$ORTHOMODE
 70
     1
  9
$REGENMODE
 70
     1
  9
$FILLMODE
 70
     1
  9
$QTEXTMODE
 70
     0
  9
$MIRRTEXT
 70
     0
  9
$DRAGMODE
 70
     2
  9
$LTSCALE
 40
10.0
  9
$OSMODE
 70
    37
  9
$ATTMODE
 70
     1
  9
$TEXTSIZE
 40
4.000000000000048
  9
$TRACEWID
 40
0.05
  9
$TEXTSTYLE
  7
STANDARD
  9
$CLAYER
  8
0
  9
$CELTYPE
  6
BYLAYER
  9
$CECOLOR
 62
   256
  9
$DIMSCALE
 40
1.0
  9
$DIMASZ
 40
3.0
  9
$DIMEXO
 40
2.0
  9
$DIMDLI
 40
0.38
  9
$DIMRND
 40
0.0
  9
$DIMDLE
 40
0.0
  9
$DIMEXE
 40
2.0
  9
$DIMTP
 40
0.0
  9
$DIMTM
 40
0.0
  9
$DIMTXT
 40
3.0
  9
$DIMCEN
 40
0.0
  9
$DIMTSZ
 40
0.0
  9
$DIMTOL
 70
     0
  9
$DIMLIM
 70
     0
  9
$DIMTIH
 70
     0
  9
$DIMTOH
 70
     0
  9
$DIMSE1
 70
     0
  9
$DIMSE2
 70
     0
  9
$DIMTAD
 70
     1
  9
$DIMZIN
 70
     0
  9
$DIMBLK
  1

  9
$DIMASO
 70
     1
  9
$DIMSHO
 70
     0
  9
$DIMPOST
  1

  9
$DIMAPOST
  1

  9
$DIMALT
 70
     0
  9
$DIMALTD
 70
     2
  9
$DIMALTF
 40
25.399999999999999
  9
$DIMLFAC
 40
1.0
  9
$DIMTOFL
 70
     1
  9
$DIMTVP
 40
1.6000000000000001
  9
$DIMTIX
 70
     1
  9
$DIMSOXD
 70
     0
  9
$DIMSAH
 70
     0
  9
$DIMBLK1
  1

  9
$DIMBLK2
  1

  9
$DIMSTYLE
  2
STANDARD
  9
$DIMCLRD
 70
     0
  9
$DIMCLRE
 70
     0
  9
$DIMCLRT
 70
     0
  9
$DIMTFAC
 40
1.0
  9
$DIMGAP
 40
1.0
  9
$LUNITS
 70
     2
  9
$LUPREC
 70
     4
  9
$SKETCHINC
 40
0.1
  9
$FILLETRAD
 40
0.2
  9
$AUNITS
 70
     0
  9
$AUPREC
 70
     4
  9
$MENU
  1
E:\r13\win\SUPPORT\ACAD
  9
$ELEVATION
 40
0.0
  9
$PELEVATION
 40
0.0
  9
$THICKNESS
 40
0.0
  9
$LIMCHECK
 70
     0
  9
$BLIPMODE
 70
     0
  9
$CHAMFERA
 40
0.0
  9
$CHAMFERB
 40
0.0
  9
$SKPOLY
 70
     0
  9
$TDCREATE
 40
2450280.598206134
  9
$TDUPDATE
 40
2458820.724395093
  9
$TDINDWG
 40
0.2459570255
  9
$TDUSRTIMER
 40
0.2459570255
  9
$USRTIMER
 70
     1
  9
$ANGBASE
 50
0.0
  9
$ANGDIR
 70
     0
  9
$PDMODE
 70
     0
  9
$PDSIZE
 40
0.0
  9
$PLINEWID
 40
0.0
  9
$COORDS
 70
     1
  9
$SPLFRAME
 70
     0
  9
$SPLINETYPE
 70
     6
  9
$SPLINESEGS
 70
     8
  9
$ATTDIA
 70
     0
  9
$ATTREQ
 70
     1
  9
$HANDLING
 70
     1
  9
$HANDSEED
  5
259C
  9
$SURFTAB1
 70
     6
  9
$SURFTAB2
 70
     6
  9
$SURFTYPE
 70
     6
  9
$SURFU
 70
     6
  9
$SURFV
 70
     6
  9
$UCSNAME
  2

  9
$UCSORG
 10
0.0
 20
0.0
 30
0.0
  9
$UCSXDIR
 10
1.0
 20
0.0
 30
0.0
  9
$UCSYDIR
 10
0.0
 20
1.0
 30
0.0
  9
$PUCSNAME
  2

  9
$PUCSORG
 10
0.0
 20
0.0
 30
0.0
  9
$PUCSXDIR
 10
1.0
 20
0.0
 30
0.0
  9
$PUCSYDIR
 10
0.0
 20
1.0
 30
0.0
  9
$USERI1
 70
     3
  9
$USERI2
 70
     1
  9
$USERI3
 70
     1
  9
$USERI4
 70
     0
  9
$USERI5
 70
     0
  9
$USERR1
 40
1.0
  9
$USERR2
 40
3.0
  9
$USERR3
 40
3.0
  9
$USERR4
 40
3.0
  9
$USERR5
 40
10.0
  9
$WORLDVIEW
 70
     1
  9
$SHADEDGE
 70
     3
  9
$SHADEDIF
 70
    70
  9
$TILEMODE
 70
     1
  9
$MAXACTVP
 70
    16
  9
$PLIMCHECK
 70
     0
  9
$PEXTMIN
 10
1.0000000000000000E+020
 20
1.0000000000000000E+020
 30
1.0000000000000000E+020
  9
$PEXTMAX
 10
-1.0000000000000000E+020
 20
-1.0000000000000000E+020
 30
-1.0000000000000000E+020
  9
$PLIMMIN
 10
0.0
 20
0.0
  9
$PLIMMAX
 10
12.0
 20
9.0
  9
$UNITMODE
 70
     0
  9
$VISRETAIN
 70
     0
  9
$PLINEGEN
 70
     0
  9
$PSLTSCALE
 70
     0
  0
ENDSEC
  0
SECTION
  2
TABLES
  0
TABLE
  2
VPORT
 70
     1
  0
VPORT
  2
*ACTIVE
 70
     0
 10
0.0
 20
0.0
 11
1.0
 21
1.0
 12
293.0375486893455
 22
109.2543991888483
 13
0.0
 23
0.0
 14
5.0
 24
5.0
 15
10.0
 25
10.0
 16
0.0
 26
0.0
 36
1.0
 17
0.0
 27
0.0
 37
0.0
 40
243.50954361062739
 41
2.415644171779141
 42
50.0
 43
0.0
 44
0.0
 50
0.0
 51
0.0
 71
     0
 72
   500
 73
     1
 74
     0
 75
     0
 76
     0
 77
     0
 78
     2
  0
ENDTAB
  0
TABLE
  2
LTYPE
 70
     4
  0
LTYPE
  2
CONTINUOUS
 70
     0
  3
Solid Line
 72
    65
 73
     0
 40
0.0
  0
LTYPE
  2
CENTER
 70
     0
  3
____ _ ____ _ ____ _ ____ _ ____ _ ____ _ ____
 72
    65
 73
     4
 40
2.0
 49
1.25
 49
-0.25
 49
0.25
 49
-0.25
  0
LTYPE
  2
PHANTOM2
 70
     0
  3
___ _ _ ___ _ _ ___ _ _ ___ _ _
 72
    65
 73
     6
 40
1.25
 49
0.625
 49
-0.125
 49
0.125
 49
-0.125
 49
0.125
 49
-0.125
  0
LTYPE
  2
HIDDEN
 70
     0
  3
_ _ _ _ _ _ _ _ _ _ _ _ _ _ _ _ _ _ _ _ _ _ _
 72
    65
 73
     2
 40
0.375
 49
0.25
 49
-0.125
  0
ENDTAB
  0
TABLE
  2
LAYER
 70
     5
  0
LAYER
  2
0
 70
     0
 62
     7
  6
CONTINUOUS
  0
LAYER
  2
1
 70
     0
 62
     1
  6
CENTER
  0
LAYER
  2
3
 70
     0
 62
     3
  6
CONTINUOUS
  0
LAYER
  2
DEFPOINTS
 70
     0
 62
     7
  6
CONTINUOUS
  0
LAYER
  2
2
 70
     0
 62
     2
  6
HIDDEN
  0
ENDTAB
  0
TABLE
  2
STYLE
 70
     2
  0
STYLE
  2
STANDARD
 70
     0
 40
0.0
 41
1.0
 50
0.0
 71
     0
 42
4.000000000000048
  3
SIMPLEX
  4
BIGFONT
  0
STYLE
  2
STANDARD1
 70
     0
 40
0.0
 41
1.0
 50
0.0
 71
     0
 42
3.0
  3
txt
  4

  0
ENDTAB
  0
TABLE
  2
VIEW
 70
     0
  0
ENDTAB
  0
TABLE
  2
UCS
 70
     0
  0
ENDTAB
  0
TABLE
  2
APPID
 70
     4
  0
APPID
  2
ACAD
 70
     0
  0
APPID
  2
ACAD_MLEADERVER
 70
     0
  0
APPID
  2
ACAD_NAV_VCDISPLAY
 70
     0
  0
APPID
  2
ACAD_EXEMPT_FROM_CAD_STANDARDS
 70
     0
  0
ENDTAB
  0
TABLE
  2
DIMSTYLE
 70
     1
  0
DIMSTYLE
  2
STANDARD
 70
     0
  3

  4

  5

  6

  7

 40
1.0
 41
0.18
 42
0.0625
 43
0.38
 44
0.18
 45
0.0
 46
0.0
 47
0.0
 48
0.0
140
0.18
141
0.09
142
0.0
143
25.399999999999999
144
1.0
145
0.0
146
1.0
147
0.09
 71
     0
 72
     0
 73
     1
 74
     1
 75
     0
 76
     0
 77
     0
 78
     0
170
     0
171
     2
172
     0
173
     0
174
     0
175
     0
176
     0
177
     0
178
     0
  0
ENDTAB
  0
ENDSEC
  0
SECTION
  2
BLOCKS
  0
BLOCK
  8
0
  2
$MODEL_SPACE
 70
     0
 10
0.0
 20
0.0
 30
0.0
  3
$MODEL_SPACE
  1

  0
ENDBLK
  5
5A1
  8
0
  0
BLOCK
 67
     1
  8
0
  2
$PAPER_SPACE
 70
     0
 10
0.0
 20
0.0
 30
0.0
  3
$PAPER_SPACE
  1

  0
ENDBLK
  5
59F
 67
     1
  8
0
  0
ENDSEC
  0
SECTION
  2
ENTITIES
  0
TEXT
  5
13E3
  8
0
 62
     3
 10
0.0
 20
0.0
 30
0.0
 40
5.0
  1
ASDX20W-810-SUS
  7
STANDARD1
  0
LINE
  5
2134
  8
2
 10
232.0
 20
202.06700000000001
 30
0.0
 11
226.93299999999999
 21
202.06700000000001
 31
0.0
  0
LINE
  5
2135
  8
2
 10
226.93299999999999
 20
197.93299999999999
 30
0.0
 11
232.0
 21
197.93299999999999
 31
0.0
  0
LINE
  5
2136
  8
2
 10
226.93299999999999
 20
202.06700000000001
 30
0.0
 11
226.5
 21
202.5
 31
0.0
  0
LINE
  5
2137
  8
2
 10
226.5
 20
197.5
 30
0.0
 11
226.93299999999999
 21
197.93299999999999
 31
0.0
  0
LINE
  5
2138
  8
2
 10
226.93299999999999
 20
197.93299999999999
 30
0.0
 11
226.93299999999999
 21
202.06700000000001
 31
0.0
  0
LINE
  5
2139
  8
2
 10
226.5
 20
197.5
 30
0.0
 11
226.5
 21
202.5
 31
0.0
  0
ARC
  5
213A
  8
0
 10
163.0
 20
200.0
 30
0.0
 40
8.0000000000000195
 50
157.88333686751491
 51
202.11666313248509
  0
LINE
  5
213B
  8
0
 10
165.0
 20
204.0
 30
0.0
 11
157.30000000000001
 21
204.0
 31
0.0
  0
LINE
  5
213C
  8
0
 10
157.30000000000001
 20
196.0
 30
0.0
 11
165.0
 21
196.0
 31
0.0
  0
LINE
  5
213D
  8
0
 10
155.58864659443859
 20
196.98805034937939
 30
0.0
 11
157.30000000000001
 21
196.0
 31
0.0
  0
LINE
  5
213E
  8
0
 10
157.30000000000001
 20
204.0
 30
0.0
 11
155.58864659443859
 21
203.01194965062049
 31
0.0
  0
LINE
  5
2140
  8
0
 10
230.1999999999999
 20
204.90000000000001
 30
0.0
 11
227.3000000000001
 21
204.90000000000001
 31
0.0
  0
LINE
  5
2141
  8
0
 10
227.3000000000001
 20
195.09999999999991
 30
0.0
 11
230.1999999999999
 21
195.09999999999991
 31
0.0
  0
ARC
  5
2142
  8
0
 10
230.1999999999999
 20
205.19999999999999
 30
0.0
 40
0.300000000000006
 50
270.0
 51
359.99999999999682
  0
ARC
  5
2143
  8
0
 10
230.1999999999999
 20
194.7999999999999
 30
0.0
 40
0.3000000000000114
 50
0.0000000000032569
 51
90.0
  0
LINE
  5
2144
  8
0
 10
230.1999999999999
 20
195.09999999999991
 30
0.0
 11
230.1999999999999
 21
204.90000000000001
 31
0.0
  0
ARC
  5
2145
  8
0
 10
227.30000000000001
 20
205.19999999999999
 30
0.0
 40
0.2999999999999829
 50
179.99999999999511
 51
270.00000000000648
  0
ARC
  5
2146
  8
0
 10
227.30000000000001
 20
194.80000000000001
 30
0.0
 40
0.2999999999999794
 50
89.999999999993491
 51
180.00000000000321
  0
LINE
  5
2147
  8
0
 10
227.3000000000001
 20
195.09999999999991
 30
0.0
 11
227.3000000000001
 21
204.90000000000001
 31
0.0
  0
LINE
  5
2148
  8
0
 10
230.5
 20
194.2999999999999
 30
0.0
 11
230.5
 21
205.69999999999999
 31
0.0
  0
ARC
  5
2149
  8
0
 10
230.8000000000001
 20
205.6999999999999
 30
0.0
 40
0.3000000000000567
 50
90.000000000013031
 51
179.9999999999886
  0
ARC
  5
214A
  8
0
 10
230.8000000000001
 20
194.30000000000001
 30
0.0
 40
0.300000000000054
 50
180.00000000000981
 51
269.99999999998698
  0
LINE
  5
214B
  8
0
 10
232.0
 20
205.5
 30
0.0
 11
231.5
 21
206.0
 31
0.0
  0
LINE
  5
214C
  8
0
 10
231.5
 20
193.99999999999989
 30
0.0
 11
232.0
 21
194.5
 31
0.0
  0
LINE
  5
214D
  8
0
 10
232.0
 20
194.5
 30
0.0
 11
232.0
 21
205.5
 31
0.0
  0
LINE
  5
214E
  8
0
 10
231.5
 20
206.0
 30
0.0
 11
230.8000000000001
 21
206.0
 31
0.0
  0
LINE
  5
214F
  8
0
 10
230.8000000000001
 20
193.99999999999989
 30
0.0
 11
231.5
 21
193.99999999999989
 31
0.0
  0
LINE
  5
2150
  8
0
 10
230.8000000000001
 20
193.99999999999989
 30
0.0
 11
230.8000000000001
 21
206.0
 31
0.0
  0
LINE
  5
2151
  8
0
 10
231.5
 20
193.99999999999989
 30
0.0
 11
231.5
 21
206.0
 31
0.0
  0
LINE
  5
2152
  8
0
 10
227.0
 20
194.2999999999999
 30
0.0
 11
227.0
 21
205.69999999999999
 31
0.0
  0
ARC
  5
2153
  8
0
 10
226.6999999999999
 20
205.69999999999999
 30
0.0
 40
0.2999999999999971
 50
359.99999999999682
 51
90.0
  0
ARC
  5
2154
  8
0
 10
226.6999999999999
 20
194.2999999999999
 30
0.0
 40
0.2999999999999909
 50
270.0
 51
0.0000000000016284
  0
LINE
  5
2155
  8
0
 10
226.6999999999999
 20
206.0
 30
0.0
 11
225.0
 21
206.0
 31
0.0
  0
LINE
  5
2156
  8
0
 10
225.0
 20
193.99999999999989
 30
0.0
 11
226.6999999999999
 21
193.99999999999989
 31
0.0
  0
LINE
  5
2157
  8
0
 10
226.6999999999999
 20
193.99999999999989
 30
0.0
 11
226.6999999999999
 21
206.0
 31
0.0
  0
LINE
  5
2158
  8
0
 10
165.0
 20
190.91999999999999
 30
0.0
 11
165.9199999999999
 21
190.0
 31
0.0
  0
LINE
  5
2159
  8
0
 10
165.9199999999999
 20
210.0
 30
0.0
 11
165.0
 21
209.08000000000001
 31
0.0
  0
LINE
  5
215A
  8
0
 10
165.0
 20
190.91999999999999
 30
0.0
 11
165.0
 21
209.08000000000001
 31
0.0
  0
LINE
  5
215B
  8
0
 10
180.0
 20
210.0
 30
0.0
 11
165.9199999999999
 21
210.0
 31
0.0
  0
LINE
  5
215C
  8
0
 10
165.9199999999999
 20
190.0
 30
0.0
 11
180.0
 21
190.0
 31
0.0
  0
LINE
  5
215D
  8
0
 10
165.9199999999999
 20
190.0
 30
0.0
 11
165.9199999999999
 21
210.0
 31
0.0
  0
LINE
  5
215E
  8
0
 10
225.0
 20
190.99999999999989
 30
0.0
 11
225.0
 21
209.0
 31
0.0
  0
LINE
  5
215F
  8
0
 10
225.0
 20
209.0
 30
0.0
 11
210.0
 21
209.0
 31
0.0
  0
LINE
  5
2160
  8
0
 10
210.0
 20
190.99999999999989
 30
0.0
 11
225.0
 21
190.99999999999989
 31
0.0
  0
LINE
  5
2161
  8
0
 10
224.0800000000001
 20
190.99999999999989
 30
0.0
 11
224.0800000000001
 21
209.0
 31
0.0
  0
LINE
  5
2162
  8
0
 10
210.0
 20
209.0
 30
0.0
 11
210.0
 21
210.0
 31
0.0
  0
LINE
  5
2163
  8
0
 10
210.0
 20
210.0
 30
0.0
 11
205.0
 21
210.0
 31
0.0
  0
LINE
  5
2164
  8
0
 10
205.0
 20
190.0
 30
0.0
 11
210.0
 21
190.0
 31
0.0
  0
LINE
  5
2165
  8
0
 10
210.0
 20
190.0
 30
0.0
 11
210.0
 21
190.99999999999989
 31
0.0
  0
LINE
  5
2166
  8
0
 10
195.0
 20
210.0
 30
0.0
 11
190.0
 21
210.0
 31
0.0
  0
LINE
  5
2167
  8
0
 10
190.0
 20
190.0
 30
0.0
 11
195.0
 21
190.0
 31
0.0
  0
LINE
  5
2168
  8
0
 10
195.0
 20
215.0
 30
0.0
 11
205.0
 21
215.0
 31
0.0
  0
LINE
  5
2169
  8
0
 10
180.0
 20
185.0
 30
0.0
 11
180.0
 21
215.0
 31
0.0
  0
LINE
  5
216A
  8
0
 10
190.0
 20
185.0
 30
0.0
 11
180.0
 21
185.0
 31
0.0
  0
LINE
  5
216B
  8
0
 10
205.0
 20
184.99999999999989
 30
0.0
 11
205.0
 21
215.0
 31
0.0
  0
LINE
  5
216C
  8
0
 10
195.0
 20
185.0
 30
0.0
 11
195.0
 21
215.0
 31
0.0
  0
LINE
  5
216D
  8
0
 10
205.0
 20
184.99999999999989
 30
0.0
 11
195.0
 21
185.0
 31
0.0
  0
LINE
  5
216E
  8
0
 10
190.0
 20
185.0
 30
0.0
 11
190.0
 21
215.0
 31
0.0
  0
LINE
  5
216F
  8
0
 10
180.0
 20
215.0
 30
0.0
 11
190.0
 21
215.0
 31
0.0
  0
POLYLINE
  5
2170
  8
0
 66
     1
 10
0.0
 20
0.0
 30
0.0
  0
VERTEX
  5
242A
  8
0
 10
196.33974596215549
 20
200.0
 30
0.0
  0
VERTEX
  5
242B
  8
0
 10
195.96078904481061
 20
198.78639584359979
 30
0.0
  0
VERTEX
  5
242C
  8
0
 10
195.6341055655235
 20
197.5610816823571
 30
0.0
  0
VERTEX
  5
242D
  8
0
 10
195.36772078994119
 20
196.32553804778411
 30
0.0
  0
VERTEX
  5
242E
  8
0
 10
195.1666779508503
 20
195.05679503952359
 30
0.0
  0
VERTEX
  5
242F
  8
0
 10
195.04248110987609
 20
193.77986773923129
 30
0.0
  0
VERTEX
  5
2430
  8
0
 10
195.0
 20
192.5
 30
0.0
  0
SEQEND
  5
2431
  8
0
  0
POLYLINE
  5
2171
  8
0
 66
     1
 10
0.0
 20
0.0
 30
0.0
  0
VERTEX
  5
2432
  8
0
 10
195.0
 20
192.5
 30
0.0
  0
VERTEX
  5
2433
  8
0
 10
195.00729881204521
 20
191.96655561427031
 30
0.0
  0
VERTEX
  5
2434
  8
0
 10
195.07429784374071
 20
190.798810926236
 30
0.0
  0
VERTEX
  5
2435
  8
0
 10
195.20851181637931
 20
189.63462856167061
 30
0.0
  0
VERTEX
  5
2436
  8
0
 10
195.405634090333
 20
188.47778208031781
 30
0.0
  0
VERTEX
  5
2437
  8
0
 10
195.66592498381581
 20
187.30881577216229
 30
0.0
  0
VERTEX
  5
2438
  8
0
 10
195.9795682941764
 20
186.1491598153037
 30
0.0
  0
VERTEX
  5
2439
  8
0
 10
196.33974596215549
 20
185.0
 30
0.0
  0
SEQEND
  5
243A
  8
0
  0
POLYLINE
  5
2172
  8
0
 66
     1
 10
0.0
 20
0.0
 30
0.0
  0
VERTEX
  5
243B
  8
0
 10
203.66025403784431
 20
184.99999999999989
 30
0.0
  0
VERTEX
  5
243C
  8
0
 10
204.0392109551893
 20
186.21360415640009
 30
0.0
  0
VERTEX
  5
243D
  8
0
 10
204.36589443447639
 20
187.43891831764279
 30
0.0
  0
VERTEX
  5
243E
  8
0
 10
204.63227921005881
 20
188.67446195221581
 30
0.0
  0
VERTEX
  5
243F
  8
0
 10
204.8333220491497
 20
189.94320496047629
 30
0.0
  0
VERTEX
  5
2440
  8
0
 10
204.95751889012391
 20
191.22013226076859
 30
0.0
  0
VERTEX
  5
2441
  8
0
 10
205.0
 20
192.5
 30
0.0
  0
SEQEND
  5
2442
  8
0
  0
POLYLINE
  5
2173
  8
0
 66
     1
 10
0.0
 20
0.0
 30
0.0
  0
VERTEX
  5
2443
  8
0
 10
205.0
 20
192.5
 30
0.0
  0
VERTEX
  5
2444
  8
0
 10
204.99270118795479
 20
193.03344438572961
 30
0.0
  0
VERTEX
  5
2445
  8
0
 10
204.92570215625921
 20
194.20118907376391
 30
0.0
  0
VERTEX
  5
2446
  8
0
 10
204.79148818362069
 20
195.3653714383293
 30
0.0
  0
VERTEX
  5
2447
  8
0
 10
204.594365909667
 20
196.52221791968211
 30
0.0
  0
VERTEX
  5
2448
  8
0
 10
204.33407501618419
 20
197.6911842278376
 30
0.0
  0
VERTEX
  5
2449
  8
0
 10
204.0204317058236
 20
198.8508401846963
 30
0.0
  0
VERTEX
  5
244A
  8
0
 10
203.66025403784431
 20
200.0
 30
0.0
  0
SEQEND
  5
244B
  8
0
  0
POLYLINE
  5
2174
  8
0
 66
     1
 10
0.0
 20
0.0
 30
0.0
  0
VERTEX
  5
244C
  8
0
 10
196.33974596215549
 20
215.0
 30
0.0
  0
VERTEX
  5
244D
  8
0
 10
195.96078904481061
 20
213.78639584359979
 30
0.0
  0
VERTEX
  5
244E
  8
0
 10
195.6341055655235
 20
212.5610816823571
 30
0.0
  0
VERTEX
  5
244F
  8
0
 10
195.36772078994119
 20
211.32553804778411
 30
0.0
  0
VERTEX
  5
2450
  8
0
 10
195.1666779508503
 20
210.05679503952371
 30
0.0
  0
VERTEX
  5
2451
  8
0
 10
195.04248110987609
 20
208.77986773923141
 30
0.0
  0
VERTEX
  5
2452
  8
0
 10
195.0
 20
207.5
 30
0.0
  0
SEQEND
  5
2453
  8
0
  0
POLYLINE
  5
2175
  8
0
 66
     1
 10
0.0
 20
0.0
 30
0.0
  0
VERTEX
  5
2454
  8
0
 10
195.0
 20
207.5
 30
0.0
  0
VERTEX
  5
2455
  8
0
 10
195.00729881204521
 20
206.96655561427031
 30
0.0
  0
VERTEX
  5
2456
  8
0
 10
195.07429784374071
 20
205.798810926236
 30
0.0
  0
VERTEX
  5
2457
  8
0
 10
195.20851181637931
 20
204.63462856167061
 30
0.0
  0
VERTEX
  5
2458
  8
0
 10
195.405634090333
 20
203.47778208031781
 30
0.0
  0
VERTEX
  5
2459
  8
0
 10
195.66592498381581
 20
202.30881577216229
 30
0.0
  0
VERTEX
  5
245A
  8
0
 10
195.9795682941764
 20
201.1491598153037
 30
0.0
  0
VERTEX
  5
245B
  8
0
 10
196.33974596215549
 20
200.0
 30
0.0
  0
SEQEND
  5
245C
  8
0
  0
LINE
  5
2176
  8
0
 10
203.66025403784431
 20
200.0
 30
0.0
 11
196.33974596215549
 21
200.0
 31
0.0
  0
POLYLINE
  5
2177
  8
0
 66
     1
 10
0.0
 20
0.0
 30
0.0
  0
VERTEX
  5
245D
  8
0
 10
203.66025403784431
 20
200.0
 30
0.0
  0
VERTEX
  5
245E
  8
0
 10
204.0392109551893
 20
201.21360415640021
 30
0.0
  0
VERTEX
  5
245F
  8
0
 10
204.36589443447639
 20
202.43891831764279
 30
0.0
  0
VERTEX
  5
2460
  8
0
 10
204.63227921005881
 20
203.67446195221589
 30
0.0
  0
VERTEX
  5
2461
  8
0
 10
204.8333220491497
 20
204.94320496047629
 30
0.0
  0
VERTEX
  5
2462
  8
0
 10
204.95751889012391
 20
206.22013226076859
 30
0.0
  0
VERTEX
  5
2463
  8
0
 10
205.0
 20
207.5
 30
0.0
  0
SEQEND
  5
2464
  8
0
  0
POLYLINE
  5
2178
  8
0
 66
     1
 10
0.0
 20
0.0
 30
0.0
  0
VERTEX
  5
2465
  8
0
 10
205.0
 20
207.5
 30
0.0
  0
VERTEX
  5
2466
  8
0
 10
204.99270118795479
 20
208.03344438572961
 30
0.0
  0
VERTEX
  5
2467
  8
0
 10
204.92570215625921
 20
209.20118907376391
 30
0.0
  0
VERTEX
  5
2468
  8
0
 10
204.79148818362069
 20
210.36537143832939
 30
0.0
  0
VERTEX
  5
2469
  8
0
 10
204.594365909667
 20
211.52221791968211
 30
0.0
  0
VERTEX
  5
246A
  8
0
 10
204.33407501618419
 20
212.6911842278376
 30
0.0
  0
VERTEX
  5
246B
  8
0
 10
204.0204317058236
 20
213.8508401846963
 30
0.0
  0
VERTEX
  5
246C
  8
0
 10
203.66025403784431
 20
215.0
 30
0.0
  0
SEQEND
  5
246D
  8
0
  0
POLYLINE
  5
2179
  8
0
 66
     1
 10
0.0
 20
0.0
 30
0.0
  0
VERTEX
  5
246E
  8
0
 10
181.3397459621556
 20
215.0
 30
0.0
  0
VERTEX
  5
246F
  8
0
 10
180.96078904481061
 20
213.78639584359979
 30
0.0
  0
VERTEX
  5
2470
  8
0
 10
180.6341055655235
 20
212.5610816823571
 30
0.0
  0
VERTEX
  5
2471
  8
0
 10
180.36772078994119
 20
211.32553804778411
 30
0.0
  0
VERTEX
  5
2472
  8
0
 10
180.1666779508503
 20
210.05679503952371
 30
0.0
  0
VERTEX
  5
2473
  8
0
 10
180.04248110987609
 20
208.77986773923141
 30
0.0
  0
VERTEX
  5
2474
  8
0
 10
180.0
 20
207.5
 30
0.0
  0
SEQEND
  5
2475
  8
0
  0
POLYLINE
  5
217A
  8
0
 66
     1
 10
0.0
 20
0.0
 30
0.0
  0
VERTEX
  5
2476
  8
0
 10
188.6602540378444
 20
200.0
 30
0.0
  0
VERTEX
  5
2477
  8
0
 10
189.0392109551893
 20
201.21360415640021
 30
0.0
  0
VERTEX
  5
2478
  8
0
 10
189.36589443447639
 20
202.43891831764279
 30
0.0
  0
VERTEX
  5
2479
  8
0
 10
189.6322792100587
 20
203.67446195221589
 30
0.0
  0
VERTEX
  5
247A
  8
0
 10
189.8333220491497
 20
204.94320496047629
 30
0.0
  0
VERTEX
  5
247B
  8
0
 10
189.95751889012391
 20
206.22013226076859
 30
0.0
  0
VERTEX
  5
247C
  8
0
 10
190.0
 20
207.5
 30
0.0
  0
SEQEND
  5
247D
  8
0
  0
POLYLINE
  5
217B
  8
0
 66
     1
 10
0.0
 20
0.0
 30
0.0
  0
VERTEX
  5
247E
  8
0
 10
190.0
 20
207.5
 30
0.0
  0
VERTEX
  5
247F
  8
0
 10
189.99270118795479
 20
208.03344438572961
 30
0.0
  0
VERTEX
  5
2480
  8
0
 10
189.9257021562594
 20
209.20118907376391
 30
0.0
  0
VERTEX
  5
2481
  8
0
 10
189.79148818362069
 20
210.36537143832939
 30
0.0
  0
VERTEX
  5
2482
  8
0
 10
189.59436590966689
 20
211.52221791968211
 30
0.0
  0
VERTEX
  5
2483
  8
0
 10
189.33407501618419
 20
212.6911842278376
 30
0.0
  0
VERTEX
  5
2484
  8
0
 10
189.0204317058236
 20
213.8508401846963
 30
0.0
  0
VERTEX
  5
2485
  8
0
 10
188.6602540378444
 20
215.0
 30
0.0
  0
SEQEND
  5
2486
  8
0
  0
POLYLINE
  5
217C
  8
0
 66
     1
 10
0.0
 20
0.0
 30
0.0
  0
VERTEX
  5
2487
  8
0
 10
180.0
 20
192.5
 30
0.0
  0
VERTEX
  5
2488
  8
0
 10
180.00729881204521
 20
191.96655561427031
 30
0.0
  0
VERTEX
  5
2489
  8
0
 10
180.07429784374071
 20
190.798810926236
 30
0.0
  0
VERTEX
  5
248A
  8
0
 10
180.20851181637931
 20
189.63462856167061
 30
0.0
  0
VERTEX
  5
248B
  8
0
 10
180.405634090333
 20
188.47778208031781
 30
0.0
  0
VERTEX
  5
248C
  8
0
 10
180.66592498381581
 20
187.30881577216229
 30
0.0
  0
VERTEX
  5
248D
  8
0
 10
180.9795682941764
 20
186.1491598153037
 30
0.0
  0
VERTEX
  5
248E
  8
0
 10
181.3397459621556
 20
185.0
 30
0.0
  0
SEQEND
  5
248F
  8
0
  0
POLYLINE
  5
217D
  8
0
 66
     1
 10
0.0
 20
0.0
 30
0.0
  0
VERTEX
  5
2490
  8
0
 10
188.6602540378444
 20
185.0
 30
0.0
  0
VERTEX
  5
2491
  8
0
 10
189.0392109551893
 20
186.21360415640009
 30
0.0
  0
VERTEX
  5
2492
  8
0
 10
189.36589443447639
 20
187.43891831764279
 30
0.0
  0
VERTEX
  5
2493
  8
0
 10
189.6322792100587
 20
188.67446195221581
 30
0.0
  0
VERTEX
  5
2494
  8
0
 10
189.8333220491497
 20
189.94320496047629
 30
0.0
  0
VERTEX
  5
2495
  8
0
 10
189.95751889012391
 20
191.22013226076859
 30
0.0
  0
VERTEX
  5
2496
  8
0
 10
190.0
 20
192.5
 30
0.0
  0
SEQEND
  5
2497
  8
0
  0
POLYLINE
  5
217E
  8
0
 66
     1
 10
0.0
 20
0.0
 30
0.0
  0
VERTEX
  5
2498
  8
0
 10
190.0
 20
192.5
 30
0.0
  0
VERTEX
  5
2499
  8
0
 10
189.99270118795479
 20
193.03344438572961
 30
0.0
  0
VERTEX
  5
249A
  8
0
 10
189.9257021562594
 20
194.20118907376391
 30
0.0
  0
VERTEX
  5
249B
  8
0
 10
189.79148818362069
 20
195.3653714383293
 30
0.0
  0
VERTEX
  5
249C
  8
0
 10
189.59436590966689
 20
196.52221791968211
 30
0.0
  0
VERTEX
  5
249D
  8
0
 10
189.33407501618419
 20
197.6911842278376
 30
0.0
  0
VERTEX
  5
249E
  8
0
 10
189.0204317058236
 20
198.8508401846963
 30
0.0
  0
VERTEX
  5
249F
  8
0
 10
188.6602540378444
 20
200.0
 30
0.0
  0
SEQEND
  5
24A0
  8
0
  0
LINE
  5
217F
  8
0
 10
188.6602540378444
 20
200.0
 30
0.0
 11
181.3397459621556
 21
200.0
 31
0.0
  0
POLYLINE
  5
2180
  8
0
 66
     1
 10
0.0
 20
0.0
 30
0.0
  0
VERTEX
  5
24A1
  8
0
 10
181.3397459621556
 20
200.0
 30
0.0
  0
VERTEX
  5
24A2
  8
0
 10
180.96078904481061
 20
198.78639584359979
 30
0.0
  0
VERTEX
  5
24A3
  8
0
 10
180.6341055655235
 20
197.5610816823571
 30
0.0
  0
VERTEX
  5
24A4
  8
0
 10
180.36772078994119
 20
196.32553804778411
 30
0.0
  0
VERTEX
  5
24A5
  8
0
 10
180.1666779508503
 20
195.05679503952359
 30
0.0
  0
VERTEX
  5
24A6
  8
0
 10
180.04248110987609
 20
193.77986773923129
 30
0.0
  0
VERTEX
  5
24A7
  8
0
 10
180.0
 20
192.5
 30
0.0
  0
SEQEND
  5
24A8
  8
0
  0
POLYLINE
  5
2181
  8
0
 66
     1
 10
0.0
 20
0.0
 30
0.0
  0
VERTEX
  5
24A9
  8
0
 10
180.0
 20
207.5
 30
0.0
  0
VERTEX
  5
24AA
  8
0
 10
180.00729881204521
 20
206.96655561427031
 30
0.0
  0
VERTEX
  5
24AB
  8
0
 10
180.07429784374071
 20
205.798810926236
 30
0.0
  0
VERTEX
  5
24AC
  8
0
 10
180.20851181637931
 20
204.63462856167061
 30
0.0
  0
VERTEX
  5
24AD
  8
0
 10
180.405634090333
 20
203.47778208031781
 30
0.0
  0
VERTEX
  5
24AE
  8
0
 10
180.66592498381581
 20
202.30881577216229
 30
0.0
  0
VERTEX
  5
24AF
  8
0
 10
180.9795682941764
 20
201.1491598153037
 30
0.0
  0
VERTEX
  5
24B0
  8
0
 10
181.3397459621556
 20
200.0
 30
0.0
  0
SEQEND
  5
24B1
  8
0
  0
LINE
  5
2182
  8
3
 10
165.0
 20
190.91999999999999
 30
0.0
 11
180.0
 21
190.91999999999999
 31
0.0
  0
LINE
  5
2183
  8
3
 10
190.0
 20
190.91999999999999
 30
0.0
 11
195.0
 21
190.91999999999999
 31
0.0
  0
LINE
  5
2184
  8
3
 10
205.0
 20
190.9199999999999
 30
0.0
 11
210.0
 21
190.9199999999999
 31
0.0
  0
LINE
  5
2185
  8
3
 10
165.0
 20
209.08000000000001
 30
0.0
 11
180.0
 21
209.08000000000001
 31
0.0
  0
LINE
  5
2186
  8
3
 10
190.0
 20
209.08000000000001
 30
0.0
 11
195.0
 21
209.08000000000001
 31
0.0
  0
LINE
  5
2187
  8
3
 10
205.0
 20
209.08000000000001
 30
0.0
 11
210.0
 21
209.08000000000001
 31
0.0
  0
LINE
  5
2188
  8
2
 10
226.5
 20
197.5
 30
0.0
 11
232.0
 21
197.5
 31
0.0
  0
LINE
  5
2189
  8
2
 10
226.5
 20
202.5
 30
0.0
 11
232.0
 21
202.5
 31
0.0
  0
LINE
  5
218A
  8
1
 10
237.0
 20
200.0
 30
0.0
 11
150.0
 21
200.0
 31
0.0
  0
LINE
  5
218B
  8
0
 10
91.339745962155575
 20
185.0
 30
0.0
 11
82.679491924311264
 21
200.0
 31
0.0
  0
LINE
  5
218C
  8
0
 10
108.6602540378444
 20
185.0
 30
0.0
 11
91.339745962155575
 21
185.0
 31
0.0
  0
LINE
  5
218D
  8
0
 10
108.6602540378444
 20
215.0
 30
0.0
 11
117.32050807568871
 21
200.0
 31
0.0
  0
LINE
  5
218E
  8
0
 10
91.339745962155575
 20
215.0
 30
0.0
 11
108.6602540378444
 21
215.0
 31
0.0
  0
LINE
  5
218F
  8
0
 10
117.32050807568871
 20
200.0
 30
0.0
 11
108.6602540378444
 21
185.0
 31
0.0
  0
LINE
  5
2190
  8
0
 10
82.679491924311264
 20
200.0
 30
0.0
 11
91.339745962155575
 21
215.0
 31
0.0
  0
CIRCLE
  5
2192
  8
0
 10
100.0
 20
200.0
 30
0.0
 40
4.0
  0
CIRCLE
  5
2193
  8
0
 10
100.0
 20
200.0
 30
0.0
 40
10.0
  0
CIRCLE
  5
2196
  8
0
 10
100.0
 20
200.0
 30
0.0
 40
14.999999999999989
  0
LINE
  5
2197
  8
2
 10
232.0
 20
102.06699999999999
 30
0.0
 11
226.93299999999999
 21
102.06699999999999
 31
0.0
  0
LINE
  5
2198
  8
2
 10
226.93299999999999
 20
97.933000000000007
 30
0.0
 11
232.0
 21
97.933000000000007
 31
0.0
  0
LINE
  5
2199
  8
2
 10
226.93299999999999
 20
102.06699999999999
 30
0.0
 11
226.5
 21
102.5
 31
0.0
  0
LINE
  5
219A
  8
2
 10
226.5
 20
97.5
 30
0.0
 11
226.93299999999999
 21
97.933000000000007
 31
0.0
  0
LINE
  5
219B
  8
2
 10
226.93299999999999
 20
97.933000000000007
 30
0.0
 11
226.93299999999999
 21
102.06699999999999
 31
0.0
  0
LINE
  5
219C
  8
2
 10
226.5
 20
97.5
 30
0.0
 11
226.5
 21
102.5
 31
0.0
  0
LINE
  5
219D
  8
0
 10
230.1999999999999
 20
104.90000000000001
 30
0.0
 11
227.30000000000001
 21
104.90000000000001
 31
0.0
  0
LINE
  5
219E
  8
0
 10
227.30000000000001
 20
95.099999999999994
 30
0.0
 11
230.1999999999999
 21
95.099999999999994
 31
0.0
  0
ARC
  5
219F
  8
0
 10
227.30000000000001
 20
105.1999999999999
 30
0.0
 40
0.2999999999999829
 50
179.99999999999511
 51
270.00000000000648
  0
ARC
  5
21A0
  8
0
 10
227.30000000000001
 20
94.800000000000026
 30
0.0
 40
0.2999999999999794
 50
89.999999999993491
 51
180.00000000000321
  0
LINE
  5
21A1
  8
0
 10
227.30000000000001
 20
95.099999999999994
 30
0.0
 11
227.30000000000001
 21
104.90000000000001
 31
0.0
  0
ARC
  5
21A2
  8
0
 10
230.1999999999999
 20
105.2
 30
0.0
 40
0.300000000000006
 50
270.0
 51
359.99999999999682
  0
ARC
  5
21A3
  8
0
 10
230.1999999999999
 20
94.799999999999983
 30
0.0
 40
0.3000000000000114
 50
0.0000000000032569
 51
90.0
  0
LINE
  5
21A4
  8
0
 10
230.1999999999999
 20
95.099999999999994
 30
0.0
 11
230.1999999999999
 21
104.90000000000001
 31
0.0
  0
LINE
  5
21A5
  8
0
 10
230.5
 20
94.300000000019423
 30
0.0
 11
230.5
 21
105.7
 31
0.0
  0
ARC
  5
21A6
  8
0
 10
230.8000000000001
 20
105.6999999999999
 30
0.0
 40
0.3000000000000567
 50
90.000000000013031
 51
179.9999999999886
  0
ARC
  5
21A7
  8
0
 10
230.8000000000001
 20
94.300000000000054
 30
0.0
 40
0.300000000000054
 50
180.00000000000981
 51
269.99999999998698
  0
LINE
  5
21A8
  8
0
 10
231.5
 20
106.0
 30
0.0
 11
230.7999999999999
 21
106.0
 31
0.0
  0
LINE
  5
21A9
  8
0
 10
230.7999999999999
 20
94.0
 30
0.0
 11
231.5
 21
94.0
 31
0.0
  0
LINE
  5
21AA
  8
0
 10
230.7999999999999
 20
94.0
 30
0.0
 11
230.7999999999999
 21
106.0
 31
0.0
  0
LINE
  5
21AB
  8
0
 10
232.0
 20
105.5
 30
0.0
 11
231.5
 21
106.0
 31
0.0
  0
LINE
  5
21AC
  8
0
 10
231.5
 20
94.0
 30
0.0
 11
232.0
 21
94.500000000000014
 31
0.0
  0
LINE
  5
21AD
  8
0
 10
231.5
 20
94.0
 30
0.0
 11
231.5
 21
106.0
 31
0.0
  0
LINE
  5
21AE
  8
0
 10
232.0
 20
94.500000000000014
 30
0.0
 11
232.0
 21
105.5
 31
0.0
  0
LINE
  5
21AF
  8
0
 10
227.0
 20
94.300000000019423
 30
0.0
 11
227.0
 21
105.7
 31
0.0
  0
ARC
  5
21B0
  8
0
 10
226.6999999999999
 20
105.7
 30
0.0
 40
0.2999999999999971
 50
359.99999999999682
 51
90.0
  0
ARC
  5
21B1
  8
0
 10
226.6999999999999
 20
94.299999999999969
 30
0.0
 40
0.2999999999999909
 50
270.0
 51
0.0000000000016284
  0
LINE
  5
21B2
  8
0
 10
226.6999999999999
 20
106.0
 30
0.0
 11
225.0
 21
106.0
 31
0.0
  0
LINE
  5
21B3
  8
0
 10
225.0
 20
94.0
 30
0.0
 11
226.6999999999999
 21
94.0
 31
0.0
  0
LINE
  5
21B4
  8
0
 10
226.6999999999999
 20
94.0
 30
0.0
 11
226.6999999999999
 21
106.0
 31
0.0
  0
LINE
  5
21B5
  8
0
 10
180.0
 20
85.000000000000028
 30
0.0
 11
180.0
 21
115.0
 31
0.0
  0
LINE
  5
21B6
  8
0
 10
181.3397459621556
 20
117.32050807568881
 30
0.0
 11
180.0
 21
115.0
 31
0.0
  0
LINE
  5
21B7
  8
0
 10
190.0
 20
85.000000000000028
 30
0.0
 11
190.0
 21
115.0
 31
0.0
  0
LINE
  5
21B8
  8
0
 10
190.0
 20
115.0
 30
0.0
 11
188.66025403784431
 21
117.32050807568881
 31
0.0
  0
LINE
  5
21B9
  8
0
 10
205.0
 20
85.0
 30
0.0
 11
205.0
 21
115.0
 31
0.0
  0
LINE
  5
21BA
  8
0
 10
205.0
 20
115.0
 30
0.0
 11
203.66025403784431
 21
117.32050807568881
 31
0.0
  0
LINE
  5
21BB
  8
0
 10
195.0
 20
85.000000000000028
 30
0.0
 11
195.0
 21
115.0
 31
0.0
  0
LINE
  5
21BC
  8
0
 10
196.33974596215549
 20
117.32050807568881
 30
0.0
 11
195.0
 21
115.0
 31
0.0
  0
LINE
  5
21BD
  8
0
 10
203.66025403784431
 20
82.679491924311236
 30
0.0
 11
205.0
 21
85.0
 31
0.0
  0
LINE
  5
21BE
  8
0
 10
195.0
 20
85.000000000000028
 30
0.0
 11
196.33974596215549
 21
82.679491924311236
 31
0.0
  0
LINE
  5
21BF
  8
0
 10
180.0
 20
85.000000000000028
 30
0.0
 11
181.3397459621556
 21
82.679491924311236
 31
0.0
  0
LINE
  5
21C0
  8
0
 10
188.66025403784431
 20
82.679491924311236
 30
0.0
 11
190.0
 21
85.000000000000028
 31
0.0
  0
LINE
  5
21C1
  8
0
 10
224.0800000000001
 20
90.0
 30
0.0
 11
225.0
 21
90.919999999999973
 31
0.0
  0
POLYLINE
  5
21C2
  8
0
 66
     1
 10
0.0
 20
0.0
 30
0.0
  0
VERTEX
  5
24B2
  8
0
 10
225.0
 20
98.797336289730168
 30
0.0
  0
VERTEX
  5
24B3
  8
0
 10
224.89261811456629
 20
98.153926895056742
 30
0.0
  0
VERTEX
  5
24B4
  8
0
 10
224.7435104762904
 20
97.516044157732125
 30
0.0
  0
VERTEX
  5
24B5
  8
0
 10
224.55490120956301
 20
96.881104848254083
 30
0.0
  0
VERTEX
  5
24B6
  8
0
 10
224.33202989413391
 20
96.255280893730799
 30
0.0
  0
VERTEX
  5
24B7
  8
0
 10
224.0800000000001
 20
95.641101056459348
 30
0.0
  0
SEQEND
  5
24B8
  8
0
  0
POLYLINE
  5
21C3
  8
0
 66
     1
 10
0.0
 20
0.0
 30
0.0
  0
VERTEX
  5
24B9
  8
0
 10
224.0800000000001
 20
104.35889894354059
 30
0.0
  0
VERTEX
  5
24BA
  8
0
 10
224.43479079581809
 20
103.46843777404681
 30
0.0
  0
VERTEX
  5
24BB
  8
0
 10
224.72568848757791
 20
102.5501262461751
 30
0.0
  0
VERTEX
  5
24BC
  8
0
 10
224.88522989006361
 20
101.8824976426491
 30
0.0
  0
VERTEX
  5
24BD
  8
0
 10
225.0
 20
101.2026637102698
 30
0.0
  0
SEQEND
  5
24BE
  8
0
  0
LINE
  5
21C4
  8
0
 10
225.0
 20
90.919999999999973
 30
0.0
 11
225.0
 21
109.08
 31
0.0
  0
LINE
  5
21C5
  8
0
 10
225.0
 20
109.08
 30
0.0
 11
224.0800000000001
 21
110.0
 31
0.0
  0
LINE
  5
21C6
  8
0
 10
165.0
 20
90.920000000000016
 30
0.0
 11
165.9199999999999
 21
90.000000000000028
 31
0.0
  0
LINE
  5
21C7
  8
0
 10
165.9199999999999
 20
110.0
 30
0.0
 11
165.0
 21
109.08
 31
0.0
  0
LINE
  5
21C8
  8
0
 10
165.0
 20
90.920000000000016
 30
0.0
 11
165.0
 21
109.08
 31
0.0
  0
LINE
  5
21C9
  8
0
 10
210.0
 20
95.641101056459348
 30
0.0
 11
210.0
 21
104.35889894354059
 31
0.0
  0
LINE
  5
21CA
  8
0
 10
224.0800000000001
 20
95.641101056459348
 30
0.0
 11
210.0
 21
95.641101056459348
 31
0.0
  0
LINE
  5
21CB
  8
0
 10
210.0
 20
104.35889894354059
 30
0.0
 11
224.0800000000001
 21
104.35889894354059
 31
0.0
  0
LINE
  5
21CC
  8
0
 10
224.0800000000001
 20
104.35889894354059
 30
0.0
 11
224.0800000000001
 21
110.0
 31
0.0
  0
LINE
  5
21CD
  8
0
 10
224.0800000000001
 20
110.0
 30
0.0
 11
205.0
 21
110.0
 31
0.0
  0
LINE
  5
21CE
  8
0
 10
205.0
 20
90.0
 30
0.0
 11
224.0800000000001
 21
90.0
 31
0.0
  0
LINE
  5
21CF
  8
0
 10
224.0800000000001
 20
90.0
 30
0.0
 11
224.0800000000001
 21
95.641101056459348
 31
0.0
  0
LINE
  5
21D0
  8
0
 10
180.0
 20
110.0
 30
0.0
 11
165.9199999999999
 21
110.0
 31
0.0
  0
LINE
  5
21D1
  8
0
 10
165.9199999999999
 20
90.000000000000028
 30
0.0
 11
180.0
 21
90.000000000000028
 31
0.0
  0
LINE
  5
21D2
  8
0
 10
165.9199999999999
 20
90.000000000000028
 30
0.0
 11
165.9199999999999
 21
110.0
 31
0.0
  0
LINE
  5
21D3
  8
0
 10
195.0
 20
110.0
 30
0.0
 11
190.0
 21
110.0
 31
0.0
  0
LINE
  5
21D4
  8
0
 10
190.0
 20
90.000000000000028
 30
0.0
 11
195.0
 21
90.000000000000028
 31
0.0
  0
POLYLINE
  5
21D5
  8
0
 66
     1
 10
0.0
 20
0.0
 30
0.0
  0
VERTEX
  5
24BF
  8
0
 10
196.33974596215549
 20
108.6602540378444
 30
0.0
  0
VERTEX
  5
24C0
  8
0
 10
195.8651638825491
 20
106.87028090215129
 30
0.0
  0
VERTEX
  5
24C1
  8
0
 10
195.5033027658707
 20
105.1877085389165
 30
0.0
  0
VERTEX
  5
24C2
  8
0
 10
195.23049666748051
 20
103.4837256368301
 30
0.0
  0
VERTEX
  5
24C3
  8
0
 10
195.13091338772719
 20
102.6178373144532
 30
0.0
  0
VERTEX
  5
24C4
  8
0
 10
195.0586884893408
 20
101.7492502328371
 30
0.0
  0
VERTEX
  5
24C5
  8
0
 10
195.01474588266319
 20
100.8751127080458
 30
0.0
  0
VERTEX
  5
24C6
  8
0
 10
195.0
 20
100.0
 30
0.0
  0
SEQEND
  5
24C7
  8
0
  0
POLYLINE
  5
21D6
  8
0
 66
     1
 10
0.0
 20
0.0
 30
0.0
  0
VERTEX
  5
24C8
  8
0
 10
180.0
 20
100.0
 30
0.0
  0
VERTEX
  5
24C9
  8
0
 10
180.01988670430629
 20
98.982881565088491
 30
0.0
  0
VERTEX
  5
24CA
  8
0
 10
180.07927530956221
 20
97.965763130176953
 30
0.0
  0
VERTEX
  5
24CB
  8
0
 10
180.26026603559819
 20
96.296096982152477
 30
0.0
  0
VERTEX
  5
24CC
  8
0
 10
180.53642710310891
 20
94.639325413243014
 30
0.0
  0
VERTEX
  5
24CD
  8
0
 10
180.90131698697741
 20
92.980674992606993
 30
0.0
  0
VERTEX
  5
24CE
  8
0
 10
181.3397459621556
 20
91.339745962155646
 30
0.0
  0
SEQEND
  5
24CF
  8
0
  0
POLYLINE
  5
21D7
  8
0
 66
     1
 10
0.0
 20
0.0
 30
0.0
  0
VERTEX
  5
24D0
  8
0
 10
181.3397459621556
 20
117.32050807568881
 30
0.0
  0
VERTEX
  5
24D1
  8
0
 10
181.05145202530929
 20
116.7966818847127
 30
0.0
  0
VERTEX
  5
24D2
  8
0
 10
180.7909310446941
 20
116.26812998733401
 30
0.0
  0
VERTEX
  5
24D3
  8
0
 10
180.5620466460467
 20
115.73594519334659
 30
0.0
  0
VERTEX
  5
24D4
  8
0
 10
180.36663582851099
 20
115.19566426243679
 30
0.0
  0
VERTEX
  5
24D5
  8
0
 10
180.21005617594071
 20
114.6522482195041
 30
0.0
  0
VERTEX
  5
24D6
  8
0
 10
180.09442343762871
 20
114.1006577029589
 30
0.0
  0
VERTEX
  5
24D7
  8
0
 10
180.02383316415759
 20
113.5471825465111
 30
0.0
  0
VERTEX
  5
24D8
  8
0
 10
180.0
 20
112.99038105676659
 30
0.0
  0
SEQEND
  5
24D9
  8
0
  0
LINE
  5
21D8
  8
0
 10
188.66025403784431
 20
108.6602540378444
 30
0.0
 11
181.3397459621556
 21
108.6602540378444
 31
0.0
  0
POLYLINE
  5
21D9
  8
0
 66
     1
 10
0.0
 20
0.0
 30
0.0
  0
VERTEX
  5
24DA
  8
0
 10
190.0
 20
112.99038105676659
 30
0.0
  0
VERTEX
  5
24DB
  8
0
 10
189.99270118795471
 20
113.29836531646529
 30
0.0
  0
VERTEX
  5
24DC
  8
0
 10
189.91286137104109
 20
114.0560465835473
 30
0.0
  0
VERTEX
  5
24DD
  8
0
 10
189.74866230979009
 20
114.8103674154089
 30
0.0
  0
VERTEX
  5
24DE
  8
0
 10
189.59327650230941
 20
115.3157568270742
 30
0.0
  0
VERTEX
  5
24DF
  8
0
 10
189.40481616554581
 20
115.8183392700335
 30
0.0
  0
VERTEX
  5
24E0
  8
0
 10
189.06261754130981
 20
116.573120319182
 30
0.0
  0
VERTEX
  5
24E1
  8
0
 10
188.66025403784431
 20
117.32050807568881
 30
0.0
  0
SEQEND
  5
24E2
  8
0
  0
LINE
  5
21DA
  8
0
 10
188.66025403784431
 20
117.32050807568881
 30
0.0
 11
181.3397459621556
 21
117.32050807568881
 31
0.0
  0
POLYLINE
  5
21DB
  8
0
 66
     1
 10
0.0
 20
0.0
 30
0.0
  0
VERTEX
  5
24E3
  8
0
 10
180.0
 20
112.99038105676659
 30
0.0
  0
VERTEX
  5
24E4
  8
0
 10
180.00729881204521
 20
112.6823967970679
 30
0.0
  0
VERTEX
  5
24E5
  8
0
 10
180.0742978437406
 20
112.0081990870865
 30
0.0
  0
VERTEX
  5
24E6
  8
0
 10
180.20851181637931
 20
111.3360580855188
 30
0.0
  0
VERTEX
  5
24E7
  8
0
 10
180.405634090333
 20
110.6681524580988
 30
0.0
  0
VERTEX
  5
24E8
  8
0
 10
180.5952866277253
 20
110.1621883424223
 30
0.0
  0
VERTEX
  5
24E9
  8
0
 10
180.8157388403576
 20
109.6593405630467
 30
0.0
  0
VERTEX
  5
24EA
  8
0
 10
181.0650426588773
 20
109.1581378771282
 30
0.0
  0
VERTEX
  5
24EB
  8
0
 10
181.3397459621556
 20
108.6602540378444
 30
0.0
  0
SEQEND
  5
24EC
  8
0
  0
POLYLINE
  5
21DC
  8
0
 66
     1
 10
0.0
 20
0.0
 30
0.0
  0
VERTEX
  5
24ED
  8
0
 10
181.3397459621556
 20
108.6602540378444
 30
0.0
  0
VERTEX
  5
24EE
  8
0
 10
180.8651638825491
 20
106.87028090215129
 30
0.0
  0
VERTEX
  5
24EF
  8
0
 10
180.50330276587081
 20
105.1877085389165
 30
0.0
  0
VERTEX
  5
24F0
  8
0
 10
180.23049666748051
 20
103.4837256368301
 30
0.0
  0
VERTEX
  5
24F1
  8
0
 10
180.13091338772719
 20
102.6178373144532
 30
0.0
  0
VERTEX
  5
24F2
  8
0
 10
180.0586884893408
 20
101.7492502328371
 30
0.0
  0
VERTEX
  5
24F3
  8
0
 10
180.01474588266319
 20
100.8751127080458
 30
0.0
  0
VERTEX
  5
24F4
  8
0
 10
180.0
 20
100.0
 30
0.0
  0
SEQEND
  5
24F5
  8
0
  0
POLYLINE
  5
21DD
  8
0
 66
     1
 10
0.0
 20
0.0
 30
0.0
  0
VERTEX
  5
24F6
  8
0
 10
190.0
 20
100.0
 30
0.0
  0
VERTEX
  5
24F7
  8
0
 10
189.98578419492969
 20
100.8592469573166
 30
0.0
  0
VERTEX
  5
24F8
  8
0
 10
189.94341119425209
 20
101.7175702255378
 30
0.0
  0
VERTEX
  5
24F9
  8
0
 10
189.8730452576518
 20
102.5776611248
 30
0.0
  0
VERTEX
  5
24FA
  8
0
 10
189.77580714231181
 20
103.4351404510757
 30
0.0
  0
VERTEX
  5
24FB
  8
0
 10
189.50214907990619
 20
105.1587459001036
 30
0.0
  0
VERTEX
  5
24FC
  8
0
 10
189.13483611745079
 20
106.87028090215141
 30
0.0
  0
VERTEX
  5
24FD
  8
0
 10
188.66025403784431
 20
108.6602540378444
 30
0.0
  0
SEQEND
  5
24FE
  8
0
  0
POLYLINE
  5
21DE
  8
0
 66
     1
 10
0.0
 20
0.0
 30
0.0
  0
VERTEX
  5
24FF
  8
0
 10
188.66025403784431
 20
108.6602540378444
 30
0.0
  0
VERTEX
  5
2500
  8
0
 10
188.94865030070471
 20
109.18426993557971
 30
0.0
  0
VERTEX
  5
2501
  8
0
 10
189.2087605311286
 20
109.711959617931
 30
0.0
  0
VERTEX
  5
2502
  8
0
 10
189.5409729973899
 20
110.51654110717359
 30
0.0
  0
VERTEX
  5
2503
  8
0
 10
189.78994382405921
 20
111.328513894029
 30
0.0
  0
VERTEX
  5
2504
  8
0
 10
189.905393234793
 20
111.8787647737787
 30
0.0
  0
VERTEX
  5
2505
  8
0
 10
189.97616683584221
 20
112.43357956702199
 30
0.0
  0
VERTEX
  5
2506
  8
0
 10
190.0
 20
112.99038105676659
 30
0.0
  0
SEQEND
  5
2507
  8
0
  0
POLYLINE
  5
21DF
  8
0
 66
     1
 10
0.0
 20
0.0
 30
0.0
  0
VERTEX
  5
2508
  8
0
 10
188.66025403784431
 20
91.339745962155646
 30
0.0
  0
VERTEX
  5
2509
  8
0
 10
189.094490712653
 20
92.963557746034965
 30
0.0
  0
VERTEX
  5
250A
  8
0
 10
189.45683291331849
 20
94.604735299718484
 30
0.0
  0
VERTEX
  5
250B
  8
0
 10
189.73730800488269
 20
96.278647580086528
 30
0.0
  0
VERTEX
  5
250C
  8
0
 10
189.92072469043759
 20
97.965763130176953
 30
0.0
  0
VERTEX
  5
250D
  8
0
 10
189.98005357660679
 20
98.981353770043356
 30
0.0
  0
VERTEX
  5
250E
  8
0
 10
190.0
 20
100.0
 30
0.0
  0
SEQEND
  5
250F
  8
0
  0
POLYLINE
  5
21E0
  8
0
 66
     1
 10
0.0
 20
0.0
 30
0.0
  0
VERTEX
  5
2510
  8
0
 10
196.33974596215549
 20
117.32050807568881
 30
0.0
  0
VERTEX
  5
2511
  8
0
 10
196.05145202530929
 20
116.7966818847127
 30
0.0
  0
VERTEX
  5
2512
  8
0
 10
195.79093104469399
 20
116.26812998733401
 30
0.0
  0
VERTEX
  5
2513
  8
0
 10
195.5620466460467
 20
115.73594519334659
 30
0.0
  0
VERTEX
  5
2514
  8
0
 10
195.36663582851099
 20
115.19566426243679
 30
0.0
  0
VERTEX
  5
2515
  8
0
 10
195.21005617594071
 20
114.6522482195041
 30
0.0
  0
VERTEX
  5
2516
  8
0
 10
195.09442343762871
 20
114.100657702959
 30
0.0
  0
VERTEX
  5
2517
  8
0
 10
195.02383316415759
 20
113.5471825465111
 30
0.0
  0
VERTEX
  5
2518
  8
0
 10
195.0
 20
112.99038105676659
 30
0.0
  0
SEQEND
  5
2519
  8
0
  0
POLYLINE
  5
21E1
  8
0
 66
     1
 10
0.0
 20
0.0
 30
0.0
  0
VERTEX
  5
251A
  8
0
 10
195.0
 20
112.99038105676659
 30
0.0
  0
VERTEX
  5
251B
  8
0
 10
195.00729881204521
 20
112.6823967970679
 30
0.0
  0
VERTEX
  5
251C
  8
0
 10
195.0742978437406
 20
112.0081990870865
 30
0.0
  0
VERTEX
  5
251D
  8
0
 10
195.20851181637931
 20
111.3360580855188
 30
0.0
  0
VERTEX
  5
251E
  8
0
 10
195.40563409033291
 20
110.6681524580988
 30
0.0
  0
VERTEX
  5
251F
  8
0
 10
195.59528662772519
 20
110.1621883424223
 30
0.0
  0
VERTEX
  5
2520
  8
0
 10
195.8157388403576
 20
109.6593405630467
 30
0.0
  0
VERTEX
  5
2521
  8
0
 10
196.0650426588773
 20
109.1581378771282
 30
0.0
  0
VERTEX
  5
2522
  8
0
 10
196.33974596215549
 20
108.6602540378444
 30
0.0
  0
SEQEND
  5
2523
  8
0
  0
LINE
  5
21E2
  8
0
 10
203.66025403784431
 20
108.6602540378444
 30
0.0
 11
196.33974596215549
 21
108.6602540378444
 31
0.0
  0
POLYLINE
  5
21E3
  8
0
 66
     1
 10
0.0
 20
0.0
 30
0.0
  0
VERTEX
  5
2524
  8
0
 10
205.0
 20
112.99038105676649
 30
0.0
  0
VERTEX
  5
2525
  8
0
 10
204.99270118795479
 20
113.29836531646529
 30
0.0
  0
VERTEX
  5
2526
  8
0
 10
204.91286137104109
 20
114.0560465835473
 30
0.0
  0
VERTEX
  5
2527
  8
0
 10
204.74866230979009
 20
114.81036741540881
 30
0.0
  0
VERTEX
  5
2528
  8
0
 10
204.59327650230941
 20
115.3157568270742
 30
0.0
  0
VERTEX
  5
2529
  8
0
 10
204.4048161655459
 20
115.8183392700335
 30
0.0
  0
VERTEX
  5
252A
  8
0
 10
204.06261754130981
 20
116.573120319182
 30
0.0
  0
VERTEX
  5
252B
  8
0
 10
203.66025403784431
 20
117.32050807568881
 30
0.0
  0
SEQEND
  5
252C
  8
0
  0
LINE
  5
21E4
  8
0
 10
203.66025403784431
 20
117.32050807568881
 30
0.0
 11
196.33974596215549
 21
117.32050807568881
 31
0.0
  0
POLYLINE
  5
21E5
  8
0
 66
     1
 10
0.0
 20
0.0
 30
0.0
  0
VERTEX
  5
252D
  8
0
 10
195.0
 20
100.0
 30
0.0
  0
VERTEX
  5
252E
  8
0
 10
195.01988670430629
 20
98.982881565088491
 30
0.0
  0
VERTEX
  5
252F
  8
0
 10
195.07927530956221
 20
97.965763130176953
 30
0.0
  0
VERTEX
  5
2530
  8
0
 10
195.26026603559819
 20
96.296096982152477
 30
0.0
  0
VERTEX
  5
2531
  8
0
 10
195.53642710310891
 20
94.639325413243014
 30
0.0
  0
VERTEX
  5
2532
  8
0
 10
195.90131698697741
 20
92.980674992606993
 30
0.0
  0
VERTEX
  5
2533
  8
0
 10
196.33974596215549
 20
91.339745962155646
 30
0.0
  0
SEQEND
  5
2534
  8
0
  0
POLYLINE
  5
21E6
  8
0
 66
     1
 10
0.0
 20
0.0
 30
0.0
  0
VERTEX
  5
2535
  8
0
 10
181.3397459621556
 20
91.339745962155646
 30
0.0
  0
VERTEX
  5
2536
  8
0
 10
181.05134969929529
 20
90.815730064420265
 30
0.0
  0
VERTEX
  5
2537
  8
0
 10
180.7912394688712
 20
90.288040382069056
 30
0.0
  0
VERTEX
  5
2538
  8
0
 10
180.45902700260999
 20
89.483458892826405
 30
0.0
  0
VERTEX
  5
2539
  8
0
 10
180.21005617594071
 20
88.671486105970956
 30
0.0
  0
VERTEX
  5
253A
  8
0
 10
180.094606765207
 20
88.12123522622133
 30
0.0
  0
VERTEX
  5
253B
  8
0
 10
180.02383316415759
 20
87.566420432978006
 30
0.0
  0
VERTEX
  5
253C
  8
0
 10
180.0
 20
87.009618943233448
 30
0.0
  0
SEQEND
  5
253D
  8
0
  0
POLYLINE
  5
21E7
  8
0
 66
     1
 10
0.0
 20
0.0
 30
0.0
  0
VERTEX
  5
253E
  8
0
 10
180.0
 20
87.009618943233448
 30
0.0
  0
VERTEX
  5
253F
  8
0
 10
180.00729881204521
 20
86.701634683534735
 30
0.0
  0
VERTEX
  5
2540
  8
0
 10
180.08713862895891
 20
85.943953416452715
 30
0.0
  0
VERTEX
  5
2541
  8
0
 10
180.25133769020991
 20
85.18963258459118
 30
0.0
  0
VERTEX
  5
2542
  8
0
 10
180.40672349769039
 20
84.684243172925818
 30
0.0
  0
VERTEX
  5
2543
  8
0
 10
180.5951838344541
 20
84.181660729966524
 30
0.0
  0
VERTEX
  5
2544
  8
0
 10
180.93738245869019
 20
83.426879680817947
 30
0.0
  0
VERTEX
  5
2545
  8
0
 10
181.3397459621556
 20
82.679491924311236
 30
0.0
  0
SEQEND
  5
2546
  8
0
  0
LINE
  5
21E8
  8
0
 10
188.66025403784431
 20
82.679491924311236
 30
0.0
 11
181.3397459621556
 21
82.679491924311236
 31
0.0
  0
POLYLINE
  5
21E9
  8
0
 66
     1
 10
0.0
 20
0.0
 30
0.0
  0
VERTEX
  5
2547
  8
0
 10
188.66025403784431
 20
82.679491924311236
 30
0.0
  0
VERTEX
  5
2548
  8
0
 10
188.94854797469051
 20
83.203318115287317
 30
0.0
  0
VERTEX
  5
2549
  8
0
 10
189.20906895530581
 20
83.731870012666064
 30
0.0
  0
VERTEX
  5
254A
  8
0
 10
189.4379533539533
 20
84.264054806653434
 30
0.0
  0
VERTEX
  5
254B
  8
0
 10
189.63336417148901
 20
84.804335737563264
 30
0.0
  0
VERTEX
  5
254C
  8
0
 10
189.78994382405921
 20
85.347751780495884
 30
0.0
  0
VERTEX
  5
254D
  8
0
 10
189.90557656237121
 20
85.899342297041045
 30
0.0
  0
VERTEX
  5
254E
  8
0
 10
189.97616683584221
 20
86.452817453488848
 30
0.0
  0
VERTEX
  5
254F
  8
0
 10
190.0
 20
87.009618943233448
 30
0.0
  0
SEQEND
  5
2550
  8
0
  0
POLYLINE
  5
21EA
  8
0
 66
     1
 10
0.0
 20
0.0
 30
0.0
  0
VERTEX
  5
2551
  8
0
 10
190.0
 20
87.009618943233448
 30
0.0
  0
VERTEX
  5
2552
  8
0
 10
189.99270118795471
 20
87.317603202932133
 30
0.0
  0
VERTEX
  5
2553
  8
0
 10
189.92570215625921
 20
87.991800912913476
 30
0.0
  0
VERTEX
  5
2554
  8
0
 10
189.79148818362069
 20
88.663941914481171
 30
0.0
  0
VERTEX
  5
2555
  8
0
 10
189.59436590966689
 20
89.331847541901254
 30
0.0
  0
VERTEX
  5
2556
  8
0
 10
189.4047133722747
 20
89.837811657577674
 30
0.0
  0
VERTEX
  5
2557
  8
0
 10
189.18426115964229
 20
90.340659436953288
 30
0.0
  0
VERTEX
  5
2558
  8
0
 10
188.93495734112261
 20
90.841862122871731
 30
0.0
  0
VERTEX
  5
2559
  8
0
 10
188.66025403784431
 20
91.339745962155646
 30
0.0
  0
SEQEND
  5
255A
  8
0
  0
LINE
  5
21EB
  8
0
 10
188.66025403784431
 20
91.339745962155646
 30
0.0
 11
181.3397459621556
 21
91.339745962155646
 31
0.0
  0
POLYLINE
  5
21EC
  8
0
 66
     1
 10
0.0
 20
0.0
 30
0.0
  0
VERTEX
  5
255B
  8
0
 10
203.66025403784431
 20
91.339745962155646
 30
0.0
  0
VERTEX
  5
255C
  8
0
 10
204.094490712653
 20
92.963557746034923
 30
0.0
  0
VERTEX
  5
255D
  8
0
 10
204.45683291331849
 20
94.604735299718484
 30
0.0
  0
VERTEX
  5
255E
  8
0
 10
204.73730800488269
 20
96.278647580086499
 30
0.0
  0
VERTEX
  5
255F
  8
0
 10
204.92072469043759
 20
97.965763130176896
 30
0.0
  0
VERTEX
  5
2560
  8
0
 10
204.98005357660679
 20
98.981353770043313
 30
0.0
  0
VERTEX
  5
2561
  8
0
 10
205.0
 20
100.0
 30
0.0
  0
SEQEND
  5
2562
  8
0
  0
POLYLINE
  5
21ED
  8
0
 66
     1
 10
0.0
 20
0.0
 30
0.0
  0
VERTEX
  5
2563
  8
0
 10
196.33974596215549
 20
91.339745962155646
 30
0.0
  0
VERTEX
  5
2564
  8
0
 10
196.05134969929529
 20
90.815730064420265
 30
0.0
  0
VERTEX
  5
2565
  8
0
 10
195.7912394688712
 20
90.288040382069056
 30
0.0
  0
VERTEX
  5
2566
  8
0
 10
195.45902700260999
 20
89.483458892826405
 30
0.0
  0
VERTEX
  5
2567
  8
0
 10
195.21005617594071
 20
88.671486105970956
 30
0.0
  0
VERTEX
  5
2568
  8
0
 10
195.094606765207
 20
88.12123522622133
 30
0.0
  0
VERTEX
  5
2569
  8
0
 10
195.02383316415759
 20
87.566420432978006
 30
0.0
  0
VERTEX
  5
256A
  8
0
 10
195.0
 20
87.009618943233448
 30
0.0
  0
SEQEND
  5
256B
  8
0
  0
POLYLINE
  5
21EE
  8
0
 66
     1
 10
0.0
 20
0.0
 30
0.0
  0
VERTEX
  5
256C
  8
0
 10
195.0
 20
87.009618943233448
 30
0.0
  0
VERTEX
  5
256D
  8
0
 10
195.00729881204521
 20
86.701634683534735
 30
0.0
  0
VERTEX
  5
256E
  8
0
 10
195.08713862895891
 20
85.943953416452715
 30
0.0
  0
VERTEX
  5
256F
  8
0
 10
195.25133769020979
 20
85.18963258459118
 30
0.0
  0
VERTEX
  5
2570
  8
0
 10
195.40672349769039
 20
84.684243172925818
 30
0.0
  0
VERTEX
  5
2571
  8
0
 10
195.5951838344541
 20
84.181660729966524
 30
0.0
  0
VERTEX
  5
2572
  8
0
 10
195.93738245869019
 20
83.426879680817947
 30
0.0
  0
VERTEX
  5
2573
  8
0
 10
196.33974596215549
 20
82.679491924311236
 30
0.0
  0
SEQEND
  5
2574
  8
0
  0
LINE
  5
21EF
  8
0
 10
203.66025403784431
 20
82.679491924311236
 30
0.0
 11
196.33974596215549
 21
82.679491924311236
 31
0.0
  0
POLYLINE
  5
21F0
  8
0
 66
     1
 10
0.0
 20
0.0
 30
0.0
  0
VERTEX
  5
2575
  8
0
 10
203.66025403784431
 20
82.679491924311236
 30
0.0
  0
VERTEX
  5
2576
  8
0
 10
203.94854797469051
 20
83.203318115287288
 30
0.0
  0
VERTEX
  5
2577
  8
0
 10
204.2090689553059
 20
83.731870012666036
 30
0.0
  0
VERTEX
  5
2578
  8
0
 10
204.4379533539533
 20
84.264054806653434
 30
0.0
  0
VERTEX
  5
2579
  8
0
 10
204.63336417148901
 20
84.804335737563235
 30
0.0
  0
VERTEX
  5
257A
  8
0
 10
204.78994382405929
 20
85.347751780495884
 30
0.0
  0
VERTEX
  5
257B
  8
0
 10
204.90557656237121
 20
85.899342297041045
 30
0.0
  0
VERTEX
  5
257C
  8
0
 10
204.97616683584221
 20
86.452817453488848
 30
0.0
  0
VERTEX
  5
257D
  8
0
 10
205.0
 20
87.009618943233406
 30
0.0
  0
SEQEND
  5
257E
  8
0
  0
POLYLINE
  5
21F1
  8
0
 66
     1
 10
0.0
 20
0.0
 30
0.0
  0
VERTEX
  5
257F
  8
0
 10
205.0
 20
87.009618943233406
 30
0.0
  0
VERTEX
  5
2580
  8
0
 10
204.99270118795471
 20
87.317603202932133
 30
0.0
  0
VERTEX
  5
2581
  8
0
 10
204.92570215625921
 20
87.991800912913476
 30
0.0
  0
VERTEX
  5
2582
  8
0
 10
204.79148818362069
 20
88.663941914481171
 30
0.0
  0
VERTEX
  5
2583
  8
0
 10
204.594365909667
 20
89.331847541901226
 30
0.0
  0
VERTEX
  5
2584
  8
0
 10
204.40471337227461
 20
89.837811657577646
 30
0.0
  0
VERTEX
  5
2585
  8
0
 10
204.1842611596424
 20
90.340659436953288
 30
0.0
  0
VERTEX
  5
2586
  8
0
 10
203.9349573411227
 20
90.841862122871731
 30
0.0
  0
VERTEX
  5
2587
  8
0
 10
203.66025403784431
 20
91.339745962155646
 30
0.0
  0
SEQEND
  5
2588
  8
0
  0
LINE
  5
21F2
  8
0
 10
203.66025403784431
 20
91.339745962155646
 30
0.0
 11
196.33974596215549
 21
91.339745962155646
 31
0.0
  0
POLYLINE
  5
21F3
  8
0
 66
     1
 10
0.0
 20
0.0
 30
0.0
  0
VERTEX
  5
2589
  8
0
 10
205.0
 20
100.0
 30
0.0
  0
VERTEX
  5
258A
  8
0
 10
204.98578419492969
 20
100.8592469573166
 30
0.0
  0
VERTEX
  5
258B
  8
0
 10
204.94341119425229
 20
101.7175702255378
 30
0.0
  0
VERTEX
  5
258C
  8
0
 10
204.8730452576518
 20
102.5776611248
 30
0.0
  0
VERTEX
  5
258D
  8
0
 10
204.77580714231181
 20
103.4351404510757
 30
0.0
  0
VERTEX
  5
258E
  8
0
 10
204.50214907990619
 20
105.1587459001036
 30
0.0
  0
VERTEX
  5
258F
  8
0
 10
204.1348361174509
 20
106.87028090215129
 30
0.0
  0
VERTEX
  5
2590
  8
0
 10
203.66025403784431
 20
108.6602540378444
 30
0.0
  0
SEQEND
  5
2591
  8
0
  0
POLYLINE
  5
21F4
  8
0
 66
     1
 10
0.0
 20
0.0
 30
0.0
  0
VERTEX
  5
2592
  8
0
 10
203.66025403784431
 20
108.6602540378444
 30
0.0
  0
VERTEX
  5
2593
  8
0
 10
203.94865030070471
 20
109.18426993557971
 30
0.0
  0
VERTEX
  5
2594
  8
0
 10
204.2087605311286
 20
109.7119596179309
 30
0.0
  0
VERTEX
  5
2595
  8
0
 10
204.43805742993169
 20
110.2451055987389
 30
0.0
  0
VERTEX
  5
2596
  8
0
 10
204.63227921005881
 20
110.7817056350832
 30
0.0
  0
VERTEX
  5
2597
  8
0
 10
204.78994382405929
 20
111.328513894029
 30
0.0
  0
VERTEX
  5
2598
  8
0
 10
204.90557656237121
 20
111.88010441057421
 30
0.0
  0
VERTEX
  5
2599
  8
0
 10
204.97616683584221
 20
112.43357956702199
 30
0.0
  0
VERTEX
  5
259A
  8
0
 10
205.0
 20
112.99038105676649
 30
0.0
  0
SEQEND
  5
259B
  8
0
  0
LINE
  5
21F5
  8
3
 10
165.0
 20
109.08
 30
0.0
 11
180.0
 21
109.08
 31
0.0
  0
LINE
  5
21F6
  8
3
 10
190.0
 20
109.08
 30
0.0
 11
195.0
 21
109.08
 31
0.0
  0
LINE
  5
21F7
  8
3
 10
205.0
 20
109.08
 30
0.0
 11
225.0
 21
109.08
 31
0.0
  0
LINE
  5
21F8
  8
3
 10
165.0
 20
90.920000000000016
 30
0.0
 11
180.0
 21
90.920000000000016
 31
0.0
  0
LINE
  5
21F9
  8
3
 10
190.0
 20
90.919999999999973
 30
0.0
 11
195.0
 21
90.919999999999973
 31
0.0
  0
LINE
  5
21FA
  8
3
 10
205.0
 20
90.919999999999973
 30
0.0
 11
225.0
 21
90.919999999999973
 31
0.0
  0
LINE
  5
21FB
  8
2
 10
226.5
 20
102.5
 30
0.0
 11
232.0
 21
102.5
 31
0.0
  0
LINE
  5
21FC
  8
2
 10
226.5
 20
97.5
 30
0.0
 11
232.0
 21
97.5
 31
0.0
  0
LINE
  5
21FD
  8
1
 10
237.0
 20
100.0
 30
0.0
 11
150.0
 21
100.0
 31
0.0
  0
LINE
  5
21FE
  8
0
 10
278.33974596215558
 20
184.99999999999989
 30
0.0
 11
269.67949192431132
 21
200.0
 31
0.0
  0
LINE
  5
21FF
  8
0
 10
295.66025403784442
 20
184.99999999999989
 30
0.0
 11
278.33974596215558
 21
184.99999999999989
 31
0.0
  0
LINE
  5
2200
  8
0
 10
304.32050807568891
 20
199.99999999999989
 30
0.0
 11
295.66025403784442
 21
184.99999999999989
 31
0.0
  0
LINE
  5
2201
  8
0
 10
295.66025403784442
 20
215.0
 30
0.0
 11
304.32050807568891
 21
199.99999999999989
 31
0.0
  0
LINE
  5
2202
  8
0
 10
269.67949192431132
 20
200.0
 30
0.0
 11
278.33974596215558
 21
215.0
 31
0.0
  0
LINE
  5
2203
  8
0
 10
278.33974596215558
 20
215.0
 30
0.0
 11
295.66025403784442
 21
215.0
 31
0.0
  0
LINE
  5
2205
  8
0
 10
282.64110105645932
 20
190.99999999999989
 30
0.0
 11
291.35889894354068
 21
190.99999999999989
 31
0.0
  0
ARC
  5
2206
  8
3
 10
287.0
 20
200.0
 30
0.0
 40
9.0800000000000001
 50
277.61130422390829
 51
82.388695776091652
  0
LINE
  5
2207
  8
0
 10
291.35889894354068
 20
209.0
 30
0.0
 11
282.64110105645932
 21
209.0
 31
0.0
  0
ARC
  5
2208
  8
3
 10
287.0
 20
200.0
 30
0.0
 40
9.0800000000000001
 50
97.611304223908334
 51
262.38869577609159
  0
CIRCLE
  5
2209
  8
0
 10
287.0
 20
200.0
 30
0.0
 40
2.0670000000000002
  0
CIRCLE
  5
220A
  8
0
 10
287.0
 20
200.0
 30
0.0
 40
6.0
  0
CIRCLE
  5
220B
  8
0
 10
287.0
 20
200.0
 30
0.0
 40
5.5
  0
LINE
  5
220E
  8
1
 10
287.0
 20
220.0
 30
0.0
 11
287.0
 21
179.99999999999989
 31
0.0
  0
CIRCLE
  5
220F
  8
0
 10
287.0
 20
200.0
 30
0.0
 40
14.999999999999989
  0
CIRCLE
  5
2210
  8
0
 10
287.0
 20
199.99999999999989
 30
0.0
 40
10.0
  0
ARC
  5
2211
  8
0
 10
163.0
 20
100.0
 30
0.0
 40
8.0000000000000195
 50
157.88333686751491
 51
202.11666313248509
  0
LINE
  5
2212
  8
0
 10
165.0
 20
104.0
 30
0.0
 11
157.2999999999999
 21
104.0
 31
0.0
  0
LINE
  5
2213
  8
0
 10
157.2999999999999
 20
96.000000000000028
 30
0.0
 11
165.0
 21
96.000000000000028
 31
0.0
  0
LINE
  5
2214
  8
0
 10
155.58864659443859
 20
96.988050349379463
 30
0.0
 11
157.2999999999999
 21
96.000000000000028
 31
0.0
  0
LINE
  5
2215
  8
0
 10
157.2999999999999
 20
104.0
 30
0.0
 11
155.58864659443859
 21
103.01194965062049
 31
0.0
  0
LINE
  5
2217
  8
1
 10
267.0
 20
200.0
 30
0.0
 11
307.0
 21
199.99999999999989
 31
0.0
  0
LINE
  5
2218
  8
1
 10
100.0
 20
220.0
 30
0.0
 11
100.0
 21
180.0
 31
0.0
  0
LINE
  5
2219
  8
1
 10
80.0
 20
200.0
 30
0.0
 11
120.0
 21
200.0
 31
0.0
  0
LINE
  5
2228
  8
3
 10
210.0
 20
95.641101056459348
 30
0.0
 11
224.0800000000001
 21
104.35889894354059
 31
0.0
  0
LINE
  5
2229
  8
3
 10
210.0
 20
104.35889894354059
 30
0.0
 11
224.0800000000001
 21
95.641101056459348
 31
0.0
  0
CIRCLE
  5
222A
  8
3
 10
100.0
 20
200.0
 30
0.0
 40
9.0799999999999841
  0
CIRCLE
  5
222B
  8
3
 10
287.0
 20
199.99999999999989
 30
0.0
 40
2.5
  0
CIRCLE
  5
2354
  8
0
 10
287.0
 20
200.0
 30
0.0
 40
7.5
  0
ENDSEC
  0
EOF
