  0
SECTION
  2
HEADER
  9
$ACADVER
  1
AC1009
  9
$INSBASE
 10
0.0
 20
0.0
 30
0.0
  9
$EXTMIN
 10
-0.0204638472032742
 20
-2.960436562073669
 30
0.0
  9
$EXTMAX
 10
136.0
 20
99.500000000000014
 30
0.0
  9
$LIMMIN
 10
0.0
 20
0.0
  9
$LIMMAX
 10
375.0
 20
270.0
  9
$ORTHOMODE
 70
     1
  9
$REGENMODE
 70
     1
  9
$FILLMODE
 70
     1
  9
$QTEXTMODE
 70
     0
  9
$MIRRTEXT
 70
     0
  9
$DRAGMODE
 70
     2
  9
$LTSCALE
 40
5.0
  9
$OSMODE
 70
    37
  9
$ATTMODE
 70
     1
  9
$TEXTSIZE
 40
0.2
  9
$TRACEWID
 40
0.05
  9
$TEXTSTYLE
  7
STANDARD
  9
$CLAYER
  8
0
  9
$CELTYPE
  6
BYLAYER
  9
$CECOLOR
 62
   256
  9
$DIMSCALE
 40
1.0
  9
$DIMASZ
 40
3.0
  9
$DIMEXO
 40
2.0
  9
$DIMDLI
 40
0.38
  9
$DIMRND
 40
0.0
  9
$DIMDLE
 40
0.0
  9
$DIMEXE
 40
2.0
  9
$DIMTP
 40
0.0
  9
$DIMTM
 40
0.0
  9
$DIMTXT
 40
3.2000000000000002
  9
$DIMCEN
 40
0.0
  9
$DIMTSZ
 40
0.0
  9
$DIMTOL
 70
     0
  9
$DIMLIM
 70
     0
  9
$DIMTIH
 70
     0
  9
$DIMTOH
 70
     0
  9
$DIMSE1
 70
     0
  9
$DIMSE2
 70
     0
  9
$DIMTAD
 70
     1
  9
$DIMZIN
 70
     0
  9
$DIMBLK
  1

  9
$DIMASO
 70
     0
  9
$DIMSHO
 70
     0
  9
$DIMPOST
  1

  9
$DIMAPOST
  1

  9
$DIMALT
 70
     0
  9
$DIMALTD
 70
     2
  9
$DIMALTF
 40
25.399999999999999
  9
$DIMLFAC
 40
1.0
  9
$DIMTOFL
 70
     1
  9
$DIMTVP
 40
1.6000000000000001
  9
$DIMTIX
 70
     1
  9
$DIMSOXD
 70
     0
  9
$DIMSAH
 70
     0
  9
$DIMBLK1
  1

  9
$DIMBLK2
  1

  9
$DIMSTYLE
  2
STANDARD
  9
$DIMCLRD
 70
     0
  9
$DIMCLRE
 70
     0
  9
$DIMCLRT
 70
     0
  9
$DIMTFAC
 40
1.0
  9
$DIMGAP
 40
0.09
  9
$LUNITS
 70
     2
  9
$LUPREC
 70
     4
  9
$SKETCHINC
 40
0.1
  9
$FILLETRAD
 40
0.0
  9
$AUNITS
 70
     0
  9
$AUPREC
 70
     4
  9
$MENU
  1
E:\r13\win\SUPPORT\ACAD
  9
$ELEVATION
 40
0.0
  9
$PELEVATION
 40
0.0
  9
$THICKNESS
 40
0.0
  9
$LIMCHECK
 70
     0
  9
$BLIPMODE
 70
     0
  9
$CHAMFERA
 40
0.0
  9
$CHAMFERB
 40
0.0
  9
$SKPOLY
 70
     0
  9
$TDCREATE
 40
2449840.6513888892
  9
$TDUPDATE
 40
2457534.5953171989
  9
$TDINDWG
 40
0.2240094907
  9
$TDUSRTIMER
 40
0.2240094907
  9
$USRTIMER
 70
     1
  9
$ANGBASE
 50
0.0
  9
$ANGDIR
 70
     0
  9
$PDMODE
 70
     0
  9
$PDSIZE
 40
0.0
  9
$PLINEWID
 40
0.0
  9
$COORDS
 70
     1
  9
$SPLFRAME
 70
     0
  9
$SPLINETYPE
 70
     6
  9
$SPLINESEGS
 70
     8
  9
$ATTDIA
 70
     0
  9
$ATTREQ
 70
     1
  9
$HANDLING
 70
     1
  9
$HANDSEED
  5
151A
  9
$SURFTAB1
 70
     6
  9
$SURFTAB2
 70
     6
  9
$SURFTYPE
 70
     6
  9
$SURFU
 70
     6
  9
$SURFV
 70
     6
  9
$UCSNAME
  2

  9
$UCSORG
 10
0.0
 20
0.0
 30
0.0
  9
$UCSXDIR
 10
1.0
 20
0.0
 30
0.0
  9
$UCSYDIR
 10
0.0
 20
1.0
 30
0.0
  9
$PUCSNAME
  2

  9
$PUCSORG
 10
0.0
 20
0.0
 30
0.0
  9
$PUCSXDIR
 10
1.0
 20
0.0
 30
0.0
  9
$PUCSYDIR
 10
0.0
 20
1.0
 30
0.0
  9
$USERI1
 70
     0
  9
$USERI2
 70
     1
  9
$USERI3
 70
     0
  9
$USERI4
 70
     0
  9
$USERI5
 70
     0
  9
$USERR1
 40
0.0
  9
$USERR2
 40
0.0
  9
$USERR3
 40
0.0
  9
$USERR4
 40
0.0
  9
$USERR5
 40
0.0
  9
$WORLDVIEW
 70
     1
  9
$SHADEDGE
 70
     3
  9
$SHADEDIF
 70
    70
  9
$TILEMODE
 70
     1
  9
$MAXACTVP
 70
    16
  9
$PLIMCHECK
 70
     0
  9
$PEXTMIN
 10
1.0000000000000000E+020
 20
1.0000000000000000E+020
 30
1.0000000000000000E+020
  9
$PEXTMAX
 10
-1.0000000000000000E+020
 20
-1.0000000000000000E+020
 30
-1.0000000000000000E+020
  9
$PLIMMIN
 10
0.0
 20
0.0
  9
$PLIMMAX
 10
12.0
 20
9.0
  9
$UNITMODE
 70
     0
  9
$VISRETAIN
 70
     0
  9
$PLINEGEN
 70
     0
  9
$PSLTSCALE
 70
     0
  0
ENDSEC
  0
SECTION
  2
TABLES
  0
TABLE
  2
VPORT
 70
     1
  0
VPORT
  2
*ACTIVE
 70
     0
 10
0.0
 20
0.0
 11
1.0
 21
1.0
 12
68.085819663811662
 22
48.268593111791468
 13
0.0
 23
0.0
 14
5.0
 24
5.0
 15
10.0
 25
10.0
 16
0.0
 26
0.0
 36
1.0
 17
0.0
 27
0.0
 37
0.0
 40
103.3359636992559
 41
1.368715083798882
 42
50.0
 43
0.0
 44
0.0
 50
0.0
 51
0.0
 71
     0
 72
   500
 73
     1
 74
     0
 75
     0
 76
     0
 77
     0
 78
     2
  0
ENDTAB
  0
TABLE
  2
LTYPE
 70
     4
  0
LTYPE
  2
CONTINUOUS
 70
     0
  3
Solid Line
 72
    65
 73
     0
 40
0.0
  0
LTYPE
  2
CENTER
 70
     0
  3
____ _ ____ _ ____ _ ____ _ ____ _ ____ _ ____
 72
    65
 73
     4
 40
2.0
 49
1.25
 49
-0.25
 49
0.25
 49
-0.25
  0
LTYPE
  2
HIDDEN
 70
     0
  3
_ _ _ _ _ _ _ _ _ _ _ _ _ _ _ _ _ _ _ _ _ _ _
 72
    65
 73
     2
 40
0.375
 49
0.25
 49
-0.125
  0
LTYPE
  2
PHANTOM2
 70
     0
  3
___ _ _ ___ _ _ ___ _ _ ___ _ _
 72
    65
 73
     6
 40
1.25
 49
0.625
 49
-0.125
 49
0.125
 49
-0.125
 49
0.125
 49
-0.125
  0
ENDTAB
  0
TABLE
  2
LAYER
 70
     4
  0
LAYER
  2
0
 70
     0
 62
     7
  6
CONTINUOUS
  0
LAYER
  2
1
 70
     0
 62
     1
  6
CENTER
  0
LAYER
  2
2
 70
     0
 62
     2
  6
HIDDEN
  0
LAYER
  2
3
 70
     0
 62
     3
  6
CONTINUOUS
  0
ENDTAB
  0
TABLE
  2
STYLE
 70
     2
  0
STYLE
  2
STANDARD
 70
     0
 40
0.0
 41
1.0
 50
0.0
 71
     0
 42
0.2
  3
TXT
  4
BIGFONT
  0
STYLE
  2
STANDARD1
 70
     0
 40
0.0
 41
1.0
 50
0.0
 71
     0
 42
3.0
  3
txt
  4

  0
ENDTAB
  0
TABLE
  2
VIEW
 70
     1
  0
VIEW
  2
ALL
 70
     0
 40
270.0
 10
220.99159663865549
 20
135.0
 41
0.0
 11
0.0
 21
0.0
 31
1.0
 12
0.0
 22
0.0
 32
0.0
 42
0.0
 43
0.0
 44
0.0
 50
0.0
 71
     0
  0
ENDTAB
  0
TABLE
  2
UCS
 70
     0
  0
ENDTAB
  0
TABLE
  2
APPID
 70
     5
  0
APPID
  2
ACAD
 70
     0
  0
APPID
  2
_CALL_MAC$
 70
     0
  0
APPID
  2
ACAD_MLEADERVER
 70
     0
  0
APPID
  2
ACAD_NAV_VCDISPLAY
 70
     0
  0
APPID
  2
ACAD_EXEMPT_FROM_CAD_STANDARDS
 70
     0
  0
ENDTAB
  0
TABLE
  2
DIMSTYLE
 70
     2
  0
DIMSTYLE
  2
STANDARD
 70
     0
  3

  4

  5

  6

  7

 40
1.0
 41
0.18
 42
0.0625
 43
0.38
 44
0.18
 45
0.0
 46
0.0
 47
0.0
 48
0.0
140
0.18
141
0.09
142
0.0
143
25.399999999999999
144
1.0
145
0.0
146
1.0
147
0.09
 71
     0
 72
     0
 73
     1
 74
     1
 75
     0
 76
     0
 77
     0
 78
     0
170
     0
171
     2
172
     0
173
     0
174
     0
175
     0
176
     0
177
     0
178
     0
  0
DIMSTYLE
  2
ISO-25
 70
     0
  3

  4

  5

  6

  7

 40
1.0
 41
2.5
 42
0.625
 43
3.75
 44
1.25
 45
0.0
 46
0.0
 47
0.0
 48
0.0
140
2.5
141
2.5
142
0.0
143
0.0393700787
144
1.0
145
0.0
146
1.0
147
0.625
 71
     0
 72
     0
 73
     0
 74
     0
 75
     0
 76
     0
 77
     1
 78
     8
170
     0
171
     3
172
     1
173
     0
174
     0
175
     0
176
     0
177
     0
178
     0
  0
ENDTAB
  0
ENDSEC
  0
SECTION
  2
BLOCKS
  0
BLOCK
  8
0
  2
$MODEL_SPACE
 70
     0
 10
0.0
 20
0.0
 30
0.0
  3
$MODEL_SPACE
  1

  0
ENDBLK
  5
6E2
  8
0
  0
BLOCK
 67
     1
  8
0
  2
$PAPER_SPACE
 70
     0
 10
0.0
 20
0.0
 30
0.0
  3
$PAPER_SPACE
  1

  0
ENDBLK
  5
6E0
 67
     1
  8
0
  0
ENDSEC
  0
SECTION
  2
ENTITIES
  0
TEXT
  5
8F7
  8
0
 62
     3
 10
0.0
 20
0.0
 30
0.0
 40
10.0
  1
AMBH12
  7
STANDARD1
  0
LINE
  5
1173
  8
0
 10
87.5
 20
48.749999999999979
 30
0.0
 11
87.5
 21
47.249999999999972
 31
0.0
  0
LINE
  5
1174
  8
0
 10
62.0
 20
52.999999999999979
 30
0.0
 11
62.0
 21
48.749999999999979
 31
0.0
  0
LINE
  5
1175
  8
0
 10
98.0
 20
38.000000022349987
 30
0.0
 11
98.0
 21
52.999999999999979
 31
0.0
  0
ARC
  5
1176
  8
0
 10
95.0
 20
37.999999999999979
 30
0.0
 40
3.0000000000000062
 50
270.0
 51
0.0000004268998507
  0
LINE
  5
1177
  8
0
 10
65.0
 20
35.0
 30
0.0
 11
95.0
 21
35.0
 31
0.0
  0
ARC
  5
1178
  8
0
 10
65.0
 20
37.999999999999979
 30
0.0
 40
3.0000000000000062
 50
179.9999995731001
 51
270.0
  0
LINE
  5
1179
  8
0
 10
62.0
 20
47.249999999999972
 30
0.0
 11
62.0
 21
38.000000022349987
 31
0.0
  0
LINE
  5
117A
  8
0
 10
62.0
 20
47.249999999999972
 30
0.0
 11
75.002969982079293
 21
47.249999999999993
 31
0.0
  0
LINE
  5
117C
  8
0
 10
84.997030017920693
 20
48.749999999999972
 30
0.0
 11
87.5
 21
48.749999999999979
 31
0.0
  0
LINE
  5
117E
  8
0
 10
62.0
 20
48.749999999999979
 30
0.0
 11
75.002969982079307
 21
48.75
 31
0.0
  0
LINE
  5
117F
  8
0
 10
84.997030017920679
 20
47.249999999999957
 30
0.0
 11
87.5
 21
47.249999999999972
 31
0.0
  0
ARC
  5
1180
  8
0
 10
70.0
 20
52.999999999999979
 30
0.0
 40
8.0
 50
90.0
 51
180.0
  0
LINE
  5
1181
  8
0
 10
90.0
 20
60.999999999999972
 30
0.0
 11
70.0
 21
60.999999999999972
 31
0.0
  0
ARC
  5
1182
  8
0
 10
90.0
 20
52.999999999999979
 30
0.0
 40
8.0000000000000142
 50
0.0
 51
90.0
  0
LINE
  5
1185
  8
2
 10
62.400657923200022
 20
55.499999999999979
 30
0.0
 11
73.000000000000028
 21
55.499999999999979
 31
0.0
  0
LINE
  5
1186
  8
2
 10
86.999999999999972
 20
55.499999999999979
 30
0.0
 11
97.599342076800014
 21
55.499999999999979
 31
0.0
  0
LINE
  5
1187
  8
2
 10
65.25
 20
35.499999999999993
 30
0.0
 11
70.75
 21
35.500000000000007
 31
0.0
  0
LINE
  5
1188
  8
2
 10
94.749999999999986
 20
35.50000000004998
 30
0.0
 11
89.25
 21
35.500000000049987
 31
0.0
  0
LINE
  5
1189
  8
2
 10
70.75
 20
54.999999999999957
 30
0.0
 11
65.25
 21
54.999999999999979
 31
0.0
  0
LINE
  5
118A
  8
2
 10
94.749999999999986
 20
54.999999999999979
 30
0.0
 11
89.25
 21
54.999999999999957
 31
0.0
  0
LINE
  5
118B
  8
2
 10
87.0
 20
60.999999999999972
 30
0.0
 11
87.0
 21
55.5
 31
0.0
  0
LINE
  5
118C
  8
2
 10
73.0
 20
55.499999999999979
 30
0.0
 11
73.0
 21
60.999999999999972
 31
0.0
  0
LINE
  5
118D
  8
2
 10
71.25
 20
35.0
 30
0.0
 11
70.750000000049994
 21
35.499999999999993
 31
0.0
  0
LINE
  5
118E
  8
2
 10
65.249999999949978
 20
35.499999999999993
 30
0.0
 11
64.75
 21
35.0
 31
0.0
  0
LINE
  5
118F
  8
2
 10
95.25
 20
35.0
 30
0.0
 11
94.749999999999986
 21
35.500000000049987
 31
0.0
  0
LINE
  5
1190
  8
2
 10
89.25
 20
35.500000000049987
 30
0.0
 11
88.75
 21
35.0
 31
0.0
  0
LINE
  5
1191
  8
2
 10
64.750000000049994
 20
55.499999999999979
 30
0.0
 11
65.25
 21
54.999999999999979
 31
0.0
  0
LINE
  5
1192
  8
2
 10
70.75
 20
54.999999999999979
 30
0.0
 11
71.249999999949964
 21
55.499999999999979
 31
0.0
  0
LINE
  5
1193
  8
2
 10
88.750000000049994
 20
55.499999999999979
 30
0.0
 11
89.25
 21
54.999999999999979
 31
0.0
  0
LINE
  5
1194
  8
2
 10
94.749999999999986
 20
54.999999999999979
 30
0.0
 11
95.249999999949978
 21
55.499999999999979
 31
0.0
  0
LINE
  5
1195
  8
2
 10
89.25
 20
54.999999999999979
 30
0.0
 11
89.25
 21
35.500000000049987
 31
0.0
  0
LINE
  5
1196
  8
2
 10
94.749999999999986
 20
35.500000000049987
 30
0.0
 11
94.749999999999986
 21
54.999999999999979
 31
0.0
  0
LINE
  5
1197
  8
2
 10
65.25
 20
47.249999999999972
 30
0.0
 11
65.25
 21
35.499999999999993
 31
0.0
  0
LINE
  5
1198
  8
2
 10
70.75
 20
35.499999999999993
 30
0.0
 11
70.75
 21
47.249999999999972
 31
0.0
  0
LINE
  5
1199
  8
2
 10
65.25
 20
54.999999999999979
 30
0.0
 11
65.25
 21
48.749999999999979
 31
0.0
  0
LINE
  5
119A
  8
2
 10
70.75
 20
48.749999999999979
 30
0.0
 11
70.75
 21
54.999999999999979
 31
0.0
  0
LINE
  5
119B
  8
0
 10
69.999999999999986
 20
95.582575694955864
 30
0.0
 11
69.999999999999986
 21
97.0
 31
0.0
  0
LINE
  5
119C
  8
0
 10
69.999999999999986
 20
85.0
 30
0.0
 11
69.999999999999986
 21
86.417424305044136
 31
0.0
  0
LINE
  5
119D
  8
0
 10
67.999999999999986
 20
86.0
 30
0.0
 11
62.400657923200022
 21
86.0
 31
0.0
  0
LINE
  5
119E
  8
0
 10
61.999999999999993
 20
97.0
 30
0.0
 11
61.999999999999993
 21
85.0
 31
0.0
  0
LINE
  5
119F
  8
0
 10
62.400657923200022
 20
96.0
 30
0.0
 11
67.999999999999986
 21
96.000000000000028
 31
0.0
  0
LINE
  5
11A0
  8
0
 10
62.400657923200022
 20
86.0
 30
0.0
 11
62.400657923200001
 21
96.000000000000028
 31
0.0
  0
ARC
  5
11A1
  8
0
 10
67.999999999999986
 20
91.0
 30
0.0
 40
5.0000000000000151
 50
270.0
 51
90.0
  0
CIRCLE
  5
11A2
  8
0
 10
67.999999999999986
 20
91.0
 30
0.0
 40
2.75
  0
LINE
  5
11A3
  8
0
 10
35.999999999999972
 20
38.000000022350001
 30
0.0
 11
23.999999999999979
 21
38.000000022350001
 31
0.0
  0
LINE
  5
11A4
  8
0
 10
23.999999999999979
 20
35.0
 30
0.0
 11
36.0
 21
35.0
 31
0.0
  0
LINE
  5
11A5
  8
0
 10
23.999999999999979
 20
52.999999999999979
 30
0.0
 11
35.999999999999972
 21
52.999999999999979
 31
0.0
  0
LINE
  5
11A6
  8
0
 10
35.999999999999972
 20
48.749999999999993
 30
0.0
 11
23.999999999999979
 21
48.749999999999993
 31
0.0
  0
LINE
  5
11A7
  8
0
 10
23.999999999999979
 20
47.249999999999979
 30
0.0
 11
35.999999999999972
 21
47.249999999999979
 31
0.0
  0
LINE
  5
11A8
  8
0
 10
34.999999999999972
 20
60.999999999999993
 30
0.0
 11
34.99999999999995
 21
55.499999999999979
 31
0.0
  0
LINE
  5
11A9
  8
0
 10
35.999999999999972
 20
35.0
 30
0.0
 11
35.999999999999972
 21
60.999999999999993
 31
0.0
  0
LINE
  5
11AA
  8
0
 10
35.999999999999972
 20
60.999999999999993
 30
0.0
 11
23.999999999999979
 21
60.999999999999993
 31
0.0
  0
LINE
  5
11AB
  8
0
 10
24.99999999999995
 20
55.499999999999979
 30
0.0
 11
24.999999999999979
 21
60.999999999999993
 31
0.0
  0
LINE
  5
11AC
  8
0
 10
34.99999999999995
 20
55.499999999999979
 30
0.0
 11
24.99999999999995
 21
55.499999999999972
 31
0.0
  0
LINE
  5
11AD
  8
0
 10
23.999999999999979
 20
35.0
 30
0.0
 11
23.999999999999979
 21
60.999999999999993
 31
0.0
  0
LINE
  5
11AE
  8
2
 10
27.249999999999972
 20
35.5
 30
0.0
 11
32.749999999999972
 21
35.5
 31
0.0
  0
LINE
  5
11AF
  8
2
 10
32.749999999999972
 20
54.999999999999993
 30
0.0
 11
27.249999999999972
 21
54.999999999999993
 31
0.0
  0
LINE
  5
11B0
  8
2
 10
33.249999999999972
 20
35.0
 30
0.0
 11
32.750000000049972
 21
35.5
 31
0.0
  0
LINE
  5
11B1
  8
2
 10
27.249999999899991
 20
35.5
 30
0.0
 11
26.749999999949981
 21
35.0
 31
0.0
  0
LINE
  5
11B2
  8
2
 10
26.750000000049969
 20
55.499999999999979
 30
0.0
 11
27.249999999999972
 21
54.999999999999993
 31
0.0
  0
LINE
  5
11B3
  8
2
 10
32.749999999949978
 20
54.999999999999993
 30
0.0
 11
33.249999999949978
 21
55.499999999999979
 31
0.0
  0
LINE
  5
11B4
  8
2
 10
27.249999999999972
 20
54.999999999999993
 30
0.0
 11
27.249999999999972
 21
48.749999999999993
 31
0.0
  0
LINE
  5
11B5
  8
2
 10
32.749999999999972
 20
48.749999999999993
 30
0.0
 11
32.749999999999972
 21
54.999999999999993
 31
0.0
  0
LINE
  5
11B6
  8
2
 10
27.249999999999972
 20
47.249999999999979
 30
0.0
 11
27.249999999999972
 21
35.5
 31
0.0
  0
LINE
  5
11B7
  8
2
 10
32.749999999999972
 20
35.5
 30
0.0
 11
32.749999999999972
 21
47.249999999999979
 31
0.0
  0
LINE
  5
11B8
  8
0
 10
136.0
 20
38.000000022349987
 30
0.0
 11
124.0
 21
38.000000022349987
 31
0.0
  0
LINE
  5
11B9
  8
0
 10
124.0
 20
35.0
 30
0.0
 11
136.0
 21
35.0
 31
0.0
  0
LINE
  5
11BA
  8
0
 10
124.0
 20
52.999999999999979
 30
0.0
 11
136.0
 21
52.999999999999979
 31
0.0
  0
LINE
  5
11BB
  8
0
 10
135.0
 20
60.999999999999972
 30
0.0
 11
135.0
 21
55.499999999999979
 31
0.0
  0
LINE
  5
11BC
  8
0
 10
136.0
 20
35.0
 30
0.0
 11
136.0
 21
60.999999999999972
 31
0.0
  0
LINE
  5
11BD
  8
0
 10
136.0
 20
60.999999999999972
 30
0.0
 11
124.0
 21
60.999999999999972
 31
0.0
  0
LINE
  5
11BE
  8
0
 10
125.0
 20
55.499999999999979
 30
0.0
 11
125.0
 21
60.999999999999972
 31
0.0
  0
LINE
  5
11BF
  8
0
 10
135.0
 20
55.499999999999979
 30
0.0
 11
125.0
 21
55.499999999999972
 31
0.0
  0
LINE
  5
11C0
  8
0
 10
124.0
 20
35.0
 30
0.0
 11
124.0
 21
60.999999999999972
 31
0.0
  0
LINE
  5
11C1
  8
2
 10
127.25
 20
35.499999999999993
 30
0.0
 11
132.75
 21
35.499999999999993
 31
0.0
  0
LINE
  5
11C2
  8
2
 10
132.75
 20
54.999999999999979
 30
0.0
 11
127.25
 21
54.999999999999979
 31
0.0
  0
LINE
  5
11C3
  8
2
 10
133.25
 20
35.0
 30
0.0
 11
132.75000000004999
 21
35.499999999999993
 31
0.0
  0
LINE
  5
11C4
  8
2
 10
127.2499999999
 20
35.499999999999993
 30
0.0
 11
126.74999999995001
 21
35.0
 31
0.0
  0
LINE
  5
11C5
  8
2
 10
126.75000000004999
 20
55.499999999999979
 30
0.0
 11
127.25
 21
54.999999999999979
 31
0.0
  0
LINE
  5
11C6
  8
2
 10
132.74999999995001
 20
54.999999999999979
 30
0.0
 11
133.24999999994989
 21
55.499999999999979
 31
0.0
  0
LINE
  5
11C7
  8
2
 10
127.25
 20
55.0
 30
0.0
 11
127.25
 21
35.499999999999993
 31
0.0
  0
LINE
  5
11C8
  8
2
 10
132.75
 20
35.499999999999993
 30
0.0
 11
132.75
 21
55.0
 31
0.0
  0
LINE
  5
11C9
  8
0
 10
89.999999999999986
 20
95.582575694955864
 30
0.0
 11
89.999999999999986
 21
97.0
 31
0.0
  0
LINE
  5
11CA
  8
0
 10
89.999999999999986
 20
85.0
 30
0.0
 11
89.999999999999986
 21
86.417424305044136
 31
0.0
  0
LINE
  5
11CB
  8
0
 10
91.999999999999986
 20
86.0
 30
0.0
 11
97.599342076799957
 21
86.0
 31
0.0
  0
LINE
  5
11CC
  8
0
 10
97.999999999999986
 20
85.0
 30
0.0
 11
62.000000000000007
 21
85.0
 31
0.0
  0
LINE
  5
11CD
  8
0
 10
97.999999999999986
 20
97.0
 30
0.0
 11
97.999999999999986
 21
85.0
 31
0.0
  0
LINE
  5
11CE
  8
0
 10
97.999999999999986
 20
97.0
 30
0.0
 11
62.000000000000007
 21
97.0
 31
0.0
  0
LINE
  5
11CF
  8
0
 10
97.599342076799957
 20
96.0
 30
0.0
 11
91.999999999999986
 21
96.000000000000028
 31
0.0
  0
LINE
  5
11D0
  8
0
 10
97.599342076799957
 20
86.0
 30
0.0
 11
97.599342076799971
 21
96.000000000000028
 31
0.0
  0
ARC
  5
11D1
  8
0
 10
91.999999999999986
 20
91.0
 30
0.0
 40
5.0000000000000151
 50
90.0
 51
270.0
  0
CIRCLE
  5
11D2
  8
0
 10
91.999999999999986
 20
91.0
 30
0.0
 40
2.75
  0
LINE
  5
11E4
  8
1
 10
79.999999999999986
 20
99.500000000000014
 30
0.0
 11
79.999999999999986
 21
82.5
 31
0.0
  0
LINE
  5
11E5
  8
1
 10
59.499999999999993
 20
91.0
 30
0.0
 11
100.5
 21
91.0
 31
0.0
  0
LINE
  5
11E6
  8
1
 10
91.999999999999986
 20
96.25
 30
0.0
 11
91.999999999999986
 21
85.750000000000014
 31
0.0
  0
LINE
  5
11E7
  8
1
 10
67.999999999999986
 20
96.25
 30
0.0
 11
67.999999999999986
 21
85.750000000000014
 31
0.0
  0
LINE
  5
11EB
  8
1
 10
29.999999999999972
 20
63.499999999999993
 30
0.0
 11
30.0
 21
32.5
 31
0.0
  0
LINE
  5
11EC
  8
1
 10
67.999999999999972
 20
63.499999999999972
 30
0.0
 11
68.0
 21
32.5
 31
0.0
  0
LINE
  5
11ED
  8
1
 10
91.999999999999972
 20
63.500000000049972
 30
0.0
 11
92.0
 21
32.50000000004998
 31
0.0
  0
LINE
  5
11EE
  8
1
 10
130.0
 20
63.499999999999972
 30
0.0
 11
130.0
 21
32.5
 31
0.0
  0
LINE
  5
11F1
  8
1
 10
71.5
 20
47.999999999999979
 30
0.0
 11
88.499999999999986
 21
47.999999999999979
 31
0.0
  0
LINE
  5
11F2
  8
1
 10
80.0
 20
56.499999999999979
 30
0.0
 11
80.0
 21
39.499999999999979
 31
0.0
  0
LINE
  5
13F0
  8
2
 10
73.999999999999986
 20
85.0
 30
0.0
 11
73.999999999999986
 21
97.0
 31
0.0
  0
LINE
  5
13F1
  8
2
 10
74.946999999999989
 20
85.947000000000017
 30
0.0
 11
74.946999999999989
 21
96.052999999999983
 31
0.0
  0
LINE
  5
13F2
  8
2
 10
85.053000000000026
 20
85.947000000000017
 30
0.0
 11
85.053000000000026
 21
96.053000000000083
 31
0.0
  0
LINE
  5
13F3
  8
2
 10
85.999999999999986
 20
85.0
 30
0.0
 11
85.999999999999986
 21
97.0
 31
0.0
  0
LINE
  5
13F4
  8
2
 10
86.000000000000014
 20
85.0
 30
0.0
 11
85.052999999999983
 21
85.947000000000017
 31
0.0
  0
LINE
  5
13F5
  8
2
 10
85.052999999999983
 20
85.947000000000017
 30
0.0
 11
74.946999999999989
 21
85.947000000000017
 31
0.0
  0
LINE
  5
13F6
  8
2
 10
73.999999999999943
 20
85.0
 30
0.0
 11
74.946999999999989
 21
85.947000000000017
 31
0.0
  0
LINE
  5
13F7
  8
2
 10
85.999999999999986
 20
97.0
 30
0.0
 11
85.052999999999983
 21
96.053000000000026
 31
0.0
  0
LINE
  5
13F8
  8
2
 10
85.052999999999983
 20
96.053000000000026
 30
0.0
 11
74.946999999999989
 21
96.053000000000026
 31
0.0
  0
LINE
  5
13F9
  8
2
 10
73.999999999999986
 20
97.0
 30
0.0
 11
74.946999999999989
 21
96.053000000000026
 31
0.0
  0
ARC
  5
1401
  8
3
 10
80.0
 20
47.999999999999979
 30
0.0
 40
6.0
 50
187.1807557814582
 51
352.8192442185416
  0
ARC
  5
1403
  8
0
 10
80.0
 20
47.999999999999979
 30
0.0
 40
5.0530000000000541
 50
188.5357611996796
 51
351.46423880032
  0
ARC
  5
1404
  8
3
 10
80.0
 20
47.999999999999979
 30
0.0
 40
6.0
 50
7.1807557814582212
 51
172.8192442185416
  0
ARC
  5
1405
  8
0
 10
80.0
 20
47.999999999999979
 30
0.0
 40
5.0530000000000541
 50
8.5357611996797385
 51
171.46423880032
  0
ENDSEC
  0
EOF
